Menu:

 

Search:

 

youth noise - new amsterdam police raid:

 



Title: New Amsterdam Police Raid
Artist: 
Album: Youth Noise Demo
Author: Youth Noise


Track 1: Overdrive

E|--------|--------|--------|--------|-4--0--0--5--0--0--7--0--0--5--0--0--4--0--5--0--|
B|--------|--------|--------|--------|-------------------------------------------------|
G|--------|--------|--------|--------|-------------------------------------------------|
D|--------|--------|--------|--------|-------------------------------------------------|
A|--------|--------|--------|--------|-------------------------------------------------|
E|--------|--------|--------|--------|-------------------------------------------------|


E|-4--0--0--5--0--0--7--0--0--5--0--0--4--0--5--0--|-4--0--0--5--0--0--7--0--0--5--0--0--4--0--5--0--|
B|-------------------------------------------------|-------------------------------------------------|
G|-------------------------------------------------|-------------------------------------------------|
D|-------------------------------------------------|-------------------------------------------------|
A|-------------------------------------------------|-------------------------------------------------|
E|-------------------------------------------------|-------------------------------------------------|


E|-4--0--0--5--0--0--7--0--0--4--0--0--5--0--4--0--|-4--0--0--5--0--0--7--0--0--5--0--0--4--0--5--0--|
B|-------------------------------------------------|-------------------------------------------------|
G|-------------------------------------------------|-------------------------------------------------|
D|-------------------------------------------------|-------------------------------------------------|
A|-------------------------------------------------|-------------------------------------------------|
E|-------------------------------------------------|-------------------------------------------------|


E|-4--0--0--5--0--0--7--0--0--5--0--0--4--0--5--0--|-4--0--0--5--0--0--7--0--0--5--0--0--4--0--5--0--|
B|-------------------------------------------------|-------------------------------------------------|
G|-------------------------------------------------|-------------------------------------------------|
D|-------------------------------------------------|-------------------------------------------------|
A|-------------------------------------------------|-------------------------------------------------|
E|-------------------------------------------------|-------------------------------------------------|


E|-4--0--0--5--0--0--7--0--0--4--0--0--5--0--4--0--|---------------------------------|
B|-------------------------------------------------|---------------------------------|
G|-------------------------------------------------|-----6-------6-------6-------6---|
D|-------------------------------------------------|---------------------------------|
A|-------------------------------------------------|-4-------4-------4-------4-------|
E|-------------------------------------------------|---------------------------------|


E|---------------------------------|---------------------------------|---------------------------------|
B|---------------------------------|---------------------------------|---------------------------------|
G|-----9-------9-------9-------9---|---------------------------------|-----4-------4-------4-------4---|
D|-7-------7-------7-------7-------|-----2-------2-------2-------2---|---------------------------------|
A|---------------------------------|---------------------------------|-2-------2-------2-------2-------|
E|---------------------------------|-0-------0-------0-------0-------|---------------------------------|


E|---------------------------------|---------------------------------|---------------------------------|
B|---------------------------------|---------------------------------|---------------------------------|
G|-----6-------6-------6-------6---|-----9-------9-------9-------9---|---------------------------------|
D|---------------------------------|-7-------7-------7-------7-------|-----2-------2-------2-------2---|
A|-4-------4-------4-------4-------|---------------------------------|---------------------------------|
E|---------------------------------|---------------------------------|-0-------0-------0-------0-------|


E|---------------------------------|------------|----------------|---------------------------------|
B|---------------------------------|------------|----------------|---------------------------------|
G|-----4-------4-------4-------4---|-6----------|-2--------------|-9---9---8---9---9---8---9---8---|
D|---------------------------------|-6----------|-2--------------|-9---9---9---9---9---9---9---9---|
A|-2-------2-------2-------2-------|-4------2---|-0------5---6---|-7---7---7---7---7---7---7---7---|
E|---------------------------------|------------|----------------|---------------------------------|


E|------------------|------------|----------------|---------------------------------|
B|------------------|------------|----------------|---------------------------------|
G|------------------|-6----------|-2--------------|-9---9---8---9---9---8---9---8---|
D|-9-----9-----9----|-6----------|-2--------------|-9---9---9---9---9---9---9---9---|
A|-9-----9-----9----|-4------2---|-0------5---6---|-7---7---7---7---7---7---7---7---|
E|-7-----7-----7----|------------|----------------|---------------------------------|


E|------------------|---------------------------------|---------------------------|
B|------------------|---------------------------------|---------------------------|
G|------------------|-9---9---9-------------------6---|-6---6---6---6-------------|
D|-9-----9-----9----|-9---9---9---9---9---9---9---6---|-6---6---6---6---7----7----|
A|-9-----9-----9----|-7---7---7---9---9---9---9---4---|-4---4---4---4---7----7----|
E|-7-----7-----7----|-------------7---7---7---7-------|-----------------5----5----|


E|---------------------------------|---------------------------|---------------------------------|
B|---------------------------------|---------------------------|---------------------------------|
G|-9---9---9-------------------6---|-6---6---6---6-------------|-9---9---9-------------------6---|
D|-9---9---9---9---9---9---9---6---|-6---6---6---6---7----7----|-9---9---9---9---9---9---9---6---|
A|-7---7---7---9---9---9---9---4---|-4---4---4---4---7----7----|-7---7---7---9---9---9---9---4---|
E|-------------7---7---7---7-------|-----------------5----5----|-------------7---7---7---7-------|


E|---------------------------|---------------------------------|---------------------------------|
B|---------------------------|---------------------------------|---------------------------------|
G|-6---6---6---6-------------|-9---9---9-------------------6---|-6---6---6---4---4---4---4---4---|
D|-6---6---6---6---7----7----|-9---9---9---9---9---9---9---6---|-6---6---6---4---4---4---4---4---|
A|-4---4---4---4---7----7----|-7---7---7---9---9---9---9---4---|-4---4---4---2---2---2---2---2---|
E|-----------------5----5----|-------------7---7---7---7-------|---------------------------------|


E|-4--0--0--5--0--0--7--0--0--5--0--0--4--0--5--0--|-4--0--0--5--0--0--7--0--0--5--0--0--4--0--5--0--|
B|-------------------------------------------------|-------------------------------------------------|
G|-------------------------------------------------|-------------------------------------------------|
D|-------------------------------------------------|-------------------------------------------------|
A|-------------------------------------------------|-------------------------------------------------|
E|-------------------------------------------------|-------------------------------------------------|


E|-4--0--0--5--0--0--7--0--0--5--0--0--4--0--5--0--|-4--0--0--5--0--0--7--0--0--4--0--0--5--0--4--0--|
B|-------------------------------------------------|-------------------------------------------------|
G|-------------------------------------------------|-------------------------------------------------|
D|-------------------------------------------------|-------------------------------------------------|
A|-------------------------------------------------|-------------------------------------------------|
E|-------------------------------------------------|-------------------------------------------------|


E|-4--0--0--5--0--0--7--0--0--5--0--0--4--0--5--0--|-4--0--0--5--0--0--7--0--0--5--0--0--4--0--5--0--|
B|-------------------------------------------------|-------------------------------------------------|
G|-------------------------------------------------|-------------------------------------------------|
D|-------------------------------------------------|-------------------------------------------------|
A|-------------------------------------------------|-------------------------------------------------|
E|-------------------------------------------------|-------------------------------------------------|


E|-4--0--0--5--0--0--7--0--0--5--0--0--4--0--5--0--|-4--0--0--5--0--0--7--0--0--4--0--0--5--0--4--0--|
B|-------------------------------------------------|-------------------------------------------------|
G|-------------------------------------------------|-------------------------------------------------|
D|-------------------------------------------------|-------------------------------------------------|
A|-------------------------------------------------|-------------------------------------------------|
E|-------------------------------------------------|-------------------------------------------------|


E|--------|--------|--------|--------|--------|--------|--------|--------|------------|
B|--------|--------|--------|--------|--------|--------|--------|--------|------------|
G|--------|--------|--------|--------|--------|--------|--------|--------|-6----------|
D|--------|--------|--------|--------|--------|--------|--------|--------|-6----------|
A|--------|--------|--------|--------|--------|--------|--------|--------|-4------2---|
E|--------|--------|--------|--------|--------|--------|--------|--------|------------|


E|----------------|---------------------------------|------------------|------------|
B|----------------|---------------------------------|------------------|------------|
G|-2--------------|-9---9---8---9---9---8---9---8---|------------------|-6----------|
D|-2--------------|-9---9---9---9---9---9---9---9---|-9-----9-----9----|-6----------|
A|-0------5---6---|-7---7---7---7---7---7---7---7---|-9-----9-----9----|-4------2---|
E|----------------|---------------------------------|-7-----7-----7----|------------|


E|----------------|---------------------------------|------------------|---------------------------------|
B|----------------|---------------------------------|------------------|---------------------------------|
G|-2--------------|-9---9---8---9---9---8---9---8---|------------------|-9---9---9-------------------6---|
D|-2--------------|-9---9---9---9---9---9---9---9---|-9-----9-----9----|-9---9---9---9---9---9---9---6---|
A|-0------5---6---|-7---7---7---7---7---7---7---7---|-9-----9-----9----|-7---7---7---9---9---9---9---4---|
E|----------------|---------------------------------|-7-----7-----7----|-------------7---7---7---7-------|


E|---------------------------|---------------------------------|---------------------------|
B|---------------------------|---------------------------------|---------------------------|
G|-6---6---6---6-------------|-9---9---9-------------------6---|-6---6---6---6-------------|
D|-6---6---6---6---7----7----|-9---9---9---9---9---9---9---6---|-6---6---6---6---7----7----|
A|-4---4---4---4---7----7----|-7---7---7---9---9---9---9---4---|-4---4---4---4---7----7----|
E|-----------------5----5----|-------------7---7---7---7-------|-----------------5----5----|


E|---------------------------------|---------------------------|---------------------------------|
B|---------------------------------|---------------------------|---------------------------------|
G|-9---9---9-------------------6---|-6---6---6---6-------------|-9---9---9-------------------6---|
D|-9---9---9---9---9---9---9---6---|-6---6---6---6---7----7----|-9---9---9---9---9---9---9---6---|
A|-7---7---7---9---9---9---9---4---|-4---4---4---4---7----7----|-7---7---7---9---9---9---9---4---|
E|-------------7---7---7---7-------|-----------------5----5----|-------------7---7---7---7-------|


E|---------------------------------|--------|--------|--------|--------|--------|--------|
B|---------------------------------|--------|--------|--------|--------|--------|--------|
G|-6---6---6---4---4---4---4---4---|-9------|-4------|-6------|-2------|-9------|-4------|
D|-6---6---6---4---4---4---4---4---|-9------|-4------|-6------|-2------|-9------|-4------|
A|-4---4---4---2---2---2---2---2---|-7------|-2------|-4------|-0------|-7------|-2------|
E|---------------------------------|--------|--------|--------|--------|--------|--------|


E|--------|--------|---------9--7--------------9--7------|---------9--7------9--7------9--7------|
B|--------|--------|-10--10--------10--10--10--------10--|-10--10--------10--------10--------10--|
G|-6------|-2------|-------------------------------------|---------------------------------------|
D|-6------|-2------|-------------------------------------|---------------------------------------|
A|-4------|-0------|-------------------------------------|---------------------------------------|
E|--------|--------|-------------------------------------|---------------------------------------|


E|---------9--7--------------9--7------|---------9--7------9--7------9--7------|---------12-10-------------12-10-----|
B|-10--10--------10--10--10--------10--|-10--10--------10--------10--------10--|-13--13--------13--13--13--------13--|
G|-------------------------------------|---------------------------------------|-------------------------------------|
D|-------------------------------------|---------------------------------------|-------------------------------------|
A|-------------------------------------|---------------------------------------|-------------------------------------|
E|-------------------------------------|---------------------------------------|-------------------------------------|


E|---------12-10-----12-10-----12-10-----|---------9--7--------------9--7------|---------9--7------9--7------9--7------|
B|-13--13--------13--------13--------13--|-10--10--------10--10--10--------10--|-10--10--------10--------10--------10--|
G|---------------------------------------|-------------------------------------|---------------------------------------|
D|---------------------------------------|-------------------------------------|---------------------------------------|
A|---------------------------------------|-------------------------------------|---------------------------------------|
E|---------------------------------------|-------------------------------------|---------------------------------------|


E|-5--0--0--4--0--0--2--0--0--5--0--0--7--0--5--0--|-5--0--4--0--2--0--4--0--5--0--7--0--4--0--2--0--|
B|-------------------------------------------------|-------------------------------------------------|
G|-------------------------------------------------|-------------------------------------------------|
D|-------------------------------------------------|-------------------------------------------------|
A|-------------------------------------------------|-------------------------------------------------|
E|-------------------------------------------------|-------------------------------------------------|


E|-5--0--0--4--0--0--2--0--0--5--0--0--7--0--5--0--|-5--0--4--0--2--0--4--0--5--0--7--0--4--0--2--0--|
B|-------------------------------------------------|-------------------------------------------------|
G|-------------------------------------------------|-------------------------------------------------|
D|-------------------------------------------------|-------------------------------------------------|
A|-------------------------------------------------|-------------------------------------------------|
E|-------------------------------------------------|-------------------------------------------------|


E|-5--0--0--4--0--0--2--0--0--5--0--0--7--0--5--0--|-5--0--4--0--2--0--4--0--5--0--7--0--4--0--2--0--|
B|-------------------------------------------------|-------------------------------------------------|
G|-------------------------------------------------|-------------------------------------------------|
D|-------------------------------------------------|-------------------------------------------------|
A|-------------------------------------------------|-------------------------------------------------|
E|-------------------------------------------------|-------------------------------------------------|


E|-5--0--0--4--0--0--2--0--0--5--0--0--7--0--5--0--|-5--0--4--0--2--0--4--0--5--0--7--0--4--0--2--0--|
B|-------------------------------------------------|-------------------------------------------------|
G|-------------------------------------------------|-------------------------------------------------|
D|-------------------------------------------------|-------------------------------------------------|
A|-------------------------------------------------|-------------------------------------------------|
E|-------------------------------------------------|-------------------------------------------------|


E|-0------|-0------|--------|--------|--------|--------|--------|--------|--------|
B|--------|--------|--------|--------|--------|--------|--------|--------|--------|
G|--------|--------|--------|--------|--------|--------|--------|--------|--------|
D|--------|--------|--------|--------|--------|--------|--------|--------|--------|
A|--------|--------|--------|--------|--------|--------|--------|--------|--------|
E|--------|--------|--------|--------|--------|--------|--------|--------|--------|


E|--------|--------|--------|---------------------------------|---------------------------------|
B|--------|--------|--------|---------------------------------|---------------------------------|
G|--------|--------|--------|---------9---------------9-------|---------9---------------9-------|
D|--------|--------|--------|---------------------------------|---------------------------------|
A|--------|--------|--------|-7---7-------7---7---7-------7---|-7---7-------7---7---7-------7---|
E|--------|--------|--------|---------------------------------|---------------------------------|


E|---------------------------------|-----------------------------------|---------------------------------|
B|---------------------------------|-----------------------------------|---------------------------------|
G|---------------------------------|-----------------------------------|---------9---------------9-------|
D|---------9---------------9-------|---------7-------6-------7--5------|---------------------------------|
A|---------------------------------|-----------------------------------|-7---7-------7---7---7-------7---|
E|-7---7-------7---7---7-------7---|-5---5-------5-------5---------5---|---------------------------------|


E|---------------------------------|---------------------------------|-----------------------------------|
B|---------------------------------|---------------------------------|-----------------------------------|
G|---------9---------------9-------|---------------------------------|-----------------------------------|
D|---------------------------------|---------9---------------9-------|---------7-------6-------7--5------|
A|-7---7-------7---7---7-------7---|---------------------------------|-----------------------------------|
E|---------------------------------|-7---7-------7---7---7-------7---|-5---5-------5-------5---------5---|


E|---------------------------------|---------------------------------|---------------------------------|
B|---------------------------------|---------------------------------|---------------------------------|
G|---------9---------------9-------|---------9---------------9-------|---------------------------------|
D|---------------------------------|---------------------------------|---------9---------------9-------|
A|-7---7-------7---7---7-------7---|-7---7-------7---7---7-------7---|---------------------------------|
E|---------------------------------|---------------------------------|-7---7-------7---7---7-------7---|


E|-----------------------------------|---------------------------------|---------------------------------|
B|-----------------------------------|---------------------------------|---------------------------------|
G|-----------------------------------|---------9---------------9-------|---------9---------------9-------|
D|---------7-------6-------7--5------|---------------------------------|---------------------------------|
A|-----------------------------------|-7---7-------7---7---7-------7---|-7---7-------7---7---7-------7---|
E|-5---5-------5-------5---------5---|---------------------------------|---------------------------------|


E|---------------------------------|-----------------------------------|---------------------------------|
B|---------------------------------|-----------------------------------|---------------------------------|
G|---------------------------------|-----------------------------------|-9---9---9-------------------6---|
D|---------9---------------9-------|---------7-------6-------7--5------|-9---9---9---9---9---9---9---6---|
A|---------------------------------|-----------------------------------|-7---7---7---9---9---9---9---4---|
E|-7---7-------7---7---7-------7---|-5---5-------5-------5---------5---|-------------7---7---7---7-------|


E|---------------------------|---------------------------------|---------------------------|
B|---------------------------|---------------------------------|---------------------------|
G|-6---6---6---6-------------|-9---9---9-------------------6---|-6---6---6---6-------------|
D|-6---6---6---6---7----7----|-9---9---9---9---9---9---9---6---|-6---6---6---6---7----7----|
A|-4---4---4---4---7----7----|-7---7---7---9---9---9---9---4---|-4---4---4---4---7----7----|
E|-----------------5----5----|-------------7---7---7---7-------|-----------------5----5----|


E|---------------------------------|---------------------------|---------------------------------|
B|---------------------------------|---------------------------|---------------------------------|
G|-9---9---9-------------------6---|-6---6---6---6-------------|-9---9---9-------------------6---|
D|-9---9---9---9---9---9---9---6---|-6---6---6---6---7----7----|-9---9---9---9---9---9---9---6---|
A|-7---7---7---9---9---9---9---4---|-4---4---4---4---7----7----|-7---7---7---9---9---9---9---4---|
E|-------------7---7---7---7-------|-----------------5----5----|-------------7---7---7---7-------|


E|---------------------------------|---------------------------------|---------------------------|
B|---------------------------------|---------------------------------|---------------------------|
G|-6---6---6---4---4---4---4---4---|-9---9---9-------------------6---|-6---6---6---6-------------|
D|-6---6---6---4---4---4---4---4---|-9---9---9---9---9---9---9---6---|-6---6---6---6---7----7----|
A|-4---4---4---2---2---2---2---2---|-7---7---7---9---9---9---9---4---|-4---4---4---4---7----7----|
E|---------------------------------|-------------7---7---7---7-------|-----------------5----5----|


E|---------------------------------|---------------------------|---------------------------------|
B|---------------------------------|---------------------------|---------------------------------|
G|-9---9---9-------------------6---|-6---6---6---6-------------|-9---9---9-------------------6---|
D|-9---9---9---9---9---9---9---6---|-6---6---6---6---7----7----|-9---9---9---9---9---9---9---6---|
A|-7---7---7---9---9---9---9---4---|-4---4---4---4---7----7----|-7---7---7---9---9---9---9---4---|
E|-------------7---7---7---7-------|-----------------5----5----|-------------7---7---7---7-------|


E|---------------------------|---------------------------------|---------------------------------|
B|---------------------------|---------------------------------|---------------------------------|
G|-6---6---6---6-------------|-9---9---9-------------------6---|-6---6---6---4---4---4---4---4---|
D|-6---6---6---6---7----7----|-9---9---9---9---9---9---9---6---|-6---6---6---4---4---4---4---4---|
A|-4---4---4---4---7----7----|-7---7---7---9---9---9---9---4---|-4---4---4---2---2---2---2---2---|
E|-----------------5----5----|-------------7---7---7---7-------|---------------------------------|


E|---------------------------------|---------------------------|---------------------------------|
B|---------------------------------|---------------------------|---------------------------------|
G|-9---9---9-------------------6---|-6---6---6---6-------------|-9---9---9-------------------6---|
D|-9---9---9---9---9---9---9---6---|-6---6---6---6---7----7----|-9---9---9---9---9---9---9---6---|
A|-7---7---7---9---9---9---9---4---|-4---4---4---4---7----7----|-7---7---7---9---9---9---9---4---|
E|-------------7---7---7---7-------|-----------------5----5----|-------------7---7---7---7-------|


E|---------------------------|---------------------------------|---------------------------|
B|---------------------------|---------------------------------|---------------------------|
G|-6---6---6---6-------------|-9---9---9-------------------6---|-6---6---6---6-------------|
D|-6---6---6---6---7----7----|-9---9---9---9---9---9---9---6---|-6---6---6---6---7----7----|
A|-4---4---4---4---7----7----|-7---7---7---9---9---9---9---4---|-4---4---4---4---7----7----|
E|-----------------5----5----|-------------7---7---7---7-------|-----------------5----5----|


E|---------------------------------|---------------------------------|--------|--------|
B|---------------------------------|---------------------------------|--------|--------|
G|-9---9---9-------------------6---|-6---6---6---4---4---4---4---4---|-9------|-9------|
D|-9---9---9---9---9---9---9---6---|-6---6---6---4---4---4---4---4---|-9------|-9------|
A|-7---7---7---9---9---9---9---4---|-4---4---4---2---2---2---2---2---|-7------|-7------|
E|-------------7---7---7---7-------|---------------------------------|--------|--------|





Track 2: Backup

E|--------|--------|--------|--------|--------|--------|--------|--------|--------|
B|--------|--------|--------|--------|--------|--------|--------|--------|--------|
G|--------|--------|--------|--------|--------|--------|--------|--------|--------|
D|--------|--------|--------|--------|--------|--------|--------|--------|--------|
A|--------|--------|--------|--------|--------|--------|--------|--------|--------|
E|--------|--------|--------|--------|--------|--------|--------|--------|--------|


E|--------|--------|--------|--------|--------|--------|--------|--------|--------|
B|--------|--------|--------|--------|--------|--------|--------|--------|--------|
G|--------|--------|--------|--------|--------|--------|--------|--------|--------|
D|--------|--------|--------|--------|--------|--------|--------|--------|--------|
A|--------|--------|--------|--------|--------|--------|--------|--------|--------|
E|--------|--------|--------|--------|--------|--------|--------|--------|--------|


E|--------|--------|--------|--------|--------|--------|--------|--------|--------|
B|--------|--------|--------|--------|--------|--------|--------|--------|--------|
G|--------|--------|--------|--------|--------|--------|--------|--------|--------|
D|--------|--------|--------|--------|--------|--------|--------|--------|--------|
A|--------|--------|--------|--------|--------|--------|--------|--------|--------|
E|--------|--------|--------|--------|--------|--------|--------|--------|--------|


E|--------|--------|--------|--------|--------|--------|--------|--------|--------|
B|--------|--------|--------|--------|--------|--------|--------|--------|--------|
G|--------|--------|--------|--------|--------|--------|--------|--------|--------|
D|--------|--------|--------|--------|--------|--------|--------|--------|--------|
A|--------|--------|--------|--------|--------|--------|--------|--------|--------|
E|--------|--------|--------|--------|--------|--------|--------|--------|--------|


E|--------|--------|--------|--------|--------|--------|--------|--------|--------|
B|--------|--------|--------|--------|--------|--------|--------|--------|--------|
G|--------|--------|--------|--------|--------|--------|--------|--------|--------|
D|--------|--------|--------|--------|--------|--------|--------|--------|--------|
A|--------|--------|--------|--------|--------|--------|--------|--------|--------|
E|--------|--------|--------|--------|--------|--------|--------|--------|--------|


E|--------|--------|--------|--------|--------|--------|--------|--------|--------|
B|--------|--------|--------|--------|--------|--------|--------|--------|--------|
G|--------|--------|--------|--------|--------|--------|--------|--------|--------|
D|--------|--------|--------|--------|--------|--------|--------|--------|--------|
A|--------|--------|--------|--------|--------|--------|--------|--------|--------|
E|--------|--------|--------|--------|--------|--------|--------|--------|--------|


E|--------|--------|--------|--------|--------|--------|--------|--------|--------|
B|--------|--------|--------|--------|--------|--------|--------|--------|--------|
G|--------|--------|--------|--------|--------|--------|--------|--------|--------|
D|--------|--------|--------|--------|--------|--------|--------|--------|--------|
A|--------|--------|--------|--------|--------|--------|--------|--------|--------|
E|--------|--------|--------|--------|--------|--------|--------|--------|--------|


E|--------|--------|--------|--------|--------|--------|--------|--------|--------|
B|--------|--------|--------|--------|--------|--------|--------|--------|--------|
G|--------|--------|--------|--------|--------|--------|--------|--------|--------|
D|--------|--------|--------|--------|--------|--------|--------|--------|--------|
A|--------|--------|--------|--------|--------|--------|--------|--------|--------|
E|--------|--------|--------|--------|--------|--------|--------|--------|--------|


E|--------|--------|--------|--------|--------|--------|--------|--------|--------|
B|--------|--------|--------|--------|--------|--------|--------|--------|--------|
G|--------|--------|--------|--------|--------|--------|--------|--------|--------|
D|--------|--------|--------|--------|--------|--------|--------|--------|--------|
A|--------|--------|--------|--------|--------|--------|--------|--------|--------|
E|--------|--------|--------|--------|--------|--------|--------|--------|--------|


E|--------|--------|--------|--------|--------|--------|--------|--------|--------|
B|--------|--------|--------|--------|--------|--------|--------|--------|--------|
G|--------|--------|--------|--------|--------|--------|--------|--------|--------|
D|--------|--------|--------|--------|--------|--------|--------|--------|--------|
A|--------|--------|--------|--------|--------|--------|--------|--------|--------|
E|--------|--------|--------|--------|--------|--------|--------|--------|--------|


E|--------|--------|--------|--------|--------|--------|--------|--------|--------|
B|--------|--------|--------|--------|--------|--------|--------|--------|--------|
G|--------|--------|--------|--------|--------|--------|--------|--------|--------|
D|--------|--------|--------|--------|--------|--------|--------|--------|--------|
A|--------|--------|--------|--------|--------|--------|--------|--------|--------|
E|--------|--------|--------|--------|--------|--------|--------|--------|--------|


E|--------|--------|--------|--------|--------|--------|--------|--------|--------|
B|--------|--------|--------|--------|--------|--------|--------|--------|--------|
G|--------|--------|--------|--------|--------|--------|--------|--------|--------|
D|--------|--------|--------|--------|--------|--------|--------|--------|--------|
A|--------|--------|--------|--------|--------|--------|--------|--------|--------|
E|--------|--------|--------|--------|--------|--------|--------|--------|--------|


E|--------|--------|--------|--------|--------|--------|--------|--------|--------|
B|--------|--------|--------|--------|--------|--------|--------|--------|--------|
G|--------|--------|--------|--------|--------|--------|--------|--------|--------|
D|--------|--------|--------|--------|--------|--------|--------|--------|--------|
A|--------|--------|--------|--------|--------|--------|--------|--------|--------|
E|--------|--------|--------|--------|--------|--------|--------|--------|--------|


E|--------|--------|--------|--------|--------|--------|--------|--------|--------|
B|--------|--------|--------|--------|--------|--------|--------|--------|--------|
G|--------|--------|--------|--------|--------|--------|--------|--------|--------|
D|--------|--------|--------|--------|--------|--------|--------|--------|--------|
A|--------|--------|--------|--------|--------|--------|--------|--------|--------|
E|--------|--------|--------|--------|--------|--------|--------|--------|--------|


E|--------|--------|--------|--------|--------|--------|--------|--------|--------|
B|--------|--------|--------|--------|--------|--------|--------|--------|--------|
G|--------|--------|--------|--------|--------|--------|--------|--------|--------|
D|--------|--------|--------|--------|--------|--------|--------|--------|--------|
A|--------|--------|--------|--------|--------|--------|--------|--------|--------|
E|--------|--------|--------|--------|--------|--------|--------|--------|--------|


E|--------|-5--0--0--4--0--0--2--0--0--5--0--0--7--0--5--0--|-5--0--4--0--2--0--4--0--5--0--7--0--4--0--2--0--|
B|--------|-------------------------------------------------|-------------------------------------------------|
G|--------|-------------------------------------------------|-------------------------------------------------|
D|--------|-------------------------------------------------|-------------------------------------------------|
A|--------|-------------------------------------------------|-------------------------------------------------|
E|--------|-------------------------------------------------|-------------------------------------------------|


E|-5--0--0--4--0--0--2--0--0--5--0--0--7--0--5--0--|-5--0--4--0--2--0--4--0--5--0--7--0--4--0--2--0--|
B|-------------------------------------------------|-------------------------------------------------|
G|-------------------------------------------------|-------------------------------------------------|
D|-------------------------------------------------|-------------------------------------------------|
A|-------------------------------------------------|-------------------------------------------------|
E|-------------------------------------------------|-------------------------------------------------|


E|-5--0--0--4--0--0--2--0--0--5--0--0--7--0--5--0--|-5--0--4--0--2--0--4--0--5--0--7--0--4--0--2--0--|
B|-------------------------------------------------|-------------------------------------------------|
G|-------------------------------------------------|-------------------------------------------------|
D|-------------------------------------------------|-------------------------------------------------|
A|-------------------------------------------------|-------------------------------------------------|
E|-------------------------------------------------|-------------------------------------------------|


E|-5--0--0--4--0--0--2--0--0--5--0--0--7--0--5--0--|-5--0--4--0--2--0--4--0--5--0--7--0--4--0--2--0--|
B|-------------------------------------------------|-------------------------------------------------|
G|-------------------------------------------------|-------------------------------------------------|
D|-------------------------------------------------|-------------------------------------------------|
A|-------------------------------------------------|-------------------------------------------------|
E|-------------------------------------------------|-------------------------------------------------|


E|-0------|-0------|
B|--------|--------|
G|--------|--------|
D|--------|--------|
A|--------|--------|
E|--------|--------|





Track 3: Bass

G|--------|--------|--------|--------|--------|--------|--------|--------|--------|
D|--------|--------|--------|--------|--------|--------|--------|--------|--------|
A|--------|--------|--------|--------|-4------|--------|-7------|--------|-4------|
E|--------|--------|--------|--------|--------|-5------|--------|-7------|--------|


G|--------|--------|--------|---------------------------------|---------------------------------|
D|--------|--------|--------|---------------------------------|---------------------------------|
A|--------|-7------|--------|-4---4---4---4---4---4---4---4---|-0---0---0---0---0---0---5---6---|
E|-5------|--------|-7------|---------------------------------|---------------------------------|


G|---------------------------------|---------------------------------|---------------------------------|
D|---------------------------------|---------------------------------|---------------------------------|
A|-7---7---7---7---7---7---7-------|-----------------------------3---|-4---4---4---4---4---4---4---4---|
E|-----------------------------6---|-7---7---7---7---7---7---7-------|---------------------------------|


G|---------------------------------|---------------------------------|---------------------------------|
D|---------------------------------|---------------------------------|-----------------9-------9-------|
A|-0---0---0---0---0---0---5---6---|-7---7---7---7---7---7---7-------|---------------------------------|
E|---------------------------------|-----------------------------6---|-7---7---7---7-------7-------7---|


G|-----------------6---6---5---4---|---------------------------------|---------------------------------|
D|---------------------------------|-----------------7---7---9---7---|---------------------------------|
A|-4---4---4---4-------------------|-0---0---0---0-------------------|-----------------------------1---|
E|---------------------------------|---------------------------------|-0---0---0---0---0---0---0-------|


G|---------4-------4-----------4---|-----------------6---6---5---4---|---------------------------------|
D|---------------------------------|---------------------------------|-----------------7---7---9---7---|
A|-2---2-------2-------2---2-------|-4---4---4---4-------------------|-0---0---0---0-------------------|
E|---------------------------------|---------------------------------|---------------------------------|


G|---------------------------------|---------4-------4-----------4---|---------------------------------|
D|---------------------------------|---------------------------------|---------------------------------|
A|-----------------------------1---|-2---2-------2-------2---2-------|---------1---2---2---2---2---4---|
E|-0---0---0---0---0---0---0-------|---------------------------------|-0---0---------------------------|


G|---------6-----------------------|---------------------------------|---------6-----------------------|
D|---------------------7-------7---|---------------------------------|---------------------7-------7---|
A|-4---4-------4---0-------0-------|---------1---2---2---2---2---4---|-4---4-------4---0-------0-------|
E|---------------------------------|-0---0---------------------------|---------------------------------|


G|---------------------------------|---------6-----------------------|---------------------------------|
D|---------------------------------|---------------------7-------7---|---------------------------------|
A|---------1---2---2---2---2---4---|-4---4-------4---0-------0-------|---------1---2---2---2---2---4---|
E|-0---0---------------------------|---------------------------------|-0---0---------------------------|


G|---------6-----------------------|--------|--------|--------|--------|--------|--------|
D|---------------------------------|--------|--------|--------|--------|--------|--------|
A|-4---4-------2---2---2---2---3---|-4------|--------|-7------|--------|-4------|--------|
E|---------------------------------|--------|-5------|--------|-7------|--------|-5------|


G|--------|--------|---------------------------------|---------------------------------|
D|--------|--------|---------------------------------|-7---7---7---7---7---9---7---6---|
A|-7------|--------|-4---4---4---4---4---4---4---4---|---------------------------------|
E|--------|-7------|---------------------------------|---------------------------------|


G|---------------------------------|---------------------------------|---------------------------------|
D|---------------------------------|-----------------2---4---2---1---|---------------------------------|
A|-----------------------------1---|-2---2---2---2-------------------|-4---4---4---4---4---4---4---4---|
E|-0---0---0---0---0---0---0-------|---------------------------------|---------------------------------|


G|---------------------------------|---------------------------------|-----------------------2-------------|
D|-7---7---7---7---7---9---7---6---|---------------------------------|-----------------2--4------4--2------|
A|---------------------------------|-----------------------------1---|-2---2---2---2-------------------2---|
E|---------------------------------|-0---0---0---0---0---0---0-------|-------------------------------------|


G|-----------------6---6---5---4---|---------------------------------|---------------------------------|
D|---------------------------------|-----------------7---7---9---7---|---------------------------------|
A|-4---4---4---4-------------------|-0---0---0---0-------------------|-----------------------------1---|
E|---------------------------------|---------------------------------|-0---0---0---0---0---0---0-------|


G|---------4-------4-----------4---|-----------------6---6---5---4---|---------------------------------|
D|---------------------------------|---------------------------------|-----------------7---7---9---7---|
A|-2---2-------2-------2---2-------|-4---4---4---4-------------------|-0---0---0---0-------------------|
E|---------------------------------|---------------------------------|---------------------------------|


G|---------------------------------|---------4-------4-----------4---|---------------------------------|
D|---------------------------------|---------------------------------|---------------------------------|
A|-----------------------------1---|-2---2-------2-------2---2-------|---------1---2---2---2---2---4---|
E|-0---0---0---0---0---0---0-------|---------------------------------|-0---0---------------------------|


G|---------6-----------------------|---------------------------------|---------6-----------------------|
D|---------------------7-------7---|---------------------------------|---------------------7-------7---|
A|-4---4-------4---0-------0-------|---------1---2---2---2---2---4---|-4---4-------4---0-------0-------|
E|---------------------------------|-0---0---------------------------|---------------------------------|


G|---------------------------------|---------6-----------------------|---------------------------------|
D|---------------------------------|---------------------7-------7---|---------------------------------|
A|---------1---2---2---2---2---4---|-4---4-------4---0-------0-------|---------1---2---2---2---2---4---|
E|-0---0---------------------------|---------------------------------|-0---0---------------------------|


G|---------6-----------------------|---------------------------------------------|
D|---------------------------------|-9--9--9--9--9---9--9--9--9--9---9--9--9--9--|
A|-4---4-------2---2---2---2---3---|-7--7--7--7--7---7--7--7--7--7---7--7--7--7--|
E|---------------------------------|---------------------------------------------|


G|---------------------------------------------|---------------------------------------------|
D|---------------------------------------------|-6--6--6--6--6---6--6--6--6--6---6--6--6--6--|
A|-9--9--9--9--9---9--9--9--9--9---9--9--9--9--|-4--4--4--4--4---4--4--4--4--4---4--4--4--4--|
E|-7--7--7--7--7---7--7--7--7--7---7--7--7--7--|---------------------------------------------|


G|---------------------------------------------|---------------------------------------------|
D|---------------------------------------------|-9--9--9--9--9---9--9--9--9--9---9--9--9--9--|
A|-7--7--7--7--7---7--7--7--7--7---7--7--7--7--|-7--7--7--7--7---7--7--7--7--7---7--7--7--7--|
E|-5--5--5--5--5---5--5--5--5--5---5--5--5--5--|---------------------------------------------|


G|---------------------------------------------|---------------------------------------------|
D|---------------------------------------------|-6--6--6--6--6---6--6--6--6--6---6--6--6--6--|
A|-9--9--9--9--9---9--9--9--9--9---9--9--9--9--|-4--4--4--4--4---4--4--4--4--4---4--4--4--4--|
E|-7--7--7--7--7---7--7--7--7--7---7--7--7--7--|---------------------------------------------|


G|---------------------------------------------|---------------------------------|
D|---------------------------------------------|---------------------------------|
A|-7--7--7--7--7---7--7--7--7--7---7--7--7--7--|---------1---2---2---2---2---4---|
E|-5--5--5--5--5---5--5--5--5--5---5--5--5--5--|-0---0---------------------------|


G|---------6-----------------------|---------------------------------|---------6-----------------------|
D|---------------------7-------7---|---------------------------------|---------------------7-------7---|
A|-4---4-------4---0-------0-------|---------1---2---2---2---2---4---|-4---4-------4---0-------0-------|
E|---------------------------------|-0---0---------------------------|---------------------------------|


G|---------------------------------|---------6-----------------------|---------------------------------|
D|---------------------------------|---------------------7-------7---|---------------------------------|
A|---------1---2---2---2---2---4---|-4---4-------4---0-------0-------|---------1---2---2---2---2---4---|
E|-0---0---------------------------|---------------------------------|-0---0---------------------------|


G|---------6-----------------------|---------------------------------|---------6-----------------------|
D|---------------------7-------7---|---------------------------------|---------------------7-------7---|
A|-4---4-------4---0-------0-------|---------1---2---2---2---2---4---|-4---4-------4---0-------0-------|
E|---------------------------------|-0---0---------------------------|---------------------------------|


G|---------------------------------|---------6-----------------------|---------------------------------|
D|---------------------------------|---------------------7-------7---|---------------------------------|
A|---------1---2---2---2---2---4---|-4---4-------4---0-------0-------|---------1---2---2---2---2---4---|
E|-0---0---------------------------|---------------------------------|-0---0---------------------------|


G|---------6-----------------------|---------------------------------|---------6-----------------------|
D|---------------------7-------7---|---------------------------------|---------------------7-------7---|
A|-4---4-------4---0-------0-------|---------1---2---2---2---2---4---|-4---4-------4---0-------0-------|
E|---------------------------------|-0---0---------------------------|---------------------------------|


G|---------------------------------|---------------------------------|---------------------------------|
D|---------------------------------|---------------------------------|---------------------------------|
A|-7---7---7---7---7---7---7---7---|-7---7---7---7---7---7---7---7---|---------------------------------|
E|---------------------------------|---------------------------------|-7---7---7---7---7---7---7---7---|


G|---------------------------------|---------------------------------|---------------------------------|
D|---------------------------------|---------------------------------|---------------------------------|
A|---------------------------------|-7---7---7---7---7---7---7---7---|-7---7---7---7---7---7---7---7---|
E|-5---5---5---5---5---5---5---5---|---------------------------------|---------------------------------|


G|---------------------------------|---------------------------------|---------------------------------|
D|---------------------------------|---------------------------------|---------------------------------|
A|---------------------------------|---------------------------------|-7---7---7---7---7---7---7---7---|
E|-7---7---7---7---7---7---7---7---|-5---5---5---5---5---5---5---5---|---------------------------------|


G|---------------------------------|---------------------------------|---------------------------------|
D|---------------------------------|---------------------------------|---------------------------------|
A|-7---7---7---7---7---7---7---7---|---------------------------------|---------------------------------|
E|---------------------------------|-7---7---7---7---7---7---7---7---|-5---5---5---5---5---5---5---5---|


G|---------------------------------|---------------------------------|---------------------------------|
D|---------------------------------|---------------------------------|---------------------------------|
A|-7---7---7---7---7---7---7---7---|-7---7---7---7---7---7---7---7---|---------------------------------|
E|---------------------------------|---------------------------------|-7---7---7---7---7---7---7---7---|


G|---------------------------------|---------------------------------|---------------------------------|
D|---------------------------------|---------------------------------|---------------------------------|
A|---------------------------------|-7---7---7---7---7---7---7---7---|-7---7---7---7---7---7---7---7---|
E|-5---5---5---5---5---5---5---5---|---------------------------------|---------------------------------|


G|---------------------------------|---------------------------------|---------------------------------|
D|---------------------------------|---------------------------------|---------------------------------|
A|---------------------------------|---------------------------------|-7---7---7---7---7---7---7---7---|
E|-7---7---7---7---7---7---7---7---|-5---5---5---5---5---5---5---5---|---------------------------------|


G|---------------------------------|---------------------------------|---------------------------------|
D|---------------------------------|---------------------------------|---------------------------------|
A|-7---7---7---7---7---7---7---7---|---------------------------------|---------------------------------|
E|---------------------------------|-7---7---7---7---7---7---7---7---|-5---5---5---5---5---5---5---5---|


G|---------------------------------|---------------------------------|---------------------------------|
D|---------------------------------|---------------------------------|---------------------------------|
A|-7---7---7---7---7---7---7---7---|-7---7---7---7---7---7---7---7---|---------------------------------|
E|---------------------------------|---------------------------------|-7---7---7---7---7---7---7---7---|


G|---------------------------------|---------------------------------|---------6-----------------------|
D|---------------------------------|---------------------------------|---------------------7-------7---|
A|---------------------------------|---------1---2---2---2---2---4---|-4---4-------4---0-------0-------|
E|-5---5---5---5---5---5---5---5---|-0---0---------------------------|---------------------------------|


G|---------------------------------|---------6-----------------------|---------------------------------|
D|---------------------------------|---------------------7-------7---|---------------------------------|
A|---------1---2---2---2---2---4---|-4---4-------4---0-------0-------|---------1---2---2---2---2---4---|
E|-0---0---------------------------|---------------------------------|-0---0---------------------------|


G|---------6-----------------------|---------------------------------|---------6-----------------------|
D|---------------------7-------7---|---------------------------------|---------------------------------|
A|-4---4-------4---0-------0-------|---------1---2---2---2---2---4---|-4---4-------2---2---2---2---3---|
E|---------------------------------|-0---0---------------------------|---------------------------------|


G|---------------------------------|---------6-----------------------|---------------------------------|
D|---------------------------------|---------------------7-------7---|---------------------------------|
A|---------1---2---2---2---2---4---|-4---4-------4---0-------0-------|---------1---2---2---2---2---4---|
E|-0---0---------------------------|---------------------------------|-0---0---------------------------|


G|---------6-----------------------|---------------------------------|---------6-----------------------|
D|---------------------7-------7---|---------------------------------|---------------------7-------7---|
A|-4---4-------4---0-------0-------|---------1---2---2---2---2---4---|-4---4-------4---0-------0-------|
E|---------------------------------|-0---0---------------------------|---------------------------------|


G|---------------------------------|---------6-----------------------|---------------------------------|
D|---------------------------------|---------------------------------|---------------------------------|
A|---------1---2---2---2---2---4---|-4---4-------2---2---2---2---3---|---------1---2---2---2---2---4---|
E|-0---0---------------------------|---------------------------------|-0---0---------------------------|


G|---------6-----------------------|---------------------------------|---------6-----------------------|
D|---------------------7-------7---|---------------------------------|---------------------7-------7---|
A|-4---4-------4---0-------0-------|---------1---2---2---2---2---4---|-4---4-------4---0-------0-------|
E|---------------------------------|-0---0---------------------------|---------------------------------|


G|---------------------------------|---------6-----------------------|---------------------------------|
D|---------------------------------|---------------------7-------7---|---------------------------------|
A|---------1---2---2---2---2---4---|-4---4-------4---0-------0-------|---------1---2---2---2---2---4---|
E|-0---0---------------------------|---------------------------------|-0---0---------------------------|


G|---------6-----------------------|--------|--------|
D|---------------------------------|--------|--------|
A|-4---4-------2---2---2---2---3---|--------|--------|
E|---------------------------------|-0------|-0------|