Menu:

 

Search:

 

wolfgang amadeus mozart - piano sonata in c major:

 



Title: Piano Sonata C-Maj - arranged for 2 Electric Guitars
Artist: 
Album: 
Author: Wolfgang Amadeus Mozart


Track 1: Untitled

E|-----------------|-----------------------|-----------------|---------------------|
B|-----------------|-----------------------|------------13---|---------------------|
G|-------9----12---|-----------------------|-14----12--------|-12---10---9---------|
D|-10--------------|-9-----10-12-10--------|-----------------|---------------------|
A|-----------------|-----------------------|-----------------|---------------------|
E|-----------------|-----------------------|-----------------|---------------------|


E|-----------------------------------------------|-----------------------------------------------|
B|--------------------8--10-8--------------------|-----------------------------------------------|
G|-----------7--9--10----------10-9--7-----------|--------------7--9--10-12-10-9--7--------------|
D|-7---9--10----------------------------10-9--7--|-----7--9--10----------------------10-9--7-----|
A|-----------------------------------------------|-10-----------------------------------------10-|
E|-----------------------------------------------|-----------------------------------------------|


E|-----------------------------------------------|-----------------------------------------------|
B|-----------------------------------------------|-----------------------------------------------|
G|-----------------7--9--10-9--7-----------------|--------------------7--9--7--------------------|
D|--------7--9--10----------------10-9--7--------|-----------7--9--10----------10-9--7-----------|
A|-8---10----------------------------------10-8--|-7---8--10----------------------------10-8--7--|
E|-----------------------------------------------|-----------------------------------------------|


E|-----------------------------------------------|----7--8--7--------------------------------------|
B|--------------------------------------------8--|-10----------10-8-----------------8--10----------|
G|-----------------------7-----------7--9--10----|-------------------10-9--7--9--10-------10-9--7--|
D|--------------7--9--11----7--9--11-------------|-------------------------------------------------|
A|-----7--8--10----------------------------------|-------------------------------------------------|
E|-10--------------------------------------------|-------------------------------------------------|


E|---------------------------------|---------------------|--------|-----------------------------|
B|---------------------------------|------8--------------|--------|-15--12----------------------|
G|-----12--9-----------12--9-------|-7----7--------------|--------|---------12----14-16-14--12--|
D|-9-----------10--12----------10--|------9--------------|--------|-----------------------------|
A|---------------------------------|-----------10--------|--------|-----------------------------|
E|---------------------------------|---------------------|--------|-----------------------------|


E|--------------------|-----------------------------|--------------------|-----------------------------------|
B|--------------------|-15--12----------------------|--------------------|-15------15-12---------------------|
G|-12---11-11---------|---------12----14-16-14--12--|-12---11-11---------|---------------12------------12----|
D|--------------------|-----------------------------|--------------------|------------------14------14----14-|
A|--------------------|-----------------------------|--------------------|-----------------------------------|
E|--------------------|-----------------------------|--------------------|-----------------------------------|


E|-----------------------------------|-----------------------------------|-----------------------------------|
B|-13------13------------------------|-12------12------------------------|-----------------------------------|
G|------------14-11------------11----|------------12---------------------|-14------14---------------12-------|
D|------------------12------12----12-|---------------14------------14----|------------16-12------------12----|
A|-----------------------------------|------------------15------15----15-|------------------14------------14-|
E|-----------------------------------|-----------------------------------|-----------------------------------|


E|-----------------|-------------------------------|---------------------------|--------|
B|-----------------|-------------------------------|---------15----13-12-------|--------|
G|-----------------|-14----1614131417--14--17--14--|-16--12--------------14-12-|-14-----|
D|------------14---|-------------------------------|---------------------------|--------|
A|-12----15--------|-------------------------------|---------------------------|--------|
E|-----------------|-------------------------------|---------------------------|--------|


E|------------------------------------------|------------------------------------------|
B|---------------12-15-12----12-13----------|------------------3-----------------------|
G|-12---12----12----------12-------14----14-|-12------------4-----4-----4--5--2-----2--|
D|---------12-------------------------16----|------5-----5-----------5-----------4-----|
A|------------------------------------------|---------5--------------------------------|
E|------------------------------------------|------------------------------------------|


E|------7----3---------|-----------------|-----------------------|-----------------|
B|------3----0---------|-----------------|-----------------------|------------13---|
G|---------------------|-------9----12---|-----------------------|-14----12--------|
D|-5-------------------|-10--------------|-9-----10-12-10--------|-----------------|
A|---------------------|-----------------|-----------------------|-----------------|
E|---------------------|-----------------|-----------------------|-----------------|


E|---------------------|-----------------------------------------------|-----------------------------------------------|
B|---------------------|--------------------8--10-8--------------------|-----------------------------------------------|
G|-12---10---9---------|-----------7--9--10----------10-9--7-----------|--------------7--9--10-12-10-9--7--------------|
D|---------------------|-7---9--10----------------------------10-9--7--|-----7--9--10----------------------10-9--7-----|
A|---------------------|-----------------------------------------------|-10-----------------------------------------10-|
E|---------------------|-----------------------------------------------|-----------------------------------------------|


E|-----------------------------------------------|-----------------------------------------------|
B|-----------------------------------------------|-----------------------------------------------|
G|-----------------7--9--10-9--7-----------------|--------------------7--9--7--------------------|
D|--------7--9--10----------------10-9--7--------|-----------7--9--10----------10-9--7-----------|
A|-8---10----------------------------------10-8--|-7---8--10----------------------------10-8--7--|
E|-----------------------------------------------|-----------------------------------------------|


E|-----------------------------------------------|----7--8--7--------------------------------------|
B|--------------------------------------------8--|-10----------10-8-----------------8--10----------|
G|-----------------------7-----------7--9--10----|-------------------10-9--7--9--10-------10-9--7--|
D|--------------7--9--11----7--9--11-------------|-------------------------------------------------|
A|-----7--8--10----------------------------------|-------------------------------------------------|
E|-10--------------------------------------------|-------------------------------------------------|


E|---------------------------------|---------------------|--------|-----------------------------|
B|---------------------------------|------8--------------|--------|-15--12----------------------|
G|-----12--9-----------12--9-------|-7----7--------------|--------|---------12----14-16-14--12--|
D|-9-----------10--12----------10--|------9--------------|--------|-----------------------------|
A|---------------------------------|-----------10--------|--------|-----------------------------|
E|---------------------------------|---------------------|--------|-----------------------------|


E|--------------------|-----------------------------|--------------------|-----------------------------------|
B|--------------------|-15--12----------------------|--------------------|-15------15-12---------------------|
G|-12---11-11---------|---------12----14-16-14--12--|-12---11-11---------|---------------12------------12----|
D|--------------------|-----------------------------|--------------------|------------------14------14----14-|
A|--------------------|-----------------------------|--------------------|-----------------------------------|
E|--------------------|-----------------------------|--------------------|-----------------------------------|


E|-----------------------------------|-----------------------------------|-----------------------------------|
B|-13------13------------------------|-12------12------------------------|-----------------------------------|
G|------------14-11------------11----|------------12---------------------|-14------14---------------12-------|
D|------------------12------12----12-|---------------14------------14----|------------16-12------------12----|
A|-----------------------------------|------------------15------15----15-|------------------14------------14-|
E|-----------------------------------|-----------------------------------|-----------------------------------|


E|-----------------|-------------------------------|---------------------------|--------|
B|-----------------|-------------------------------|---------15----13-12-------|--------|
G|-----------------|-14----1614131417--14--17--14--|-16--12--------------14-12-|-14-----|
D|------------14---|-------------------------------|---------------------------|--------|
A|-12----15--------|-------------------------------|---------------------------|--------|
E|-----------------|-------------------------------|---------------------------|--------|


E|------------------------------------------|------------------------------------------|
B|---------------12-15-12----12-13----------|------------------3-----------------------|
G|-12---12----12----------12-------14----14-|-12------------4-----4-----4--5--2-----2--|
D|---------12-------------------------16----|------5-----5-----------5-----------4-----|
A|------------------------------------------|---------5--------------------------------|
E|------------------------------------------|------------------------------------------|


E|------7----3---------|
B|------3----0---------|
G|---------------------|
D|-5-------------------|
A|---------------------|
E|---------------------|





Track 2: Rhythm

E|---------------------------------|---------------------------------|---------------------------------|
B|---------------------------------|---------------------------------|---------------------------------|
G|---------------------------------|---------------------------------|---------------------------------|
D|---------------------------------|---------------------------------|-----7-------7-------------------|
A|-----10--7---10------10--7---10--|-----10--8---10------10--8---10--|---------8-----------10--7---10--|
E|-8---------------8---------------|-10--------------8---------------|-8---------------8---------------|


E|---------------------------------|---------------------|---------------------|---------------------|
B|---------------------------------|---------------------|---------------------|---------------------|
G|---------------------------------|---------------------|----------------5----|-5--------------4----|
D|---------------------------------|----------------10---|-10------------------|---------------------|
A|-----10------10------10--7---10--|-8--------------8----|-7--------------7----|-5--------------5----|
E|-7-------10------8---------------|---------------------|---------------------|---------------------|


E|---------------------|--------|---------------------|-------------------------------------------------|
B|---------------------|--------|---------------------|-------------------------------------------------|
G|-5-------------------|--------|---------------------|----------0-----------0-----------0-----------0--|
D|---------------------|-7------|---------------------|-------0-----------2-----------0-----------2-----|
A|-3--------------7----|-8------|---------------------|----2-----------3-----------2-----------3--------|
E|----------------8----|--------|-1-----3---5-----2---|-3-----------3-----------3-----------3-----------|


E|---------------------|-------------------------------------------------|-------------------------------------------------|
B|---------------------|-------------------------------------------------|-------------------------------------------------|
G|---------------------|-6--7--6--7--6--7--6--7--5--7--5--7--5--7--5--7--|-7--4--7--4--7--4--7--4--7--4--7--4--7--4--7--4--|
D|------5--------------|-------------------------------------------------|-------------------------------------------------|
A|---------------------|-------------------------------------------------|-------------------------------------------------|
E|-3---------3---------|-------------------------------------------------|-------------------------------------------------|


E|-------------------------------------------------|-------------------------------------------------|
B|-------------------------------------------------|-------------------------------------------------|
G|-5--7--4--7-----7--4--7--5--7--4--7--5--7-----7--|-4--7--4--7--4--7--4--7--4--7--4--7--4--7--4--7--|
D|-------------7-----------------------------7-----|-------------------------------------------------|
A|-------------------------------------------------|-------------------------------------------------|
E|-------------------------------------------------|-------------------------------------------------|


E|-------------------------------------------------|-------------7----------------8----|
B|-------------------------------------------------|----------8----------------8-------|
G|-5--7--4--7-----7--4--7--5--7--4--7--5--7-----7--|-------7----------------9----------|
D|-------------7-----------------------------7-----|----9----------------10------------|
A|-------------------------------------------------|-----------------------------------|
E|-------------------------------------------------|-----------------------------------|


E|-------------5----------------7----|-------------3----------------5----|-------------2----------------3----|
B|----------7----------------7-------|----------5----------------5-------|----------3----------------3-------|
G|-------5----------------7----------|-------4----------------5----------|-------2----------------4----------|
D|----7----------------9-------------|----5----------------7-------------|----4----------------5-------------|
A|-----------------------------------|-----------------------------------|-----------------------------------|
E|-----------------------------------|-----------------------------------|-----------------------------------|


E|---------------------------------|---------------------------------|-------------------------------------------------|
B|-5---5---5---5---5---5---5---5---|-5---5---5---5---5---5---5---5---|-------------------------------------------------|
G|-5---5---5---5---5---5---5---5---|-5---5---5---5---5---5---5---5---|----4-----4-----4-----4-----4-----4-----4-----4--|
D|---------------------------------|---------------------------------|-------5-----------5-----------5-----------5-----|
A|---------------------------------|---------------------------------|-5-----------5-----------5-----------5-----------|
E|---------------------------------|---------------------------------|-------------------------------------------------|


E|-------------------------------------------------|---------------------|---------------------|
B|-------------------------------------------------|---------------------|---------------------|
G|----5-----5-----5-----5-----5-----5-----5-----5--|-4--------------5----|-4--------------5----|
D|-------4-----------4-----------4-----------4-----|-5--------------7----|-5--------------7----|
A|-5-----------5-----------5-----------5-----------|----------------5----|----------------5----|
E|-------------------------------------------------|---------------------|---------------------|


E|---------------------|---------------------------------|---------------------------------|
B|---------------------|---------------------------------|---------------------------------|
G|-4-------------------|---------------------------------|---------------------------------|
D|-5----5----5---------|---------------------------------|---------------------------------|
A|---------------------|-----10--7---10------10--7---10--|-----10--8---10------10--8---10--|
E|------3----3---------|-8---------------8---------------|-10--------------8---------------|


E|---------------------------------|---------------------------------|---------------------|
B|---------------------------------|---------------------------------|---------------------|
G|---------------------------------|---------------------------------|---------------------|
D|-----7-------7-------------------|---------------------------------|----------------10---|
A|---------8-----------10--7---10--|-----10------10------10--7---10--|-8--------------8----|
E|-8---------------8---------------|-7-------10------8---------------|---------------------|


E|---------------------|---------------------|---------------------|--------|---------------------|
B|---------------------|---------------------|---------------------|--------|---------------------|
G|----------------5----|-5--------------4----|-5-------------------|--------|---------------------|
D|-10------------------|---------------------|---------------------|-7------|---------------------|
A|-7--------------7----|-5--------------5----|-3--------------7----|-8------|---------------------|
E|---------------------|---------------------|----------------8----|--------|-1-----3---5-----2---|


E|-------------------------------------------------|---------------------|-------------------------------------------------|
B|-------------------------------------------------|---------------------|-------------------------------------------------|
G|----------0-----------0-----------0-----------0--|---------------------|-6--7--6--7--6--7--6--7--5--7--5--7--5--7--5--7--|
D|-------0-----------2-----------0-----------2-----|------5--------------|-------------------------------------------------|
A|----2-----------3-----------2-----------3--------|---------------------|-------------------------------------------------|
E|-3-----------3-----------3-----------3-----------|-3---------3---------|-------------------------------------------------|


E|-------------------------------------------------|-------------------------------------------------|
B|-------------------------------------------------|-------------------------------------------------|
G|-7--4--7--4--7--4--7--4--7--4--7--4--7--4--7--4--|-5--7--4--7-----7--4--7--5--7--4--7--5--7-----7--|
D|-------------------------------------------------|-------------7-----------------------------7-----|
A|-------------------------------------------------|-------------------------------------------------|
E|-------------------------------------------------|-------------------------------------------------|


E|-------------------------------------------------|-------------------------------------------------|
B|-------------------------------------------------|-------------------------------------------------|
G|-4--7--4--7--4--7--4--7--4--7--4--7--4--7--4--7--|-5--7--4--7-----7--4--7--5--7--4--7--5--7-----7--|
D|-------------------------------------------------|-------------7-----------------------------7-----|
A|-------------------------------------------------|-------------------------------------------------|
E|-------------------------------------------------|-------------------------------------------------|


E|-------------7----------------8----|-------------5----------------7----|-------------3----------------5----|
B|----------8----------------8-------|----------7----------------7-------|----------5----------------5-------|
G|-------7----------------9----------|-------5----------------7----------|-------4----------------5----------|
D|----9----------------10------------|----7----------------9-------------|----5----------------7-------------|
A|-----------------------------------|-----------------------------------|-----------------------------------|
E|-----------------------------------|-----------------------------------|-----------------------------------|


E|-------------2----------------3----|---------------------------------|---------------------------------|
B|----------3----------------3-------|-5---5---5---5---5---5---5---5---|-5---5---5---5---5---5---5---5---|
G|-------2----------------4----------|-5---5---5---5---5---5---5---5---|-5---5---5---5---5---5---5---5---|
D|----4----------------5-------------|---------------------------------|---------------------------------|
A|-----------------------------------|---------------------------------|---------------------------------|
E|-----------------------------------|---------------------------------|---------------------------------|


E|-------------------------------------------------|-------------------------------------------------|
B|-------------------------------------------------|-------------------------------------------------|
G|----4-----4-----4-----4-----4-----4-----4-----4--|----5-----5-----5-----5-----5-----5-----5-----5--|
D|-------5-----------5-----------5-----------5-----|-------4-----------4-----------4-----------4-----|
A|-5-----------5-----------5-----------5-----------|-5-----------5-----------5-----------5-----------|
E|-------------------------------------------------|-------------------------------------------------|


E|---------------------|---------------------|---------------------|
B|---------------------|---------------------|---------------------|
G|-4--------------5----|-4--------------5----|-4-------------------|
D|-5--------------7----|-5--------------7----|-5----5----5---------|
A|----------------5----|----------------5----|---------------------|
E|---------------------|---------------------|------3----3---------|





Track 3: Untitled

G|--------|--------|--------|--------|--------|--------|--------|--------|--------|
D|--------|--------|--------|--------|--------|--------|--------|--------|--------|
A|--------|--------|--------|--------|--------|--------|--------|--------|--------|
E|--------|--------|--------|--------|--------|--------|--------|--------|--------|


G|--------|--------|--------|--------|--------|--------|--------|--------|--------|
D|--------|--------|--------|--------|--------|--------|--------|--------|--------|
A|--------|--------|--------|--------|--------|--------|--------|--------|--------|
E|--------|--------|--------|--------|--------|--------|--------|--------|--------|


G|--------|--------|--------|--------|--------|--------|--------|--------|--------|
D|--------|--------|--------|--------|--------|--------|--------|--------|--------|
A|--------|--------|--------|--------|--------|--------|--------|--------|--------|
E|--------|--------|--------|--------|--------|--------|--------|--------|--------|


G|--------|--------|--------|--------|--------|--------|--------|--------|--------|
D|--------|--------|--------|--------|--------|--------|--------|--------|--------|
A|--------|--------|--------|--------|--------|--------|--------|--------|--------|
E|--------|--------|--------|--------|--------|--------|--------|--------|--------|


G|--------|--------|--------|--------|--------|--------|--------|--------|--------|
D|--------|--------|--------|--------|--------|--------|--------|--------|--------|
A|--------|--------|--------|--------|--------|--------|--------|--------|--------|
E|--------|--------|--------|--------|--------|--------|--------|--------|--------|


G|--------|--------|--------|--------|--------|--------|--------|--------|--------|
D|--------|--------|--------|--------|--------|--------|--------|--------|--------|
A|--------|--------|--------|--------|--------|--------|--------|--------|--------|
E|--------|--------|--------|--------|--------|--------|--------|--------|--------|


G|--------|--------|
D|--------|--------|
A|--------|--------|
E|--------|--------|