Menu:

 

Search:

 

wolfgang amadeus mozart - eine kleine nachtmusik:

 



Title: Eine kleine Nachtmusik
Artist: 
Album: 
Author: Wolfgang Amadeus Mozart


Track 1: Guitar One

E|---------------------------|-------------7---10--------|-8------------8------------|
B|-8------------8------------|-8-------8-----------------|----------10-----------10--|
G|-4--------7------------7---|-----7---------------------|---------------------------|
D|-0-------------------------|---------------------------|---------------------------|
A|---------------------------|---------------------------|---------------------------|
E|---------------------------|---------------------------|---------------------------|


E|-8-------------------------|---------------7---5-------|---------------5---8-------|
B|-----10--7---10------------|-8-------8-------------8---|-8---7---7-------------7---|
G|-----------------7---------|-4-------------------------|---------------------------|
D|---------------------------|-0-------------------------|---------------------------|
A|---------------------------|---------------------------|---------------------------|
E|---------------------------|---------------------------|---------------------------|


E|---------------7---5-------|---------------5---8-------|-----------------------------------------|
B|-10--8---8-------------8---|-8---7---7-------------7---|-8---8---8--7--5--7--8---8---12-10-8--10-|
G|---------------------------|---------------------------|-----------------------------------------|
D|---------------------------|---------------------------|-----------------------------------------|
A|---------------------------|---------------------------|-----------------------------------------|
E|---------------------------|---------------------------|-----------------------------------------|


E|-7---7---10-8--7--8--10--------|-------------|---------------------------|------------------------------|
B|-------------------------------|-------------|---------------------------|------------------------------|
G|-------------------------------|-7-----9-----|-7--5----5----5--4----4----|-4--2----2--------------------|
D|-------------------------------|-------------|---------------------------|--------------5---4---2---0---|
A|-------------------------------|-------------|---------------------------|------------------------------|
E|-------------------------------|-------------|---------------------------|------------------------------|


E|------------------------------|-------------|---------------------------------|---------------------------------|
B|------------------------------|-------------|---------------------------------|---------------------------------|
G|---------2-------4------------|-7-----9-----|-7---5---5---5---5---4---4---4---|-4---2---2---2-------------------|
D|-5----------------------------|-------------|---------------------------------|-----------------5---4---2---4---|
A|------------------------------|-------------|---------------------------------|---------------------------------|
E|------------------------------|-------------|---------------------------------|---------------------------------|


E|--------------------------|--------------------------|-----------------|-----------7----9----|
B|--------------------------|--------------------------|------------7----|-8----10-------------|
G|--------------------------|-4-----4---4--2-4-5---2---|-7-----9---------|---------------------|
D|-5-----5---5--4-5-7---4---|--------------------------|-----------------|---------------------|
A|--------------------------|--------------------------|-----------------|---------------------|
E|-3-----3------------------|--------------------------|-----------------|---------------------|


E|-10--------9-------9-------|-10--------9-------9-------|-10--10---10---10---10--|
B|-------10-------10------10-|-------10-------10------10-|------------------------|
G|---------------------------|---------------------------|-----11---11---11---11--|
D|---------------------------|---------------------------|------------------------|
A|---------------------------|---------------------------|------------------------|
E|---------------------------|---------------------------|------------------------|


E|-10--10---10---10---10--|-9-------10------9-------10------|-9-------------------------|
B|------------------------|-----10------10------10------10--|---------------------------|
G|-11--11---11---11---11--|-9-------------------------------|---------------------------|
D|------------------------|---------------------------------|-----7---7---7---7---------|
A|------------------------|---------------------------------|---------------------------|
E|------------------------|---------------------------------|---------------------------|


E|-5----------------------7-------|------------------------------|--------------------------------|
B|-------8--7--5------------------|-8---------------10-----------|-7----------------------8-------|
G|----------------7---------------|---------9--------------------|-------9--7--6------------------|
D|--------------------------------|------------------------------|----------------9---------------|
A|--------------------------------|------------------------------|--------------------------------|
E|--------------------------------|------------------------------|--------------------------------|


E|-----------------|---------------------------------|-------------------------7---9---|
B|-7-----5---------|-----10--10--10--10--10--10--10--|-10--10--10--10--10--10----------|
G|-----------------|---------------------------------|---------------------------------|
D|-----------------|---------------------------------|---------------------------------|
A|-----------------|---------------------------------|---------------------------------|
E|-----------------|---------------------------------|---------------------------------|


E|-9---10------7---7---5-----------|--------------10--9---7---5---|-7-------------------------------|
B|---------------------------------|----------10------------------|-----10------10--10--10--10--10--|
G|-----------------------------6---|-7----------------------------|---------------------------------|
D|---------------------------------|------------------------------|---------------------------------|
A|---------------------------------|------------------------------|---------------------------------|
E|---------------------------------|------------------------------|---------------------------------|


E|-7---------------10--9---7-------|-7-------------------------------|-7------------7--------------|
B|-----10------10--------------10--|-----10------10--10--10--10--10--|-----10-------0-----10-8--7--|
G|---------------------------------|---------------------------------|-----------------------------|
D|---------------------------------|---------------------------------|-----------------------------|
A|---------------------------------|---------------------------------|-----------------------------|
E|---------------------------------|---------------------------------|-----------------------------|


E|-----------5--------------|-----------7---9--10-9---7---|-7---5-------5---5---3---2-------|
B|-8---------------8--7--5--|-7---------------------------|---------7-------------------5---|
G|--------------------------|-----------------------------|---------------------------------|
D|--------------------------|-----------------------------|---------------------------------|
A|--------------------------|-----------------------------|---------------------------------|
E|--------------------------|-----------------------------|---------------------------------|


E|--------------10--9---7---5---|-7-------------------------------|-7---------------10--9---7-------|
B|----------10------------------|-----10------10--10--10--10--10--|-----10------10--------------10--|
G|-7----------------------------|---------------------------------|---------------------------------|
D|------------------------------|---------------------------------|---------------------------------|
A|------------------------------|---------------------------------|---------------------------------|
E|------------------------------|---------------------------------|---------------------------------|


E|-7-------------------------------|-7------------7--------------|-----------5--------------|
B|-----10------10--10--10--10--10--|-----10-------0-----10-8--7--|-8---------------8--7--5--|
G|---------------------------------|-----------------------------|--------------------------|
D|---------------------------------|-----------------------------|--------------------------|
A|---------------------------------|-----------------------------|--------------------------|
E|---------------------------------|-----------------------------|--------------------------|


E|-----------7---9--10-9---7---|-7---5-------5---5---3---2-------|-----------------------------------|
B|-7---------------------------|---------7-------------------5---|-3-----------2---3---3---5---3--5--|
G|-----------------------------|---------------------------------|-----2---4-------------------------|
D|-----------------------------|---------------------------------|-----------------------------------|
A|-----------------------------|---------------------------------|-----------------------------------|
E|-----------------------------|---------------------------------|-----------------------------------|


E|-----------------2---2---3---2--3--|-5---5---6---4--6--7---------|---------------------------|
B|-7-------3---5---------------------|-----------------------------|-------5---3---2-----------|
G|-----6-----------------------------|-----------------------------|-4-----------------4---2---|
D|-----------------------------------|-----------------------------|---------------------------|
A|-----------------------------------|-----------------------------|---------------------------|
E|-----------------------------------|-----------------------------|---------------------------|


E|---------2--------------------|---------------------------|-------------2---5---------|
B|-3---------------3------------|-3------------3------------|-3-------3-----------------|
G|------------------------------|----------2------------2---|-----2---------------------|
D|------------------------------|-0-------------------------|---------------------------|
A|------------------------------|---------------------------|---------------------------|
E|------------------------------|---------------------------|---------------------------|


E|-5------------5------------|-5-------------------------|--------------8---7---5-------|
B|----------7------------7---|-----7---4---7-------------|----------8---------------8---|
G|---------------------------|-----------------4---------|------------------------------|
D|---------------------------|---------------------------|------------------------------|
A|---------------------------|---------------------------|------------------------------|
E|---------------------------|---------------------------|------------------------------|


E|-5-------------------------------|-5---------------8---7---5-------|-5-------------------------------|
B|-----8-------8---8---8---8---8---|-----8-------8---------------8---|-----8-------8---8---8---8---8---|
G|---------------------------------|---------------------------------|---------------------------------|
D|---------------------------------|---------------------------------|---------------------------------|
A|---------------------------------|---------------------------------|---------------------------------|
E|---------------------------------|---------------------------------|---------------------------------|


E|-5---------------8---7---5-------|-5-------------------------------|-7---5-------5---8---6---5---3---|
B|-----8-------8---------------8---|-----9-------9---9---9---9---9---|---------------------------------|
G|---------------------------------|---------------------------------|---------------------------------|
D|---------------------------------|---------------------------------|---------------------------------|
A|---------------------------------|---------------------------------|---------------------------------|
E|---------------------------------|---------------------------------|---------------------------------|


E|-3---2-------2---2---2---2---2---|-5---3-----------3---1-----------|---------------------------------|
B|---------------------------------|-------------4-----------4---3---|-3---2-------2---2---2---2---2---|
G|---------------------------------|---------------------------------|---------------------------------|
D|---------------------------------|---------------------------------|---------------------------------|
A|---------------------------------|---------------------------------|---------------------------------|
E|---------------------------------|---------------------------------|---------------------------------|


E|-0-------------------------------|---------------------------------|---------------------2---3---5---|
B|-----3---------------------------|-----------------------------2---|-5---3-------3---5---------------|
G|-------------------------0---2---|-5---3-----------0---2---3-------|---------------------------------|
D|-------------0---2---4-----------|-------------4-------------------|---------------------------------|
A|---------------------------------|---------------------------------|---------------------------------|
E|---------------------------------|---------------------------------|---------------------------------|


E|-6----7----8----9----|-10-----|-10----------------|---------------------------|-------------7---10--------|
B|---------------------|--------|-------5-----5--7--|-8------------8------------|-8-------8-----------------|
G|---------------------|--------|-------------------|----------7------------7---|-----7---------------------|
D|---------------------|--------|-------------------|---------------------------|---------------------------|
A|---------------------|--------|-------------------|---------------------------|---------------------------|
E|---------------------|--------|-------------------|---------------------------|---------------------------|


E|-8------------8------------|-8-------------------------|---------------7---5-------|
B|----------10-----------10--|-----10--7---10------------|-8-------8-------------8---|
G|---------------------------|-----------------7---------|-4-------------------------|
D|---------------------------|---------------------------|-0-------------------------|
A|---------------------------|---------------------------|---------------------------|
E|---------------------------|---------------------------|---------------------------|


E|---------------5---8-------|---------------7---5-------|---------------5---8-------|
B|-8---7---7-------------7---|-10--8---8-------------8---|-8---7---7-------------7---|
G|---------------------------|---------------------------|---------------------------|
D|---------------------------|---------------------------|---------------------------|
A|---------------------------|---------------------------|---------------------------|
E|---------------------------|---------------------------|---------------------------|


E|-----------------------------------------|-7---7---10-8--7--8--10--------|-------------|
B|-8---8---8--7--5--7--8---8---12-10-8--10-|-------------------------------|-------------|
G|-----------------------------------------|-------------------------------|-7-----9-----|
D|-----------------------------------------|-------------------------------|-------------|
A|-----------------------------------------|-------------------------------|-------------|
E|-----------------------------------------|-------------------------------|-------------|


E|---------------------------|------------------------------|------------------------------|
B|---------------------------|------------------------------|------------------------------|
G|-7--5----5----5--4----4----|-4--2----2--------------------|---------2-------4------------|
D|---------------------------|--------------5---4---2---0---|-5----------------------------|
A|---------------------------|------------------------------|------------------------------|
E|---------------------------|------------------------------|------------------------------|


E|-------------|---------------------------------|---------------------------------|
B|-------------|---------------------------------|---------------------------------|
G|-7-----9-----|-7---5---5---5---5---4---4---4---|-4---2---2---2-------------------|
D|-------------|---------------------------------|-----------------5---4---2---4---|
A|-------------|---------------------------------|---------------------------------|
E|-------------|---------------------------------|---------------------------------|


E|--------------------------|--------------------------|-----------------|-----------7----9----|
B|--------------------------|--------------------------|------------7----|-8----10-------------|
G|--------------------------|-4-----4---4--2-4-5---2---|-7-----9---------|---------------------|
D|-5-----5---5--4-5-7---4---|--------------------------|-----------------|---------------------|
A|--------------------------|--------------------------|-----------------|---------------------|
E|-3-----3------------------|--------------------------|-----------------|---------------------|


E|-10--------9-------9-------|-10--------9-------9-------|-10------9-------10------9-------|
B|-------10-------10------10-|-------10-------10------10-|-----10------10------10------10--|
G|---------------------------|---------------------------|---------------------------------|
D|---------------------------|---------------------------|---------------------------------|
A|---------------------------|---------------------------|---------------------------------|
E|---------------------------|---------------------------|---------------------------------|


E|-10------------------------|------------------------0-------|------------------------------|
B|---------------------------|-3------------------------------|-1---------------3--------1---|
G|---------------------------|-------5--4--2--0---------------|---------2--------------------|
D|-----0---0---0---0---------|--------------------------------|------------------------------|
A|---------------------------|--------------------------------|------------------------------|
E|---------------------------|--------------------------------|------------------------------|


E|-7-----5--3--2--0-------8-------|-7-----5---------|-----10--10--10--10--10--10--10--|
B|--------------------------------|-----------------|---------------------------------|
G|--------------------------------|-----------------|---------------------------------|
D|--------------------------------|-----------------|---------------------------------|
A|--------------------------------|-----------------|---------------------------------|
E|--------------------------------|-----------------|---------------------------------|


E|-10--10--10--10--10--8---7-------|---------------------------------|--------------3---2---0-------|
B|-----------------------------10--|-7---8-------5---5---3-----------|----------3---------------3---|
G|---------------------------------|---------------------------------|------------------------------|
D|---------------------------------|-----------------------------4---|-5----------------------------|
A|---------------------------------|---------------------------------|------------------------------|
E|---------------------------------|---------------------------------|------------------------------|


E|---------------------------------|-----------------3---2---0-------|---------------------------------|
B|-5---3-------3---3---3---3---3---|-5---3-------3---------------3---|-5---3-------3---3---3---3---3---|
G|---------------------------------|---------------------------------|---------------------------------|
D|---------------------------------|---------------------------------|---------------------------------|
A|---------------------------------|---------------------------------|---------------------------------|
E|---------------------------------|---------------------------------|---------------------------------|


E|-----------------------------|--------------------------|-----------0---2--3--2---0---|
B|-5---3--------5-----3--1--0--|-1---------3-----1--0-----|-0---------------------------|
G|-----------------------------|-----------------------2--|-----------------------------|
D|--------------2--------------|-----------0--------------|-----------------------------|
A|-----------------------------|--------------------------|-----------------------------|
E|-----------------------------|--------------------------|-----------------------------|


E|---------------------------------|--------------3---2---0-------|---------------------------------|
B|-5---3-------3---3---1-----------|----------3---------------3---|-5---3-------3---3---3---3---3---|
G|---------4---------------4---2---|-0----------------------------|---------------------------------|
D|---------------------------------|------------------------------|---------------------------------|
A|---------------------------------|------------------------------|---------------------------------|
E|---------------------------------|------------------------------|---------------------------------|


E|-----------------3---------------|---------------------------------|--------------12----10-8--7--|
B|-5---3-------3-------7---5---3---|-5---3-------3---3---3---3---3---|-5---3-----------------------|
G|---------------------------------|---------------------------------|-----------------------------|
D|---------------------------------|---------------------------------|-----------------------------|
A|---------------------------------|---------------------------------|-----------------------------|
E|---------------------------------|---------------------------------|-----------------------------|


E|-8---------10----8--7--5--|-7---------------------------|---------7---10--10--8---7---5---|
B|--------------------------|-----------5---7--8--7---5---|-----8---------------------------|
G|--------------------------|-----------------------------|-7-------------------------------|
D|--------------------------|-----------------------------|---------------------------------|
A|--------------------------|-----------------------------|---------------------------------|
E|--------------------------|-----------------------------|---------------------------------|


E|-----------------------------------|-----------------------------------|-----------------------------|
B|-8---------------------------------|-----------------------------------|-------------------5---------|
G|---------0---2---4---4---5---4--5--|-4-----------2---4---4---5---4--5--|-7---7---8---6--8------------|
D|-----4-----------------------------|-----4---5-------------------------|-----------------------------|
A|-----------------------------------|-----------------------------------|-----------------------------|
E|-----------------------------------|-----------------------------------|-----------------------------|


E|---------------------------|---------------------------------|---------------------------|
B|---------------------------|-3---2---1---0---3---2---1---0---|---------------------------|
G|-------2-------------------|---------------------------------|-------2-------------------|
D|-2---------5---4---2---0---|---------------------------------|-2---------5---4---2---0---|
A|---------------------------|---------------------------------|---------------------------|
E|---------------------------|---------------------------------|---------------------------|


E|---------2---3-----------2---3---|-5---------10--------|------------------------------|
B|-3---5-----------3---5-----------|---------------------|-8----------------------------|
G|---------------------------------|-----------7---------|-4--------7---------------7---|
D|---------------------------------|---------------------|-0------------9-------9-------|
A|---------------------------------|---------------------|------------------10----------|
E|---------------------------------|---------------------|------------------------------|


E|-------------7---10--------|------------------------------|-------------7---10--------|
B|-8-------8------------7----|-8----------------------------|-8-------8------------7----|
G|-----7----------------2----|-4--------7---------------7---|-----7----------------2----|
D|----------------------0----|-0------------9-------9-------|----------------------0----|
A|---------------------------|------------------10----------|---------------------------|
E|---------------------------|------------------------------|---------------------------|


E|---------------------|------------------------|
B|-8---------8---------|-8----------------------|
G|-4---------4---------|-4----------------------|
D|-0---------0---------|-0----5----5--5---------|
A|---------------------|------------------------|
E|---------------------|------3----3--3---------|





Track 2: Guitar Two

E|---------------------------|-------------7---10--------|-8------------8------------|
B|-8------------8------------|-8-------8-----------------|----------10-----------10--|
G|-4--------7------------7---|-----7---------------------|---------------------------|
D|-0-------------------------|---------------------------|---------------------------|
A|---------------------------|---------------------------|---------------------------|
E|---------------------------|---------------------------|---------------------------|


E|-8-------------------------|------------------------|-------------|-------------|
B|-----10--7---10------------|------------------------|-------------|-------------|
G|-----------------7---------|------------------------|-------------|-------------|
D|---------------------------|-0--0--0--0--0----0-----|-0-----0-----|-0-----0-----|
A|---------------------------|-2--2--2--2--2----2-----|-3-----3-----|-2-----2-----|
E|---------------------------|------------------------|-------------|-------------|


E|-------------|--------------------------------|---------------------------|-------------|
B|-------------|--------------3---3-------------|---------------------------|-------------|
G|-------------|------5---5-----------5---4--2--|---------------------------|-4-----5-----|
D|-0-----0-----|-0------------------------------|-5---5---4---4---5---------|-------------|
A|-3-----3-----|-2------------------------------|---------------------------|-------------|
E|-------------|--------------------------------|---------------------------|-------------|


E|---------------------------|---------------------|------------------------------|
B|---------------------------|---------------------|------------------------------|
G|-4--2----2----2--0----0----|---------------------|-----------------0------------|
D|---------------------------|-2----2--------------|-0-------4--------------------|
A|---------------------------|-----------3----0----|------------------------------|
E|---------------------------|---------------------|------------------------------|


E|-------------|---------------------------------|---------------------------|--------------------------|
B|-------------|---------------------------------|---------------------------|--------------------------|
G|-4-----5-----|-4---2---2---2---2---0---0---0---|---------------------------|--------------------------|
D|-------------|---------------------------------|-2----2---2----------------|--------------------------|
A|-------------|---------------------------------|--------------3----3---3---|------------------3---0---|
E|-------------|---------------------------------|---------------------------|-3-----3---3--2-3---------|


E|--------------------------|-------------|------------3----|-2-----3-----|-2-----3-----|
B|--------------------------|-------------|------3----------|-------------|-------------|
G|--------------------------|-4-----5-----|-4---------------|-------------|-------------|
D|-5-----5---5--4-5-7---4---|-------------|-----------------|-------------|-------------|
A|--------------------------|-------------|-----------------|-------------|-------------|
E|--------------------------|-------------|-----------------|-------------|-------------|


E|-2---2----2----2----2---|-2---2----2----2----2---|-0----2----0----2----|-0-------------------------|
B|-3---3----3----3----3---|-5---5----5----5----5---|-2----3----2----3----|-2-------------------------|
G|------------------------|------------------------|---------------------|-----2---2---2---2---------|
D|------------------------|------------------------|---------------------|---------------------------|
A|------------------------|------------------------|---------------------|---------------------------|
E|------------------------|------------------------|---------------------|---------------------------|


E|--------------------------------|------------------------------|--------------------------------|
B|------------------------0-------|------------------------------|--------------------------------|
G|-2------------------------------|-0---------------2------------|------------------------4-------|
D|-------5--4--2--0---------------|---------2--------------------|-4------------------------------|
A|--------------------------------|------------------------------|-------7--5--4--2---------------|
E|--------------------------------|------------------------------|--------------------------------|


E|-----------------|--------------------------------|------------------------------|
B|-----------------|------------------------0-------|------------------------------|
G|-----------------|-2------------------------------|-0---------------2--------0---|
D|-4-----2---------|-------5--4--2--0---------------|---------2--------------------|
A|-----------------|--------------------------------|------------------------------|
E|-----------------|--------------------------------|------------------------------|


E|-------------3---3---2-----------|---------------------------------|---------------------------------|
B|---------------------------------|---------------------------------|---------------------------------|
G|---------------------------------|-----------------2---2-----------|---------------------------------|
D|-5---4-----------------------5---|-4---4---5---5-----------4---4---|-2---2---4---4---5---5---2---2---|
A|---------------------------------|---------------------------------|---------------------------------|
E|---------------------------------|---------------------------------|---------------------------------|


E|---------------------------------|---------------------------------|-----------------|
B|---------------------------------|---------------------------------|-----------7-----|
G|-----------------2---2-----------|---------------------------------|-----------4-----|
D|-4---4---5---5-----------4---4---|-2---2---4---4---5---5---2---2---|-4---------------|
A|---------------------------------|---------------------------------|-----------------|
E|---------------------------------|---------------------------------|-----------------|


E|-----------------|-----2---3---5---3---5--7--5---3---|-3---2-------2---2---0-----------|
B|-5---------5-----|-3---------------------------------|---------3---------------3---2---|
G|-----------2-----|-----------------------------------|---------------------------------|
D|-----------------|-----------------------------------|---------------------------------|
A|-----------------|-----------------------------------|---------------------------------|
E|-----------------|-----------------------------------|---------------------------------|


E|---------------------------------|---------------------------------|---------------------------------|
B|---------------------------------|---------------------------------|---------------------------------|
G|-----------------2---2-----------|---------------------------------|-----------------2---2-----------|
D|-4---4---5---5-----------4---4---|-2---2---4---4---5---5---2---2---|-4---4---5---5-----------4---4---|
A|---------------------------------|---------------------------------|---------------------------------|
E|---------------------------------|---------------------------------|---------------------------------|


E|---------------------------------|-----------------|-----------------|-----2---3---5---3---5--7--5---3---|
B|---------------------------------|-----------7-----|-5---------5-----|-3---------------------------------|
G|---------------------------------|-----------4-----|-----------2-----|-----------------------------------|
D|-2---2---4---4---5---5---2---2---|-4---------------|-----------------|-----------------------------------|
A|---------------------------------|-----------------|-----------------|-----------------------------------|
E|---------------------------------|-----------------|-----------------|-----------------------------------|


E|-3---2-------2---2---0-----------|-----------------------------------|-----------------2---2---3---2--3--|
B|---------3---------------3---2---|-3-----------2---3---3---5---3--5--|-7-------3---5---------------------|
G|---------------------------------|-----2---4-------------------------|-----6-----------------------------|
D|---------------------------------|-----------------------------------|-----------------------------------|
A|---------------------------------|-----------------------------------|-----------------------------------|
E|---------------------------------|-----------------------------------|-----------------------------------|


E|-5---5---6---4--6--7---------|--------|------------------------------|---------------------------|
B|-----------------------------|--------|------------------------------|-3------------3------------|
G|-----------------------------|-0------|---------2--------------------|----------2------------2---|
D|-----------------------------|--------|-4---------------4------------|-0-------------------------|
A|-----------------------------|--------|------------------------------|---------------------------|
E|-----------------------------|--------|------------------------------|---------------------------|


E|-------------2---5---------|-5------------5------------|-5-------------------------|
B|-3-------3-----------------|----------7------------7---|-----7---4---7-------------|
G|-----2---------------------|---------------------------|-----------------4---------|
D|---------------------------|---------------------------|---------------------------|
A|---------------------------|---------------------------|---------------------------|
E|---------------------------|---------------------------|---------------------------|


E|---------------------------------|---------------------------------|---------------------------------|
B|---------------------------------|---------------------------------|---------------------------------|
G|---------------------------------|---------------------------------|---------------------------------|
D|-2---2---3---3---5---5---2---2---|-0---0---2---2---3---3---0---0---|-2---2---3---3---5---5---2---2---|
A|---------------------------------|---------------------------------|---------------------------------|
E|---------------------------------|---------------------------------|---------------------------------|


E|---------------------------------|---------------------------------|---------------------------------|
B|---------------------------------|---------------------------------|---------------------------------|
G|---------------------------------|---------------------------------|---------------------------------|
D|-0---0---2---2---3---3---0---0---|-2---2---3---3---5---5---2---2---|-0---0---2---2---3---3---0---0---|
A|---------------------------------|---------------------------------|---------------------------------|
E|---------------------------------|---------------------------------|---------------------------------|


E|---------------------------------|---------------------------------|---------------------------------|
B|---------------------------------|---------------------------------|---------------------------------|
G|---------------------------------|---------------------------------|-------------------------2---2---|
D|---------0---0---2---2-----------|---------0---0---1---1-----------|---------------------------------|
A|-3---3-------------------3---3---|-3---3-------------------3---3---|-1---1---0---0---1---1-----------|
E|---------------------------------|---------------------------------|---------------------------------|


E|---------------------------------|------------------------------|---------------------------------|
B|---------------------------------|------------------------------|-----------------------------2---|
G|-3---3---2---2---3---3---2---0---|----------------------0---2---|-5---3-----------0---2---3-------|
D|---------------------------------|-4--------0---2---4-----------|-------------4-------------------|
A|---------------------------------|------------------------------|---------------------------------|
E|---------------------------------|------------------------------|---------------------------------|


E|---------------------------------|---------------------|---------------------------------|
B|-5---3---------------------------|-----------1----2----|-3---3---3---5---1---1---1---3---|
G|-------------------------0---2---|-3----4--------------|---------------------------------|
D|-------------0---2---4-----------|---------------------|---------------------------------|
A|---------------------------------|---------------------|---------------------------------|
E|---------------------------------|---------------------|---------------------------------|


E|---------------------------------|---------------------------|-------------7---10--------|
B|-0---0---0---3---3---1---0-------|--------------8------------|-8-------8-----------------|
G|-----------------------------2---|-0--------7------------7---|-----7---------------------|
D|---------------------------------|---------------------------|---------------------------|
A|---------------------------------|---------------------------|---------------------------|
E|---------------------------------|---------------------------|---------------------------|


E|-8------------8------------|-8-------------------------|-------------|-------------|
B|----------10-----------10--|-----10--7---10------------|-------------|-------------|
G|---------------------------|-----------------7---------|-------------|-------------|
D|---------------------------|---------------------------|-0-----0-----|-0-----0-----|
A|---------------------------|---------------------------|-2-----2-----|-3-----3-----|
E|---------------------------|---------------------------|-------------|-------------|


E|-------------|-------------|--------------------------------|---------------------------|
B|-------------|-------------|--------------3---3-------------|---------------------------|
G|-------------|-------------|------5---5-----------5---4--2--|---------------------------|
D|-0-----0-----|-0-----0-----|-0------------------------------|-5---5---4---4---5---------|
A|-2-----2-----|-3-----3-----|-2------------------------------|---------------------------|
E|-------------|-------------|--------------------------------|---------------------------|


E|-------------|---------------------------|---------------------|------------------------------|
B|-------------|---------------------------|---------------------|------------------------------|
G|-4-----5-----|-4--2----2----2--0----0----|---------------------|-----------------0------------|
D|-------------|---------------------------|-2----2--------------|-0-------4--------------------|
A|-------------|---------------------------|-----------3----0----|------------------------------|
E|-------------|---------------------------|---------------------|------------------------------|


E|-------------|---------------------------------|---------------------------|--------------------------|
B|-------------|---------------------------------|---------------------------|--------------------------|
G|-4-----5-----|-4---2---2---2---2---0---0---0---|---------------------------|--------------------------|
D|-------------|---------------------------------|-2----2---2----------------|--------------------------|
A|-------------|---------------------------------|--------------3----3---3---|------------------3---0---|
E|-------------|---------------------------------|---------------------------|-3-----3---3--2-3---------|


E|--------------------------|-------------|------------3----|-2-----3-----|-2-----3-----|
B|--------------------------|-------------|------3----------|-------------|-------------|
G|--------------------------|-4-----5-----|-4---------------|-------------|-------------|
D|-5-----5---5--4-5-7---4---|-------------|-----------------|-------------|-------------|
A|--------------------------|-------------|-----------------|-------------|-------------|
E|--------------------------|-------------|-----------------|-------------|-------------|


E|-2----3----2----3----|-2-------------------------|--------------------------------|
B|---------------------|---------------------------|--------------------------------|
G|---------------------|---------------------------|--------------------------------|
D|---------------------|-----0---0---0---0---------|------------------------2-------|
A|---------------------|---------------------------|-5-----3--2--0------------------|
E|---------------------|---------------------------|----------------3---------------|


E|------------------------------|--------------------------------|-----------------|
B|------------------------------|------------------------1-------|-----------------|
G|------------------------------|-4------------------------------|-4-----2---------|
D|-----------------0------------|-------7--5--4--2---------------|-----------------|
A|-3-------0----------------3---|--------------------------------|-----------------|
E|------------------------------|--------------------------------|-----------------|


E|--------------------------------|------------------------------|---------------------------------|
B|-3----------------------5-------|-1---------------3--------1---|-1---0-------1---1---0-----------|
G|-------5--4--2--0---------------|---------2--------------------|---------------------------------|
D|--------------------------------|------------------------------|---------------------------------|
A|--------------------------------|------------------------------|-----------------------------3---|
E|--------------------------------|------------------------------|---------------------------------|


E|---------------------------------|---------------------------------|---------------------------------|
B|---------------------------------|---------------------------------|---------------------------------|
G|---------------------------------|---------------------------------|---------------------------------|
D|---------------------------------|---------------------------------|---------------------------------|
A|-2---2---3---3---5---5---2---2---|-0---0---2---2---3---3---0---0---|-2---2---3---3---5---5---2---2---|
E|---------------------------------|---------------------------------|---------------------------------|


E|---------------------------------|-----------------|-----------------|-----------------------------------|
B|---------------------------------|-----------------|-----------------|-------------3---1---3--5--3---1---|
G|---------------------------------|-----------4-----|-2---------2-----|-----4---5-------------------------|
D|---------------------------------|-----------2-----|-----------0-----|-5---------------------------------|
A|-0---0---2---2---3---3---0---0---|-2---------------|-----------------|-----------------------------------|
E|---------------------------------|-----------------|-----------------|-----------------------------------|


E|---------------------------------|---------------------------------|---------------------------------|
B|---------------------------------|---------------------------------|---------------------------------|
G|-5---4-------4---4---2-----------|---------------------------------|---------------------------------|
D|---------5---------------5---4---|-5-------------------------------|---------------------------------|
A|---------------------------------|-----2---3---3---5---5---2---2---|-0---0---2---2---3---3---0---0---|
E|---------------------------------|---------------------------------|---------------------------------|


E|---------------------------------|---------------------------------|-----------7-----|
B|-----0---1---1---3---3---0---0---|---------0---0---1---1-----------|-0---------------|
G|---------------------------------|-2---2-------------------2---2---|-----------------|
D|---------------------------------|---------------------------------|-----------------|
A|-2-------------------------------|---------------------------------|-----------------|
E|---------------------------------|---------------------------------|-----------------|


E|-5---------5-----|-3---------------------------------|---------3---7---7---5---3---2---|
B|-----------------|---------1---3---1---3--5--3---1---|-----3---------------------------|
G|-----------------|-----4-----------------------------|-4-------------------------------|
D|-----------------|-----------------------------------|---------------------------------|
A|-----------------|-----------------------------------|---------------------------------|
E|-----------------|-----------------------------------|---------------------------------|


E|-3---------------------------------|-----------------------------------|-----------------------------|
B|-----------------------------------|-----------------------------------|-------------------5---------|
G|---------0---2---4---4---5---4--5--|-4-----------2---4---4---5---4--5--|-7---7---8---6--8------------|
D|-----4-----------------------------|-----4---5-------------------------|-----------------------------|
A|-----------------------------------|-----------------------------------|-----------------------------|
E|-----------------------------------|-----------------------------------|-----------------------------|


E|--------|-----------------|--------|---------------------|-0---------2---------|
B|--------|-----------------|--------|-----------0---------|-----------1---------|
G|--------|-----------------|--------|---------------------|---------------------|
D|--------|-----------------|--------|---------------------|---------------------|
A|-3------|-5---------------|-3------|-2-------------------|---------------------|
E|--------|-----------------|--------|---------------------|---------------------|


E|-------------|-----------------|-------------|-----------------|-----------3---------|
B|-------------|-----------------|-------------|-----------------|-----------0---------|
G|-------------|-----------------|-------------|-----------------|---------------------|
D|-0-----0-----|-0-----0----0----|-0-----0-----|-0-----0----0----|-0---------0---------|
A|-2-----2-----|-2-----2----3----|-2-----2-----|-2-----2----3----|-2-------------------|
E|-------------|-----------------|-------------|-----------------|---------------------|


E|-3----------------------|
B|-0----------------------|
G|------------------------|
D|-0----5----5--5---------|
A|------------------------|
E|------3----3--3---------|





Track 3: Guitar Three (Dropped-D)

E|---------------------------|---------------------------|---------------------------|
B|---------------------------|-------------0---3---------|-1------------1------------|
G|-0------------0------------|-0-------0-----------------|----------2------------2---|
D|----------0------------0---|-----0---------------------|---------------------------|
A|---------------------------|---------------------------|---------------------------|
D|---------------------------|---------------------------|---------------------------|


E|---------------------------|---------------------------------|---------------------------------|
B|-1-------------------------|---------------------------------|---------------------------------|
G|-----2-------2-------------|-0---0---0---0---0---0---0---0---|-2---2---2---2---2---5-------2---|
D|---------4-------0---------|---------------------------------|-------------------------4-------|
A|---------------------------|---------------------------------|---------------------------------|
D|---------------------------|---------------------------------|---------------------------------|


E|---------------------------------|---------------------------------|-------------|
B|---------------------------------|---------------------------------|-------------|
G|-0---0---0---0---0---0---0---0---|-2---2---2---2---2---5-------2---|-------------|
D|---------------------------------|-------------------------4-------|-0-----0-----|
A|---------------------------------|---------------------------------|-------------|
D|---------------------------------|---------------------------------|-------------|


E|-----------------|--------|-------------|---------------------|---------------------------|
B|-----------------|--------|-------------|---------------------|---------------------------|
G|-----------------|--------|-------------|---------------------|---------------------------|
D|-0-----0---------|--------|-------------|---------------------|---------0-------0---------|
A|-----------------|--------|-------------|-3----3----0---------|---------------------------|
D|-----------------|--------|-4-----5-----|----------------0----|-0-------------------------|


E|--------|-------------|---------------------------|---------------------------------|
B|--------|-------------|---------------------------|---------------------------------|
G|--------|-------------|---------------------------|---------------------------------|
D|--------|-4-----5-----|---------------------------|---------------------------------|
A|--------|-------------|-3----3---3---0----0---0---|---------------------------------|
D|--------|-------------|---------------------------|-0---0---0---0---0---0---0---0---|


E|---------------------------------|---------------------------------|---------------------------------|
B|---------------------------------|---------------------------------|---------------------------------|
G|---------------------------------|---------------------------------|---------------------------------|
D|---------------------------------|-----5---5---5---5---5---7---7---|-5---5---4---4---5---5---2---2---|
A|---------------------------------|---------------------------------|---------------------------------|
D|-0---0---0---0---0---0---0---0---|-0-------------------------------|---------------------------------|


E|-------------|-------------|---------------------------------|---------------------------------|
B|-------------|-------------|---------------------------------|---------------------------------|
G|-2-----2-----|-2-----2-----|-----0---2---0-------0---2-------|-4---2---0---2---4---2---1---4---|
D|-0-----2-----|-0-----2-----|-4---------------4-----------4---|---------------------------------|
A|-------------|-------------|---------------------------------|---------------------------------|
D|-------------|-------------|---------------------------------|---------------------------------|


E|---------------------------------|---------------------------|--------------------|
B|---------------------------------|---------------------------|--------------------|
G|-2---2---2---2---2---2---2---2---|-2-------------------------|--------------------|
D|---------------------------------|---------------------------|------------4-------|
A|---------------------------------|-----0---0---0---0---------|--------------------|
D|---------------------------------|---------------------------|--------------------|


E|---------------------------------|---------------------------|-----------------|
B|---------------------------------|---------------------------|-----------------|
G|---------------------------------|---------------------------|-----------------|
D|---------5-------2---------------|------2----0-------2-------|-----------------|
A|-2-----------------------4-------|---------------------------|-5-----4---------|
D|---------------------------------|---------------------------|-----------------|


E|---------------------------|------------------------------|--------------------|
B|---------------------------|------------------------------|--------------------|
G|---------------------------|------------------------------|--------------------|
D|-------------------4-------|------------------------------|-2---0--------------|
A|------4----5---------------|-2------------------------5---|--------------------|
D|---------------------------|---------5-------2------------|--------------------|


E|---------------------------------|---------------------------------|---------------------------------|
B|---------------------------------|---------------------------------|---------------------------------|
G|---------------------------------|---------------------------------|---------------------------------|
D|-0---0---2---2---4---4---0---0---|-----------------2---2-----------|-0---0---2---2---4---4---0---0---|
A|---------------------------------|-4---4---5---5-----------4---4---|---------------------------------|
D|---------------------------------|---------------------------------|---------------------------------|


E|---------------------------------|---------------------------------|---------------------------------|
B|---------------------------------|---------------------------------|---------------------------------|
G|---------------------------------|---------------------------------|---------------------------------|
D|-----------------2---2-----------|-0---0---4---2---1-----------1---|-2---5---2---0-------------------|
A|-4---4---5---5-----------4---4---|---------------------2---4-------|-----------------4---0---2---4---|
D|---------------------------------|---------------------------------|---------------------------------|


E|---------------------------------|---------------------------------|---------------------------------|
B|-----3---3---3---3---3---3---3---|-3-------------------------------|---------------------------------|
G|---------------------------------|-----2---2---2---2---2---2---0---|---------------------------------|
D|-0-------------------------------|---------------------------------|-4---0---2---2---4---4---0---0---|
A|---------------------------------|---------------------------------|---------------------------------|
D|---------------------------------|---------------------------------|---------------------------------|


E|---------------------------------|---------------------------------|---------------------------------|
B|---------------------------------|---------------------------------|---------------------------------|
G|---------------------------------|---------------------------------|---------------------------------|
D|-----------------2---2-----------|-0---0---2---2---4---4---0---0---|-----------------2---2-----------|
A|-4---4---5---5-----------4---4---|---------------------------------|-4---4---5---5-----------4---4---|
D|---------------------------------|---------------------------------|---------------------------------|


E|---------------------------------|---------------------------------|---------------------------------|
B|---------------------------------|---------------------------------|-----3---3---3---3---3---3---3---|
G|---------------------------------|---------------------------------|---------------------------------|
D|-0---0---4---2---1-----------1---|-2---5---2---0-------------------|-0-------------------------------|
A|---------------------2---4-------|-----------------4---0---2---4---|---------------------------------|
D|---------------------------------|---------------------------------|---------------------------------|


E|---------------------------------|---------------------------------|---------------------------------|
B|-3-------------------------------|---------------------------------|---------------------------------|
G|-----2---2---2---2---2---2---0---|---------------------------------|-------------------------0---0---|
D|---------------------------------|-4---------------0---0---2---2---|-4-------0---2---4---4-----------|
A|---------------------------------|-----0---2---4-------------------|-----4---------------------------|
D|---------------------------------|---------------------------------|---------------------------------|


E|---------------------------|----------------|------------------------------|---------------------------|
B|---------------------------|----------------|------------------------------|---------------------------|
G|-2---2---3---3---4---------|----------------|------------------------------|---------------------------|
D|---------------------------|-2--------------|------------------------------|-0------------0------------|
A|---------------------------|--------5---4---|-5-------5-------5------------|----------0------------0---|
D|---------------------------|----------------|------------------------------|---------------------------|


E|---------------------------|---------------------------|---------------------------|
B|---------------------------|---------------------------|---------------------------|
G|-----------------2---------|-2------------2------------|-2-------------------------|
D|-0-------0---4-------------|----------4------------4---|-----4---1---4-------------|
A|-----0---------------------|---------------------------|-----------------2---------|
D|---------------------------|---------------------------|---------------------------|


E|---------------------------------|---------------------------------|---------------------------------|
B|---------------------------------|---------------------------------|---------------------------------|
G|---------------------------------|---------------------------------|---------------------------------|
D|-----------------2---2-----------|---------------------------------|-----------------2---2-----------|
A|-3---3---5---5-----------3---3---|-2---2---3---3---5---5---2---2---|-3---3---5---5-----------3---3---|
D|---------------------------------|---------------------------------|---------------------------------|


E|---------------------------------|---------------------------------|---------------------------------|
B|---------------------------------|---------------------------------|---------------------------------|
G|---------------------------------|---------------------------------|---------------------------------|
D|---------------------------------|-----------------2---2-----------|---------------------------------|
A|-2---2---3---3---5---5---2---2---|-3---3---5---5-----------3---3---|-2---2---3---3---5---5---2---2---|
D|---------------------------------|---------------------------------|---------------------------------|


E|---------------------------------|---------------------------------|---------------------------------|
B|---------------------------------|---------------------------------|---------------------------------|
G|---------------------------------|---------------------------------|---------------------------------|
D|---------------------------------|---------------------------------|-------------------------4---4---|
A|-0---0---2---2---3---3---0---0---|-0---0---1---1---3---3---0---0---|---------------------------------|
D|---------------------------------|---------------------------------|-5---5---4---4---5---5-----------|


E|---------------------------------|------------------------------|---------------------------------|
B|---------------------------------|------------------------------|-----------------------------2---|
G|---------------------------------|----------------------0---2---|-5---3-----------0---2---3-------|
D|-5---5---4---4---5---------------|----------0---2---4-----------|-------------4-------------------|
A|---------------------------------|-0----------------------------|---------------------------------|
D|---------------------5---4---5---|------------------------------|---------------------------------|


E|--------------------|--------|---------------------------------|---------------------------------|
B|-5---3--------------|--------|-0---0---0---1-------------------|---------------------------------|
G|--------------------|--------|-----------------2---2---2---4---|-0---0---0---4---4---2---0-------|
D|--------------------|--------|---------------------------------|-----------------------------0---|
A|--------------------|--------|---------------------------------|---------------------------------|
D|--------------------|--------|---------------------------------|---------------------------------|


E|---------------------------|---------------------------|---------------------------|
B|---------------------------|-------------0---3---------|-1------------1------------|
G|-0------------0------------|-0-------0-----------------|----------2------------2---|
D|----------0------------0---|-----0---------------------|---------------------------|
A|---------------------------|---------------------------|---------------------------|
D|---------------------------|---------------------------|---------------------------|


E|---------------------------|---------------------------------|---------------------------------|
B|-1-------------------------|---------------------------------|---------------------------------|
G|-----2-------2-------------|-0---0---0---0---0---0---0---0---|-2---2---2---2---2---5-------2---|
D|---------4-------0---------|---------------------------------|-------------------------4-------|
A|---------------------------|---------------------------------|---------------------------------|
D|---------------------------|---------------------------------|---------------------------------|


E|---------------------------------|---------------------------------|-------------|
B|---------------------------------|---------------------------------|-------------|
G|-0---0---0---0---0---0---0---0---|-2---2---2---2---2---5-------2---|-------------|
D|---------------------------------|-------------------------4-------|-0-----0-----|
A|---------------------------------|---------------------------------|-------------|
D|---------------------------------|---------------------------------|-------------|


E|-----------------|--------|-------------|---------------------|------------------------------|
B|-----------------|--------|-------------|---------------------|------------------------------|
G|-----------------|--------|-------------|---------------------|------------------------------|
D|-0-----0---------|--------|-------------|---------------------|------------------------------|
A|-----------------|--------|-------------|-3----3----0---------|---------5-------5------------|
D|-----------------|--------|-4-----5-----|----------------0----|-0----------------------------|


E|--------|-------------|---------------------------|---------------------------------|
B|--------|-------------|---------------------------|---------------------------------|
G|--------|-------------|---------------------------|---------------------------------|
D|--------|-4-----5-----|---------------------------|---------------------------------|
A|--------|-------------|-3----3---3---0----0---0---|---------------------------------|
D|--------|-------------|---------------------------|-5---5---5---5---5---5---5---5---|


E|---------------------------------|---------------------------------|---------------------------------|
B|---------------------------------|---------------------------------|---------------------------------|
G|---------------------------------|-----0---0---0---0---0---2---2---|-0---0-----------0---0-----------|
D|---------------------------------|---------------------------------|---------4---4-----------2---2---|
A|---------------------------------|---------------------------------|---------------------------------|
D|-5---5---5---5---5---5---5---5---|-5-------------------------------|---------------------------------|


E|-------------|-------------|---------------------|---------------------------|--------------------|
B|-------------|-------------|---------------------|---------------------------|------------0-------|
G|-2-----2-----|-2-----2-----|-2----2----2----2----|-2-------------------------|--------------------|
D|-0-----2-----|-0-----2-----|-0----2----0----2----|-0-------------------------|--------------------|
A|-------------|-------------|---------------------|---------------------------|--------------------|
D|-------------|-------------|---------------------|-----0---0---0---0---------|--------------------|


E|---------------------------------|---------------------------|-----------------|
B|---------1-----------------------|---------------------------|-----------------|
G|-----------------2---------------|------2----0-------2-------|-----------------|
D|-2-----------------------4-------|---------------------------|-5-----4---------|
A|---------------------------------|---------------------------|-----------------|
D|---------------------------------|---------------------------|-----------------|


E|---------------------------|------------------------------|--------------------|
B|---------------------------|------------------------------|--------------------|
G|------0----2-------4-------|--------------------------2---|-2---0--------------|
D|---------------------------|-2----------------------------|--------------------|
A|---------------------------|---------3--------------------|--------------------|
D|---------------------------|-----------------5------------|--------------------|


E|---------------------------------|---------------------------------|---------------------------------|
B|---------------------------------|---------------------------------|---------------------------------|
G|---------------------------------|---------------------------------|---------------------------------|
D|---------------------------------|---------------------------------|---------------------------------|
A|---------0---0---2---2-----------|-----------------0---0-----------|---------0---0---2---2-----------|
D|-5---5-------------------5---5---|-4---4---5---5-----------4---4---|-5---5-------------------5---5---|


E|---------------------------------|---------------------------------|---------------------------------|
B|---------------------------------|---------------------------------|-----1---------------------------|
G|---------------------------------|-----0---4---2---1-------1---2---|-2-------2---0-------------------|
D|---------------------------------|---------------------2-----------|-----------------4---0---2---4---|
A|-----------------0---0-----------|---------------------------------|---------------------------------|
D|-4---4---5---5-----------4---4---|-5-------------------------------|---------------------------------|


E|---------------------------------|---------------------------------|---------------------------------|
B|---------------------------------|---------------------------------|---------------------------------|
G|---------------------------------|---------------------------------|---------------------------------|
D|-5---5---5---5---5---5---5---5---|-5---0---0---0---0---0---0-------|---------------------------------|
A|---------------------------------|-----------------------------3---|-2-------0---0---2---2-----------|
D|---------------------------------|---------------------------------|-----5-------------------5---5---|


E|---------------------------------|---------------------------------|---------------------------------|
B|---------------------------------|---------------------------------|---------------------------------|
G|---------------------------------|-----0---2---2---4---4---0---0---|---------0---0---2---2-----------|
D|---------------------------------|---------------------------------|-4---4-------------------4---4---|
A|-----------------0---0-----------|---------------------------------|---------------------------------|
D|-4---4---5---5-----------4---4---|-5-------------------------------|---------------------------------|


E|---------------------------------|---------------------------------|---------------------------------|
B|---------------------------------|-----1---------------------------|---------------------------------|
G|-0---0---4---2---1-----------1---|-2-------2---0-------------------|-0---0---0---0---0---0---0---0---|
D|---------------------2---4-------|-----------------4-------2---4---|---------------------------------|
A|---------------------------------|---------------------5-----------|---------------------------------|
D|---------------------------------|---------------------------------|---------------------------------|


E|---------------------------------|---------------------------------|---------------------------------|
B|---------3---3---3---3---3---1---|-0-------------------------------|---------------------------------|
G|-0---4---------------------------|-----------------0---0---2---2---|-4-------------------------------|
D|---------------------------------|-----0---2---4-------------------|---------------------------------|
A|---------------------------------|---------------------------------|-------------0---2---2---3---3---|
D|---------------------------------|---------------------------------|-----4---5-----------------------|


E|---------------------------|----------------|-----------------|----------------|
B|---------------------------|----------------|-----------------|----------------|
G|---------------------------|----------------|-----------------|----------------|
D|-0---0---1---1---2---------|----------------|-----------------|----------------|
A|---------------------------|----------------|-----------------|----------------|
D|---------------------------|-7------5---4---|-5---------------|-7------5---4---|


E|---------------------|---------------------|-------------|-----------------|-------------|
B|---------------------|---------------------|-------------|-----------------|-------------|
G|---------------------|-----------2---------|-------------|-----------------|-------------|
D|-----------5---------|-2---------0---------|-------------|-----------------|-------------|
A|---------------------|---------------------|-------------|------------0----|-------------|
D|-5-------------------|---------------------|-5-----5-----|-5-----5---------|-5-----5-----|


E|-----------------|---------------------------------|------------------------|
B|-----------------|-----------------0-------3---0---|------------------------|
G|-----------------|-------------0-------0-----------|-0----------------------|
D|-----------------|---------0-----------------------|------------------------|
A|------------0----|-----2---------------------------|------------------------|
D|-5-----5---------|-5-------------------------------|------5----5--5---------|





Track 4: Bass I

G|---------------------------|-------------4---7---------|-5------------5------------|
D|-5------------5------------|-5-------5-----------------|----------7------------7---|
A|----------5------------5---|-----5---------------------|---------------------------|
E|---------------------------|---------------------------|---------------------------|


G|-5-------------------------|-0---0---0---0---0---0---0---0---|-0---0---0---0---0---0---0---0---|
D|-----7---4---7-------------|---------------------------------|---------------------------------|
A|-----------------5---------|---------------------------------|---------------------------------|
E|---------------------------|---------------------------------|---------------------------------|


G|-0---0---0---0---0---0---0---0---|-0---0---0---0---0---0---0---0---|-0---0---2---2---4---4-----------|
D|---------------------------------|---------------------------------|-------------------------4---4---|
A|---------------------------------|---------------------------------|---------------------------------|
E|---------------------------------|---------------------------------|---------------------------------|


G|-0---0---2---2---4---------|--------|-------------|---------------------|-----------------0---------|
D|---------------------------|--------|-0-----2-----|-----------0----0----|---------0-----------------|
A|---------------------------|--------|-------------|-3----3--------------|-2-------------------------|
E|---------------------------|--------|-------------|---------------------|---------------------------|


G|--------|-------------|---------------------|-0---0---0---0---0---0---0---0---|-0---0---0---0---0---0---0---0---|
D|--------|-0-----2-----|-----------0----0----|---------------------------------|---------------------------------|
A|--------|-------------|-3----3--------------|---------------------------------|---------------------------------|
E|--------|-------------|---------------------|---------------------------------|---------------------------------|


G|-0---0---0---0---0---0---0---0---|-0---0-----------0---0-----------|--------|--------|
D|---------------------------------|---------4---4-----------2---2---|-0------|-0------|
A|---------------------------------|---------------------------------|--------|--------|
E|---------------------------------|---------------------------------|--------|--------|


G|---------------------------------|-0---2---4---2---0---2---4---1---|-2---2---2---2---2---2---2---2---|
D|-0---2---4---2---0---2---4---0---|---------------------------------|---------------------------------|
A|---------------------------------|---------------------------------|---------------------------------|
E|---------------------------------|---------------------------------|---------------------------------|


G|-2-------------------------|--------------------|---------------------------------|
D|---------------------------|------------1-------|-2-------0-----------------------|
A|-----0---0---0---0---------|--------------------|-----------------4-------0-------|
E|---------------------------|--------------------|---------------------------------|


G|---------------------------|------2-----1---0-------|---------------------------------|
D|---------------------------|--------------------2---|-0-------2-------4-------1-------|
A|------1----2---------------|------------------------|---------------------------------|
E|-------------------3-------|-1----------------------|---------------------------------|


G|---------------------------------|---------0-------2---------------|-----------------|
D|-2-------0-----------------------|---------------------------------|-0---------------|
A|-----------------4-------0-------|-2-----------------------0-------|-----------------|
E|---------------------------------|---------------------------------|-----------------|


G|-----------------|-----------------|-----------------|---------------------------------|
D|-----------------|-0---------------|-----------------|-----0---4---2---1-----------0---|
A|-0---------------|-----------------|-0---------------|---------------------2---4-------|
E|-----------------|-----------------|-----------------|---------------------------------|


G|-----0---------------------------|-----------------0---0---0---0---|-2---2---2---2-------------------|
D|-2-------2---0-------------------|-0---0---2---4-------------------|---------------------------------|
A|-----------------4---0---2---4---|---------------------------------|-----------------0---0---0---0---|
E|---------------------------------|---------------------------------|---------------------------------|


G|-----------------|-----------------|-----------------|-----------------|---------------------------------|
D|-0---------------|-----------------|-0---------------|-----------------|-----0---4---2---1-----------0---|
A|-----------------|-0---------------|-----------------|-0---------------|---------------------2---4-------|
E|-----------------|-----------------|-----------------|-----------------|---------------------------------|


G|-----0---------------------------|-----------------0---0---0---0---|-2---2---2---2-------------------|
D|-2-------2---0-------------------|-0---0---2---4-------------------|---------------------------------|
A|-----------------4---0---2---4---|---------------------------------|-----------------0---0---0---0---|
E|---------------------------------|---------------------------------|---------------------------------|


G|---------------------------------|-------------------------0---0---|-2---2---3---3---4---------|
D|-0---------------0---0---2---2---|-4-------0---2---4---4-----------|---------------------------|
A|-----0---2---4-------------------|-----4---------------------------|---------------------------|
E|---------------------------------|---------------------------------|---------------------------|


G|-0-----2-----|------------------------------|---------------------------|-----------------2---------|
D|-------------|-0-------0-------0------------|-0------------0------------|-0-------0---4-------------|
A|-------------|------------------------------|----------0------------0---|-----0---------------------|
E|-------------|------------------------------|---------------------------|---------------------------|


G|-2------------2------------|-2-------------------------|-----------------|-----------------|
D|----------4------------4---|-----4---1---4-------------|-----------------|-----------------|
A|---------------------------|-----------------2---------|-3---------------|-----------------|
E|---------------------------|---------------------------|-----------------|-3---------------|


G|-----------------|-----------------|-----------------|-----------------|-----------------|
D|-----------------|-----------------|-----------------|-2---------------|-----------------|
A|-3---------------|-----------------|-3---------------|-----------------|-0---------------|
E|-----------------|-3---------------|-----------------|-----------------|-----------------|


G|-----------------|--------|--------|----------------------0---2---|-5---3-------------------3---6---|
D|-0---------------|-1------|-1------|-0--------0---2---4-----------|-------------4---5---7-----------|
A|-----------------|--------|--------|------------------------------|---------------------------------|
E|-----------------|--------|--------|------------------------------|---------------------------------|


G|-9---7--------------|--------|--------|--------|---------------------------|-------------4---7---------|
D|--------------------|--------|--------|-0------|-5------------5------------|-5-------5-----------------|
A|--------------------|--------|--------|--------|----------5------------5---|-----5---------------------|
E|--------------------|--------|--------|--------|---------------------------|---------------------------|


G|-5------------5------------|-5-------------------------|-0---0---0---0---0---0---0---0---|
D|----------7------------7---|-----7---4---7-------------|---------------------------------|
A|---------------------------|-----------------5---------|---------------------------------|
E|---------------------------|---------------------------|---------------------------------|


G|-0---0---0---0---0---0---0---0---|-0---0---0---0---0---0---0---0---|-0---0---0---0---0---0---0---0---|
D|---------------------------------|---------------------------------|---------------------------------|
A|---------------------------------|---------------------------------|---------------------------------|
E|---------------------------------|---------------------------------|---------------------------------|


G|-0---0---2---2---4---4-----------|-0---0---2---2---4---------|--------|-------------|
D|-------------------------4---4---|---------------------------|--------|-0-----2-----|
A|---------------------------------|---------------------------|--------|-------------|
E|---------------------------------|---------------------------|--------|-------------|


G|---------------------|-----------------0---------|--------|-------------|---------------------|
D|-----------0----0----|---------0-----------------|--------|-0-----2-----|-----------0----0----|
A|-3----3--------------|-2-------------------------|--------|-------------|-3----3--------------|
E|---------------------|---------------------------|--------|-------------|---------------------|


G|-0---0---0---0---0---0---0---0---|-0---0---0---0---0---0---0---0---|-0---0---0---0---0---0---0---0---|
D|---------------------------------|---------------------------------|---------------------------------|
A|---------------------------------|---------------------------------|---------------------------------|
E|---------------------------------|---------------------------------|---------------------------------|


G|-0---0-----------0---0-----------|--------|--------|---------------------------------|
D|---------4---4-----------2---2---|-0------|-0------|-0---0---0---0---0---0---0---0---|
A|---------------------------------|--------|--------|---------------------------------|
E|---------------------------------|--------|--------|---------------------------------|


G|---------------------------|------------1-------|-2-------0-----------------------|
D|-0---0---0---0---0---------|--------------------|-----------------4-------2-------|
A|---------------------------|--------------------|---------------------------------|
E|---------------------------|--------------------|---------------------------------|


G|---------------------------|------7-----6---5-------|-----------------4---------------|
D|------1----2---------------|-0------------------7---|-5-------7---------------6-------|
A|-------------------3-------|------------------------|---------------------------------|
E|---------------------------|------------------------|---------------------------------|


G|---------------------------------|---------------------------------|-----------------|
D|-7-------5-------4-------0-------|-2---------------0-------0-------|-----------------|
A|---------------------------------|---------3-----------------------|-----------------|
E|---------------------------------|---------------------------------|-3---------------|


G|-----------------|-----------------|-----------------|-----0---4---2---1-----------1---|
D|-----------------|-----------------|-----------------|---------------------2---4-------|
A|-5---------------|-----------------|-5---------------|---------------------------------|
E|-----------------|-3---------------|-----------------|---------------------------------|


G|-2---5---2---0-------------------|---------2---4---5---5---5---5---|-7---7---7---7-------------------|
D|-----------------4---0---2---4---|-5---5---------------------------|-----------------0---0---0---0---|
A|---------------------------------|---------------------------------|---------------------------------|
E|---------------------------------|---------------------------------|---------------------------------|


G|-0---------------|-----------------|-0---------------|-----------------|-----0---4---2---1-----------1---|
D|-----------------|-0---------------|-----------------|-0---------------|---------------------2---4-------|
A|-----------------|-----------------|-----------------|-----------------|---------------------------------|
E|-----------------|-----------------|-----------------|-----------------|---------------------------------|


G|-2---5---2---0-------------------|---------2---4---5---5---5---5---|-7---7---7---7-------------------|
D|-----------------4---0---2---4---|-5---5---------------------------|-----------------0---0---0---0---|
A|---------------------------------|---------------------------------|---------------------------------|
E|---------------------------------|---------------------------------|---------------------------------|


G|-0---------------0---0---2---2---|-4-------0---2---4---4---5---5---|-7---7---8---8---9---------|
D|-----0---2---4-------------------|-----4---------------------------|---------------------------|
A|---------------------------------|---------------------------------|---------------------------|
E|---------------------------------|---------------------------------|---------------------------|


G|-------------|-----------------|-------------|-----------------|---------------------|
D|-------------|-----------------|-------------|-----------------|---------------------|
A|-3-----5-----|-----------------|-3-----5-----|-----------------|-3---------5---------|
E|-------------|-3---------------|-------------|-3---------------|---------------------|


G|---------------------------------|---------------------------------|---------------------------------|
D|---------------------------------|---------------------------------|---------------------------------|
A|---------------------------------|---------------------------------|---------------------------------|
E|-3---3---3---3---3---3---3---3---|-3---3---3---3---3---3---3---3---|-3---3---3---3---3---3---3---3---|


G|---------------------------------|-----------------4-------7---4---|-0----------------------|
D|---------------------------------|-------------5-------5-----------|------------------------|
A|---------------------------------|-----2---5-----------------------|------------------------|
E|-3---3---3---3---3---3---3---3---|-3-------------------------------|------3----3--3---------|