Menu:

 

Search:

 

white zombie - blood milk and sky:

 



Title: Blood, Milk And Sky
Artist: 
Album: Astrocreep 2000
Author: White Zombie


Track 1: Rhy Guitar 1

C#|--------|--------|--------|--------|--------|--------------------------------------|
G#|--------|--------|--------|--------|--------|--------------------------------------|
 E|--------|--------|--------|--------|--------|--------------------------------------|
 B|--------|--------|--------|--------|--------|-2--2--2--2--2---2--2--2--2--2--------|
F#|--------|--------|--------|--------|--------|-2--2--2--2--2---2--2--2--2--2--------|
C#|--------|--------|--------|--------|--------|-0--0--0--0--0---0--0--0--0--0--------|


C#|--------------------------------------|--------------------------------------|--------------------------------------|
G#|--------------------------------------|--------------------------------------|--------------------------------------|
 E|--------------------------------------|--------------------------------------|--------------------------------------|
 B|-2--2--2--2--2---2--2--2--2--2--------|-2--2--2--2--2---2--2--2--2--2--------|-2--2--2--2--2---2--2--2--2--2--------|
F#|-2--2--2--2--2---2--2--2--2--2--------|-2--2--2--2--2---2--2--2--2--2--------|-2--2--2--2--2---2--2--2--2--2--------|
C#|-0--0--0--0--0---0--0--0--0--0--------|-0--0--0--0--0---0--0--0--0--0--------|-0--0--0--0--0---0--0--0--0--0--------|


C#|--------------------------------------|--------------------------------------|--------------------------------------|
G#|--------------------------------------|--------------------------------------|--------------------------------------|
 E|--------------------------------------|--------------------------------------|--------------------------------------|
 B|-2--2--2--2--2---2--2--2--2--2--------|-2--2--2--2--2---2--2--2--2--2--------|-2--2--2--2--2---2--2--2--2--2--------|
F#|-2--2--2--2--2---2--2--2--2--2--------|-2--2--2--2--2---2--2--2--2--2--------|-2--2--2--2--2---2--2--2--2--2--------|
C#|-0--0--0--0--0---0--0--0--0--0--------|-0--0--0--0--0---0--0--0--0--0--------|-0--0--0--0--0---0--0--0--0--0--------|


C#|--------------------------------------|--------------------------------------|--------------------------------------|
G#|--------------------------------------|--------------------------------------|--------------------------------------|
 E|--------------------------------------|--------------------------------------|--------------------------------------|
 B|-2--2--2--2--2---2--2--2--2--2--------|-2--2--2--2--2---2--2--2--2--2--------|-2--2--2--2--2---2--2--2--2--2--------|
F#|-2--2--2--2--2---2--2--2--2--2--------|-2--2--2--2--2---2--2--2--2--2--------|-2--2--2--2--2---2--2--2--2--2--------|
C#|-0--0--0--0--0---0--0--0--0--0--------|-0--0--0--0--0---0--0--0--0--0--------|-0--0--0--0--0---0--0--0--0--0--------|


C#|--------------------------------------|--------------------------------------|---------------------------------------------|
G#|--------------------------------------|--------------------------------------|---------------------------------------------|
 E|--------------------------------------|--------------------------------------|---------------------------------0-----0--1--|
 B|-2--2--2--2--2---2--2--2--2--2--------|-2--2--2--2--2---2--2--2--2--2--------|---------------------------------0--2--0--1--|
F#|-2--2--2--2--2---2--2--2--2--2--------|-2--2--2--2--2---2--2--2--2--2--------|-2--2--2--2--2---2--2--2--2--2------2--------|
C#|-0--0--0--0--0---0--0--0--0--0--------|-0--0--0--0--0---0--0--0--0--0--------|-0--0--0--0--0---0--0--0--0--0---------------|


C#|-----------------------------------------------|---------------------------------------------|
G#|-----------------------------------------------|---------------------------------------------|
 E|--------------------------------0-----0-----0--|---------------------------------0-----0--1--|
 B|--------------------------------0-----0--2--0--|---------------------------------0--2--0--1--|
F#|-2--2--2--2--2---2--2--2--2--2-----------2-----|-2--2--2--2--2---2--2--2--2--2------2--------|
C#|-0--0--0--0--0---0--0--0--0--0-----------------|-0--0--0--0--0---0--0--0--0--0---------------|


C#|-----------------------------------------------|--------------------------------------|
G#|-----------------------------------------------|--------------------------------------|
 E|--------------------------------0-----0-----0--|--------------------------------------|
 B|--------------------------------0-----0--2--0--|-2--2--2--2--2---2--2--2--2--2--------|
F#|-2--2--2--2--2---2--2--2--2--2-----------2-----|-2--2--2--2--2---2--2--2--2--2--------|
C#|-0--0--0--0--0---0--0--0--0--0-----------------|-0--0--0--0--0---0--0--0--0--0--------|


C#|--------------------------------------|--------------------------------------|--------------------------------------|
G#|--------------------------------------|--------------------------------------|--------------------------------------|
 E|--------------------------------------|--------------------------------------|--------------------------------------|
 B|-2--2--2--2--2---2--2--2--2--2--------|-2--2--2--2--2---2--2--2--2--2--------|-2--2--2--2--2---2--2--2--2--2--------|
F#|-2--2--2--2--2---2--2--2--2--2--------|-2--2--2--2--2---2--2--2--2--2--------|-2--2--2--2--2---2--2--2--2--2--------|
C#|-0--0--0--0--0---0--0--0--0--0--------|-0--0--0--0--0---0--0--0--0--0--------|-0--0--0--0--0---0--0--0--0--0--------|


C#|--------------------------------------|--------------------------------------|--------------------------------------|
G#|--------------------------------------|--------------------------------------|--------------------------------------|
 E|--------------------------------------|--------------------------------------|--------------------------------------|
 B|-2--2--2--2--2---2--2--2--2--2--------|-2--2--2--2--2---2--2--2--2--2--------|-2--2--2--2--2---2--2--2--2--2--------|
F#|-2--2--2--2--2---2--2--2--2--2--------|-2--2--2--2--2---2--2--2--2--2--------|-2--2--2--2--2---2--2--2--2--2--------|
C#|-0--0--0--0--0---0--0--0--0--0--------|-0--0--0--0--0---0--0--0--0--0--------|-0--0--0--0--0---0--0--0--0--0--------|


C#|--------------------------------------|---------------------------------------------|
G#|--------------------------------------|---------------------------------------------|
 E|--------------------------------------|---------------------------------0-----0--1--|
 B|-2--2--2--2--2---2--2--2--2--2--------|---------------------------------0--2--0--1--|
F#|-2--2--2--2--2---2--2--2--2--2--------|-2--2--2--2--2---2--2--2--2--2------2--------|
C#|-0--0--0--0--0---0--0--0--0--0--------|-0--0--0--0--0---0--0--0--0--0---------------|


C#|-----------------------------------------------|---------------------------------------------|
G#|-----------------------------------------------|---------------------------------------------|
 E|--------------------------------0-----0-----0--|---------------------------------0-----0--1--|
 B|--------------------------------0-----0--2--0--|---------------------------------0--2--0--1--|
F#|-2--2--2--2--2---2--2--2--2--2-----------2-----|-2--2--2--2--2---2--2--2--2--2------2--------|
C#|-0--0--0--0--0---0--0--0--0--0-----------------|-0--0--0--0--0---0--0--0--0--0---------------|


C#|-----------------------------------------------|--------|--------|--------|--------|
G#|-----------------------------------------------|--------|-1------|--------|-0------|
 E|--------------------------------0-----0-----0--|-1------|-2------|-1------|-2------|
 B|--------------------------------0-----0--2--0--|-2------|-2------|-2------|-2------|
F#|-2--2--2--2--2---2--2--2--2--2-----------2-----|-2------|--------|-2------|-2------|
C#|-0--0--0--0--0---0--0--0--0--0-----------------|-0------|-0------|-0------|-0------|


C#|--------|--------|--------|--------|------------------------------------------|
G#|--------|-1------|--------|-0------|------------------------------------------|
 E|-1------|-2------|-1------|-2------|------------------------------------------|
 B|-2------|-2------|-2------|-2------|-2--2-----2--2-----2--2-----2--2----------|
F#|-2------|--------|-2------|-2------|-2--2-----2--2-----2--2-----2--2----------|
C#|-0------|-0------|-0------|-0------|-0--0-----0--0-----0--0-----0--0----------|


C#|------------------------------------------|------------------------------------------|
G#|------------------------------------------|------------------------------------------|
 E|------------------------------------------|------------------------------------------|
 B|-2--2-----2--2-----2--2-----2--2----------|-2--2-----2--2-----2--2-----2--2----------|
F#|-2--2-----2--2-----2--2-----2--2----------|-2--2-----2--2-----2--2-----2--2----------|
C#|-0--0-----0--0-----0--0-----0--0----------|-0--0-----0--0-----0--0-----0--0----------|


C#|------------------------------------------|------------------------------------------|
G#|------------------------------------------|------------------------------------------|
 E|------------------------------------------|------------------------------------------|
 B|-2--2-----2--2-----2--2-----2--2----------|-2--2-----2--2-----2--2-----2--2----------|
F#|-2--2-----2--2-----2--2-----2--2----------|-2--2-----2--2-----2--2-----2--2----------|
C#|-0--0-----0--0-----0--0-----0--0----------|-0--0-----0--0-----0--0-----0--0----------|


C#|------------------------------------------|------------------------------------------|
G#|------------------------------------------|------------------------------------------|
 E|------------------------------------------|------------------------------------------|
 B|-2--2-----2--2-----2--2-----2--2----------|-2--2-----2--2-----2--2-----2--2----------|
F#|-2--2-----2--2-----2--2-----2--2----------|-2--2-----2--2-----2--2-----2--2----------|
C#|-0--0-----0--0-----0--0-----0--0----------|-0--0-----0--0-----0--0-----0--0----------|


C#|------------------------------------------|--------------------------------------|
G#|------------------------------------------|--------------------------------------|
 E|------------------------------------------|--------------------------------------|
 B|-2--2-----2--2-----2--2-----2--2----------|-2--2--2--2--2---2--2--2--2--2--------|
F#|-2--2-----2--2-----2--2-----2--2----------|-2--2--2--2--2---2--2--2--2--2--------|
C#|-0--0-----0--0-----0--0-----0--0----------|-0--0--0--0--0---0--0--0--0--0--------|


C#|--------------------------------------|--------------------------------------|--------------------------------------|
G#|--------------------------------------|--------------------------------------|--------------------------------------|
 E|--------------------------------------|--------------------------------------|--------------------------------------|
 B|-2--2--2--2--2---2--2--2--2--2--------|-2--2--2--2--2---2--2--2--2--2--------|-2--2--2--2--2---2--2--2--2--2--------|
F#|-2--2--2--2--2---2--2--2--2--2--------|-2--2--2--2--2---2--2--2--2--2--------|-2--2--2--2--2---2--2--2--2--2--------|
C#|-0--0--0--0--0---0--0--0--0--0--------|-0--0--0--0--0---0--0--0--0--0--------|-0--0--0--0--0---0--0--0--0--0--------|


C#|--------------------------------------|--------------------------------------|--------------------------------------|
G#|--------------------------------------|--------------------------------------|--------------------------------------|
 E|--------------------------------------|--------------------------------------|--------------------------------------|
 B|-2--2--2--2--2---2--2--2--2--2--------|-2--2--2--2--2---2--2--2--2--2--------|-2--2--2--2--2---2--2--2--2--2--------|
F#|-2--2--2--2--2---2--2--2--2--2--------|-2--2--2--2--2---2--2--2--2--2--------|-2--2--2--2--2---2--2--2--2--2--------|
C#|-0--0--0--0--0---0--0--0--0--0--------|-0--0--0--0--0---0--0--0--0--0--------|-0--0--0--0--0---0--0--0--0--0--------|


C#|--------------------------------------|--------|--------|--------|-2------|--------|
G#|--------------------------------------|-0------|-0------|-0------|-5------|-0------|
 E|--------------------------------------|-1------|-2------|-1------|-2------|-1------|
 B|-2--2--2--2--2---2--2--2--2--2--------|-2------|-2------|-2------|-2------|-2------|
F#|-2--2--2--2--2---2--2--2--2--2--------|-2------|-2------|-2------|-0------|-2------|
C#|-0--0--0--0--0---0--0--0--0--0--------|-0------|-0------|-0------|--------|-0------|


C#|--------|--------|-2------|--------|--------|--------|--------|--------|--------|
G#|-0------|-0------|-5------|-0------|-1------|-0------|-0------|-0------|-1------|
 E|-2------|-1------|-2------|-1------|-2------|-1------|-2------|-1------|-2------|
 B|-2------|-2------|-2------|-2------|-2------|-2------|-2------|-2------|-2------|
F#|-2------|-2------|-0------|-2------|--------|-2------|-2------|-2------|--------|
C#|-0------|-0------|--------|-0------|-0------|-0------|-0------|-0------|-0------|


C#|--------|--------|--------|--------|--------|--------|--------|--------|--------|
G#|-0------|-0------|-0------|-1------|-0------|-0------|-0------|-1------|-0------|
 E|-1------|-2------|-1------|-2------|-1------|-2------|-1------|-2------|-1------|
 B|-2------|-2------|-2------|-2------|-2------|-2------|-2------|-2------|-2------|
F#|-2------|-2------|-2------|--------|-2------|-2------|-2------|--------|-2------|
C#|-0------|-0------|-0------|-0------|-0------|-0------|-0------|-0------|-0------|


C#|--------|--------|--------|--------|--------|--------|--------|--------|--------|
G#|-0------|-0------|-1------|-0------|-0------|-0------|-1------|-0------|-0------|
 E|-2------|-1------|-2------|-1------|-2------|-1------|-2------|-1------|-2------|
 B|-2------|-2------|-2------|-2------|-2------|-2------|-2------|-2------|-2------|
F#|-2------|-2------|--------|-2------|-2------|-2------|--------|-2------|-2------|
C#|-0------|-0------|-0------|-0------|-0------|-0------|-0------|-0------|-0------|


C#|--------|--------|--------|--------|--------|--------|--------|--------|
G#|-0------|-1------|-0------|-0------|-0------|-1------|-0------|-0------|
 E|-1------|-2------|-1------|-2------|-1------|-2------|-1------|-2------|
 B|-2------|-2------|-2------|-2------|-2------|-2------|-2------|-2------|
F#|-2------|--------|-2------|-2------|-2------|--------|-2------|-2------|
C#|-0------|-0------|-0------|-0------|-0------|-0------|-0------|-0------|





Track 2: Vol. Swell Guitar 1

C#|--------|--------|--------|--------|--------|------------15---|-15---------13---|
G#|--------|--------|--------|--------|--------|------------7----|-7----------7----|
 E|--------|--------|--------|--------|--------|-----------------|-----------------|
 B|--------|--------|--------|--------|--------|-----------------|-----------------|
F#|--------|--------|--------|--------|--------|-----------------|-----------------|
C#|--------|--------|--------|--------|--------|-----------------|-----------------|


C#|-13---------15---|-15----------|------------15---|-15---------13---|-13---------15---|
G#|-7----------7----|-7-----12----|-12---------7----|-7----------7----|-7----------7----|
 E|-----------------|-------12----|-12--------------|-----------------|-----------------|
 B|-----------------|-------12----|-12--------------|-----------------|-----------------|
F#|-----------------|-------------|-----------------|-----------------|-----------------|
C#|-----------------|-------------|-----------------|-----------------|-----------------|


C#|-15----------|------------15---|-15---------13---|-13---------15---|-15----------|
G#|-7-----12----|-12---------7----|-7----------7----|-7----------7----|-7-----12----|
 E|-------12----|-12--------------|-----------------|-----------------|-------12----|
 B|-------12----|-12--------------|-----------------|-----------------|-------12----|
F#|-------------|-----------------|-----------------|-----------------|-------------|
C#|-------------|-----------------|-----------------|-----------------|-------------|


C#|-----------------|--------|--------|--------|------------15---|-15---------13---|
G#|-12--------------|--------|--------|--------|-12---------7----|-7----------7----|
 E|-12--------------|--------|--------|--------|-12--------------|-----------------|
 B|-12--------------|--------|--------|--------|-12--------------|-----------------|
F#|-----------------|--------|--------|--------|-----------------|-----------------|
C#|-----------------|--------|--------|--------|-----------------|-----------------|


C#|-13---------15---|-15----------|------------15---|-15---------13---|-13---------15---|
G#|-7----------7----|-7-----12----|-12---------7----|-7----------7----|-7----------7----|
 E|-----------------|-------12----|-12--------------|-----------------|-----------------|
 B|-----------------|-------12----|-12--------------|-----------------|-----------------|
F#|-----------------|-------------|-----------------|-----------------|-----------------|
C#|-----------------|-------------|-----------------|-----------------|-----------------|


C#|-15----------|-----------------|--------|--------|--------|-4----5-4-3-4---7---7-----4---|
G#|-7-----12----|-12--------------|--------|--------|--------|------------------------------|
 E|-------12----|-12--------------|--------|--------|--------|----------------4---4---------|
 B|-------12----|-12--------------|--------|--------|--------|------------------------------|
F#|-------------|-----------------|--------|--------|--------|------------------------------|
C#|-------------|-----------------|--------|--------|--------|------------------------------|


C#|-----2-------2--------------2--2---------|-4----5-4-3-4---7---7-----4---|-------------------------------|
G#|-1-------1------1--1--1--1--------1--1---|------------------------------|------7-7-7-5--------------7---|
 E|-----------------------------------------|----------------4---4---------|--------------5----------------|
 B|-----------------------------------------|------------------------------|-------------------------------|
F#|-----------------------------------------|------------------------------|-------------------------------|
C#|-----------------------------------------|------------------------------|-------------------------------|


C#|-4----5-4-3-4---7---7-----4---|--------|-4----5-4-3-4---7---7-----4---|-------------------------------|
G#|------------------------------|--------|------------------------------|------7-7-7-5--------------7---|
 E|----------------4---4---------|--------|----------------4---4---------|--------------5----------------|
 B|------------------------------|--------|------------------------------|-------------------------------|
F#|------------------------------|--------|------------------------------|-------------------------------|
C#|------------------------------|--------|------------------------------|-------------------------------|


C#|--------|--------|--------|--------|--------|--------|--------|--------|--------|
G#|--------|--------|--------|--------|--------|--------|--------|--------|--------|
 E|--------|--------|--------|--------|--------|--------|--------|--------|--------|
 B|--------|--------|--------|--------|--------|--------|--------|--------|--------|
F#|--------|--------|--------|--------|--------|--------|--------|--------|--------|
C#|--------|--------|--------|--------|--------|--------|--------|--------|--------|


C#|--------|--------|--------|--------|--------|--------|--------|--------|--------|
G#|--------|--------|--------|--------|--------|--------|--------|--------|--------|
 E|--------|--------|--------|--------|--------|--------|--------|--------|--------|
 B|--------|--------|--------|--------|--------|--------|--------|--------|--------|
F#|--------|--------|--------|--------|--------|--------|--------|--------|--------|
C#|--------|--------|--------|--------|--------|--------|--------|--------|--------|


C#|--------|--------|-4----5-4-3-4---7---7-----4---|--------|-4----5-4-3-4---7---7-----4---|
G#|--------|--------|------------------------------|--------|------------------------------|
 E|--------|--------|----------------4---4---------|--------|----------------4---4---------|
 B|--------|--------|------------------------------|--------|------------------------------|
F#|--------|--------|------------------------------|--------|------------------------------|
C#|--------|--------|------------------------------|--------|------------------------------|


C#|--------|-4----5-4-3-4---7---7-----4---|--------|-4----5-4-3-4---7---7-----4---|
G#|--------|------------------------------|--------|------------------------------|
 E|--------|----------------4---4---------|--------|----------------4---4---------|
 B|--------|------------------------------|--------|------------------------------|
F#|--------|------------------------------|--------|------------------------------|
C#|--------|------------------------------|--------|------------------------------|


C#|--------|-4----5-4-3-4---7---7-----4---|--------|-4----5-4-3-4---7---7-----4---|
G#|--------|------------------------------|--------|------------------------------|
 E|--------|----------------4---4---------|--------|----------------4---4---------|
 B|--------|------------------------------|--------|------------------------------|
F#|--------|------------------------------|--------|------------------------------|
C#|--------|------------------------------|--------|------------------------------|


C#|--------|-4----5-4-3-4---7---7-----4---|--------|-4----5-4-3-4---7---7-----4---|
G#|--------|------------------------------|--------|------------------------------|
 E|--------|----------------4---4---------|--------|----------------4---4---------|
 B|--------|------------------------------|--------|------------------------------|
F#|--------|------------------------------|--------|------------------------------|
C#|--------|------------------------------|--------|------------------------------|


C#|--------|-4----5-4-3-4---7---7-----4---|--------|-4----5-4-3-4---7---7-----4---|
G#|--------|------------------------------|--------|------------------------------|
 E|--------|----------------4---4---------|--------|----------------4---4---------|
 B|--------|------------------------------|--------|------------------------------|
F#|--------|------------------------------|--------|------------------------------|
C#|--------|------------------------------|--------|------------------------------|


C#|--------|-4----5-4-3-4---7---7-----4---|--------|-4----5-4-3-4---7---7-----4---|
G#|--------|------------------------------|--------|------------------------------|
 E|--------|----------------4---4---------|--------|----------------4---4---------|
 B|--------|------------------------------|--------|------------------------------|
F#|--------|------------------------------|--------|------------------------------|
C#|--------|------------------------------|--------|------------------------------|


C#|--------|-4----5-4-3-4---7---7-----4---|--------|-4----5-4-3-4---7---7-----4---|
G#|--------|------------------------------|--------|------------------------------|
 E|--------|----------------4---4---------|--------|----------------4---4---------|
 B|--------|------------------------------|--------|------------------------------|
F#|--------|------------------------------|--------|------------------------------|
C#|--------|------------------------------|--------|------------------------------|


C#|--------|-4----5-4-3-4---7---7-----4---|--------|-4----5-4-3-4---7---7-----4---|
G#|--------|------------------------------|--------|------------------------------|
 E|--------|----------------4---4---------|--------|----------------4---4---------|
 B|--------|------------------------------|--------|------------------------------|
F#|--------|------------------------------|--------|------------------------------|
C#|--------|------------------------------|--------|------------------------------|


C#|--------|-4----5-4-3-4---7---7-----4---|--------|-4----5-4-3-4---7---7-----4---|
G#|--------|------------------------------|--------|------------------------------|
 E|--------|----------------4---4---------|--------|----------------4---4---------|
 B|--------|------------------------------|--------|------------------------------|
F#|--------|------------------------------|--------|------------------------------|
C#|--------|------------------------------|--------|------------------------------|


C#|--------|
G#|--------|
 E|--------|
 B|--------|
F#|--------|
C#|--------|





Track 3: Vol. Swell Guitar 2

C#|--------|--------|--------|--------|--------|-----------15----|-15--------13----|
G#|--------|--------|--------|--------|--------|-----------------|-----------------|
 E|--------|--------|--------|--------|--------|-----------------|-----------------|
 B|--------|--------|--------|--------|--------|-----------------|-----------------|
F#|--------|--------|--------|--------|--------|-----------------|-----------------|
C#|--------|--------|--------|--------|--------|-----------------|-----------------|


C#|-13--------15----|-15--------------|-----------15----|-15--------13----|-13--------15----|
G#|-----------------|-----------------|-----------------|-----------------|-----------------|
 E|-----------------|-----------------|-----------------|-----------------|-----------------|
 B|-----------------|-----------------|-----------------|-----------------|-----------------|
F#|-----------------|-----------------|-----------------|-----------------|-----------------|
C#|-----------------|-----------------|-----------------|-----------------|-----------------|


C#|-15--------------|-----------15----|-15--------13----|-13--------15----|-15--------------|
G#|-----------------|-----------------|-----------------|-----------------|-----------------|
 E|-----------------|-----------------|-----------------|-----------------|-----------------|
 B|-----------------|-----------------|-----------------|-----------------|-----------------|
F#|-----------------|-----------------|-----------------|-----------------|-----------------|
C#|-----------------|-----------------|-----------------|-----------------|-----------------|


C#|--------|--------|--------|--------|-----------15----|-15--------13----|-13--------15----|
G#|--------|--------|--------|--------|-----------------|-----------------|-----------------|
 E|--------|--------|--------|--------|-----------------|-----------------|-----------------|
 B|--------|--------|--------|--------|-----------------|-----------------|-----------------|
F#|--------|--------|--------|--------|-----------------|-----------------|-----------------|
C#|--------|--------|--------|--------|-----------------|-----------------|-----------------|


C#|-15--------------|-----------15----|-15--------13----|-13--------15----|-15--------------|
G#|-----------------|-----------------|-----------------|-----------------|-----------------|
 E|-----------------|-----------------|-----------------|-----------------|-----------------|
 B|-----------------|-----------------|-----------------|-----------------|-----------------|
F#|-----------------|-----------------|-----------------|-----------------|-----------------|
C#|-----------------|-----------------|-----------------|-----------------|-----------------|


C#|--------|--------|--------|--------|--------|--------|--------|--------|--------|
G#|--------|--------|--------|--------|--------|--------|--------|--------|--------|
 E|--------|--------|--------|--------|--------|--------|--------|--------|--------|
 B|--------|--------|--------|--------|--------|--------|--------|--------|--------|
F#|--------|--------|--------|--------|--------|--------|--------|--------|--------|
C#|--------|--------|--------|--------|--------|--------|--------|--------|--------|


C#|--------|--------|--------|--------|--------|--------|--------|--------|--------|
G#|--------|--------|--------|--------|--------|--------|--------|--------|--------|
 E|--------|--------|--------|--------|--------|--------|--------|--------|--------|
 B|--------|--------|--------|--------|--------|--------|--------|--------|--------|
F#|--------|--------|--------|--------|--------|--------|--------|--------|--------|
C#|--------|--------|--------|--------|--------|--------|--------|--------|--------|


C#|--------|--------|--------|--------|--------|--------|--------|--------|--------|
G#|--------|--------|--------|--------|--------|--------|--------|--------|--------|
 E|--------|--------|--------|--------|--------|--------|--------|--------|--------|
 B|--------|--------|--------|--------|--------|--------|--------|--------|--------|
F#|--------|--------|--------|--------|--------|--------|--------|--------|--------|
C#|--------|--------|--------|--------|--------|--------|--------|--------|--------|


C#|--------|--------|--------|--------|--------|--------|--------|--------|--------|
G#|--------|--------|--------|--------|--------|--------|--------|--------|--------|
 E|--------|--------|--------|--------|--------|--------|--------|--------|--------|
 B|--------|--------|--------|--------|--------|--------|--------|--------|--------|
F#|--------|--------|--------|--------|--------|--------|--------|--------|--------|
C#|--------|--------|--------|--------|--------|--------|--------|--------|--------|


C#|-----------15----|-15--------13----|-13------------15----|-15----------|-----------15----|
G#|-----------------|-----------------|---------------------|-------------|-----------------|
 E|-----------------|-----------------|---------------------|-------------|-----------------|
 B|-----------------|-----------------|---------------------|-------------|-----------------|
F#|-----------------|-----------------|---------------------|-------------|-----------------|
C#|-----------------|-----------------|---------------------|-------------|-----------------|


C#|-15--------13----|-13------------15----|-15----------|-----------15----|-15--------13----|
G#|-----------------|---------------------|-------------|-----------------|-----------------|
 E|-----------------|---------------------|-------------|-----------------|-----------------|
 B|-----------------|---------------------|-------------|-----------------|-----------------|
F#|-----------------|---------------------|-------------|-----------------|-----------------|
C#|-----------------|---------------------|-------------|-----------------|-----------------|


C#|-13------------15----|-15----------|-----------15----|-15--------13----|-13------------15----|
G#|---------------------|-------------|-----------------|-----------------|---------------------|
 E|---------------------|-------------|-----------------|-----------------|---------------------|
 B|---------------------|-------------|-----------------|-----------------|---------------------|
F#|---------------------|-------------|-----------------|-----------------|---------------------|
C#|---------------------|-------------|-----------------|-----------------|---------------------|


C#|-15----------|-----------15----|-15--------13----|-13------------15----|-15----------|
G#|-------------|-----------------|-----------------|---------------------|-------------|
 E|-------------|-----------------|-----------------|---------------------|-------------|
 B|-------------|-----------------|-----------------|---------------------|-------------|
F#|-------------|-----------------|-----------------|---------------------|-------------|
C#|-------------|-----------------|-----------------|---------------------|-------------|


C#|-----------15----|-15--------13----|-13------------15----|-15----------|-----------15----|
G#|-----------------|-----------------|---------------------|-------------|-----------------|
 E|-----------------|-----------------|---------------------|-------------|-----------------|
 B|-----------------|-----------------|---------------------|-------------|-----------------|
F#|-----------------|-----------------|---------------------|-------------|-----------------|
C#|-----------------|-----------------|---------------------|-------------|-----------------|


C#|-15--------13----|-13------------15----|-15----------|-----------15----|-15--------13----|
G#|-----------------|---------------------|-------------|-----------------|-----------------|
 E|-----------------|---------------------|-------------|-----------------|-----------------|
 B|-----------------|---------------------|-------------|-----------------|-----------------|
F#|-----------------|---------------------|-------------|-----------------|-----------------|
C#|-----------------|---------------------|-------------|-----------------|-----------------|


C#|-13------------15----|-15----------|
G#|---------------------|-------------|
 E|---------------------|-------------|
 B|---------------------|-------------|
F#|---------------------|-------------|
C#|---------------------|-------------|





Track 4: Strings

C#|--------|--------|--------|--------|--------|--------|--------|--------|--------|
G#|--------|--------|--------|--------|--------|--------|--------|--------|--------|
 E|--------|--------|--------|--------|--------|--------|--------|--------|--------|
 B|--------|--------|--------|--------|--------|--------|--------|--------|--------|
F#|--------|--------|--------|--------|--------|--------|--------|--------|--------|
C#|--------|--------|--------|--------|--------|--------|--------|--------|--------|


C#|--------|--------|--------|--------|--------|--------|--------|--------|--------|
G#|--------|--------|--------|--------|--------|--------|--------|--------|--------|
 E|--------|--------|--------|--------|--------|--------|--------|--------|--------|
 B|--------|--------|--------|--------|--------|--------|--------|--------|--------|
F#|--------|--------|--------|--------|--------|--------|--------|--------|--------|
C#|--------|--------|--------|--------|--------|--------|--------|--------|--------|


C#|--------|--------|--------|--------|--------|--------|--------|--------|--------|
G#|--------|--------|--------|--------|--------|--------|--------|--------|--------|
 E|--------|--------|--------|--------|--------|--------|--------|--------|--------|
 B|--------|--------|--------|--------|--------|--------|--------|--------|--------|
F#|--------|--------|--------|--------|--------|--------|--------|--------|--------|
C#|--------|--------|--------|--------|--------|--------|--------|--------|--------|


C#|--------|--------|--------|--------|--------|--------|--------|--------|--------|
G#|--------|--------|--------|--------|--------|--------|--------|--------|--------|
 E|--------|--------|--------|--------|--------|--------|--------|--------|--------|
 B|--------|--------|--------|--------|--------|--------|--------|--------|--------|
F#|--------|--------|--------|--------|--------|--------|--------|--------|--------|
C#|--------|--------|--------|--------|--------|--------|--------|--------|--------|


C#|--------|--------|--------|--------|--------|------------------------------|-------------------------------------|
G#|--------|--------|--------|--------|--------|-5----7---5---2---7---8---7---|-8---10--8---7--8--8--10--8--10--12--|
 E|--------|--------|--------|--------|--------|-0----------------------------|-------------------------------------|
 B|--------|--------|--------|--------|--------|-0----------------------------|-------------------------------------|
F#|--------|--------|--------|--------|--------|-7----9---7---4---9---10--9---|-10--12--10--9--10-10-12--10-12--14--|
C#|--------|--------|--------|--------|--------|------------------------------|-------------------------------------|


C#|------------------------------|---------------------------------|------------------------------|
G#|-5----7---5---2---7---8---7---|-8---10--8---10--12--10--10--7---|-5----7---5---2---7---8---7---|
 E|-0----------------------------|---------------------------------|-0----------------------------|
 B|-0----------------------------|---------------------------------|-0----------------------------|
F#|-7----9---7---4---9---10--9---|-10--12--10--12--14--12--12--9---|-7----9---7---4---9---10--9---|
C#|------------------------------|---------------------------------|------------------------------|


C#|-------------------------------------|------------------------------|---------------------------------|
G#|-8---10--8---7--8--8--10--8--10--12--|-5----7---5---2---7---8---7---|-8---10--8---10--12--10--10--7---|
 E|-------------------------------------|-0----------------------------|---------------------------------|
 B|-------------------------------------|-0----------------------------|---------------------------------|
F#|-10--12--10--9--10-10-12--10-12--14--|-7----9---7---4---9---10--9---|-10--12--10--12--14--12--12--9---|
C#|-------------------------------------|------------------------------|---------------------------------|


C#|------------15---|-15---------13---|-13---------15---|-15----------|------------15---|
G#|-12---------7----|-7----------7----|-7----------7----|-7-----12----|-12---------7----|
 E|-12--------------|-----------------|-----------------|-------12----|-12--------------|
 B|-12--------------|-----------------|-----------------|-------12----|-12--------------|
F#|-----------------|-----------------|-----------------|-------------|-----------------|
C#|-----------------|-----------------|-----------------|-------------|-----------------|


C#|-15---------13---|-13---------15---|-15----------|--------|--------|--------|--------|
G#|-7----------7----|-7----------7----|-7-----12----|--------|--------|--------|--------|
 E|-----------------|-----------------|-------12----|--------|--------|--------|--------|
 B|-----------------|-----------------|-------12----|--------|--------|--------|--------|
F#|-----------------|-----------------|-------------|--------|--------|--------|--------|
C#|-----------------|-----------------|-------------|--------|--------|--------|--------|


C#|--------|--------|--------|--------|--------|--------|--------|--------|--------|
G#|--------|--------|--------|--------|--------|--------|--------|--------|--------|
 E|--------|--------|--------|--------|--------|--------|--------|--------|--------|
 B|--------|--------|--------|--------|--------|--------|--------|--------|--------|
F#|--------|--------|--------|--------|--------|--------|--------|--------|--------|
C#|--------|--------|--------|--------|--------|--------|--------|--------|--------|


C#|--------|--------|--------|--------|--------|--------|--------|--------|--------|
G#|--------|--------|--------|--------|--------|--------|--------|--------|--------|
 E|--------|--------|--------|--------|--------|--------|--------|--------|--------|
 B|--------|--------|--------|--------|--------|--------|--------|--------|--------|
F#|--------|--------|--------|--------|--------|--------|--------|--------|--------|
C#|--------|--------|--------|--------|--------|--------|--------|--------|--------|


C#|--------|--------|--------|--------|--------|--------|--------|--------|--------|
G#|--------|--------|--------|--------|--------|--------|--------|--------|--------|
 E|--------|--------|--------|--------|--------|--------|--------|--------|--------|
 B|--------|--------|--------|--------|--------|--------|--------|--------|--------|
F#|--------|--------|--------|--------|--------|--------|--------|--------|--------|
C#|--------|--------|--------|--------|--------|--------|--------|--------|--------|


C#|--------|--------|--------|--------|--------|--------|--------|--------|--------|
G#|--------|--------|--------|--------|--------|--------|--------|--------|--------|
 E|--------|--------|--------|--------|--------|--------|--------|--------|--------|
 B|--------|--------|--------|--------|--------|--------|--------|--------|--------|
F#|--------|--------|--------|--------|--------|--------|--------|--------|--------|
C#|--------|--------|--------|--------|--------|--------|--------|--------|--------|





Track 5: Rhy Guitar 1

C#|--------|--------|--------|--------|--------|--------|--------|--------|--------|
G#|--------|--------|--------|--------|--------|--------|--------|--------|--------|
 E|--------|--------|--------|--------|--------|--------|--------|--------|--------|
 B|--------|--------|--------|--------|--------|--------|--------|--------|--------|
F#|--------|--------|--------|--------|--------|--------|--------|--------|--------|
C#|--------|--------|--------|--------|--------|--------|--------|--------|--------|


C#|--------|--------|--------|--------|--------|--------|--------|--------|--------|
G#|--------|--------|--------|--------|--------|--------|--------|--------|--------|
 E|--------|--------|--------|--------|--------|--------|--------|--------|--------|
 B|--------|--------|--------|--------|--------|--------|--------|--------|--------|
F#|--------|--------|--------|--------|--------|--------|--------|--------|--------|
C#|--------|--------|--------|--------|--------|--------|--------|--------|--------|


C#|--------|--------|--------|--------|--------|--------|--------|--------|--------|
G#|--------|--------|--------|--------|--------|--------|--------|--------|--------|
 E|--------|--------|--------|--------|--------|--------|--------|--------|--------|
 B|--------|--------|--------|--------|--------|--------|--------|--------|--------|
F#|--------|--------|--------|--------|--------|--------|--------|--------|--------|
C#|--------|--------|--------|--------|--------|--------|--------|--------|--------|


C#|--------|--------|--------|--------|--------|--------|--------|--------|--------|
G#|--------|--------|--------|--------|--------|--------|--------|--------|--------|
 E|--------|--------|--------|--------|--------|--------|--------|--------|--------|
 B|--------|--------|--------|--------|--------|--------|--------|--------|--------|
F#|--------|--------|--------|--------|--------|--------|--------|--------|--------|
C#|--------|--------|--------|--------|--------|--------|--------|--------|--------|


C#|--------|--------|--------|--------|--------|--------|--------|--------|--------|
G#|--------|--------|--------|--------|--------|--------|--------|--------|--------|
 E|--------|--------|--------|--------|--------|--------|--------|--------|--------|
 B|--------|--------|--------|--------|--------|--------|--------|--------|--------|
F#|--------|--------|--------|--------|--------|--------|--------|--------|--------|
C#|--------|--------|--------|--------|--------|--------|--------|--------|--------|


C#|--------|--------|--------|--------|-----------15----|-15--------13----|-13--------15----|
G#|--------|--------|--------|--------|-----------------|-----------------|-----------------|
 E|--------|--------|--------|--------|-----------------|-----------------|-----------------|
 B|--------|--------|--------|--------|-----------------|-----------------|-----------------|
F#|--------|--------|--------|--------|-----------------|-----------------|-----------------|
C#|--------|--------|--------|--------|-----------------|-----------------|-----------------|


C#|-15--------------|-----------15----|-15--------13----|-13--------15----|-15--------------|
G#|-----------------|-----------------|-----------------|-----------------|-----------------|
 E|-----------------|-----------------|-----------------|-----------------|-----------------|
 B|-----------------|-----------------|-----------------|-----------------|-----------------|
F#|-----------------|-----------------|-----------------|-----------------|-----------------|
C#|-----------------|-----------------|-----------------|-----------------|-----------------|


C#|--------|--------|--------|--------|--------|--------|--------|--------|--------|
G#|--------|--------|--------|--------|--------|--------|--------|--------|--------|
 E|--------|--------|--------|--------|--------|--------|--------|--------|--------|
 B|--------|--------|--------|--------|--------|--------|--------|--------|--------|
F#|--------|--------|--------|--------|--------|--------|--------|--------|--------|
C#|--------|--------|--------|--------|--------|--------|--------|--------|--------|


C#|--------|--------|--------|--------|--------|--------|--------|--------|--------|
G#|--------|--------|--------|--------|--------|--------|--------|--------|--------|
 E|--------|--------|--------|--------|--------|--------|--------|--------|--------|
 B|--------|--------|--------|--------|--------|--------|--------|--------|--------|
F#|--------|--------|--------|--------|--------|--------|--------|--------|--------|
C#|--------|--------|--------|--------|--------|--------|--------|--------|--------|


C#|--------|--------|--------|--------|--------|--------|--------|--------|--------|
G#|--------|--------|--------|--------|--------|--------|--------|--------|--------|
 E|--------|--------|--------|--------|--------|--------|--------|--------|--------|
 B|--------|--------|--------|--------|--------|--------|--------|--------|--------|
F#|--------|--------|--------|--------|--------|--------|--------|--------|--------|
C#|--------|--------|--------|--------|--------|--------|--------|--------|--------|


C#|--------|--------|--------|--------|--------|--------|--------|--------|--------|
G#|--------|--------|--------|--------|--------|--------|--------|--------|--------|
 E|--------|--------|--------|--------|--------|--------|--------|--------|--------|
 B|--------|--------|--------|--------|--------|--------|--------|--------|--------|
F#|--------|--------|--------|--------|--------|--------|--------|--------|--------|
C#|--------|--------|--------|--------|--------|--------|--------|--------|--------|


C#|--------|--------|--------|--------|
G#|--------|--------|--------|--------|
 E|--------|--------|--------|--------|
 B|--------|--------|--------|--------|
F#|--------|--------|--------|--------|
C#|--------|--------|--------|--------|





Track 6: Rhy Guitar 1

C#|--------|--------|--------|--------|--------|--------|--------|--------|--------|
G#|--------|--------|--------|--------|--------|--------|--------|--------|--------|
 E|--------|--------|--------|--------|--------|--------|--------|--------|--------|
 B|--------|--------|--------|--------|--------|--------|--------|--------|--------|
F#|--------|--------|--------|--------|--------|--------|--------|--------|--------|
C#|--------|--------|--------|--------|--------|--------|--------|--------|--------|


C#|--------|--------|--------|--------|--------|--------|--------|--------|--------|
G#|--------|--------|--------|--------|--------|--------|--------|--------|--------|
 E|--------|--------|--------|--------|--------|--------|--------|--------|--------|
 B|--------|--------|--------|--------|--------|--------|--------|--------|--------|
F#|--------|--------|--------|--------|--------|--------|--------|--------|--------|
C#|--------|--------|--------|--------|--------|--------|--------|--------|--------|


C#|--------|--------|--------|--------|--------|--------|--------|--------|--------|
G#|--------|--------|--------|--------|--------|--------|--------|--------|--------|
 E|--------|--------|--------|--------|--------|--------|--------|--------|--------|
 B|--------|--------|--------|--------|--------|--------|--------|--------|--------|
F#|--------|--------|--------|--------|--------|--------|--------|--------|--------|
C#|--------|--------|--------|--------|--------|--------|--------|--------|--------|


C#|--------|--------|--------|--------|--------|--------|--------|--------|--------|
G#|--------|--------|--------|--------|--------|--------|--------|--------|--------|
 E|--------|--------|--------|--------|--------|--------|--------|--------|--------|
 B|--------|--------|--------|--------|--------|--------|--------|--------|--------|
F#|--------|--------|--------|--------|--------|--------|--------|--------|--------|
C#|--------|--------|--------|--------|--------|--------|--------|--------|--------|


C#|--------|--------|--------|--------|--------|--------|--------|--------|--------|
G#|--------|--------|--------|--------|--------|--------|--------|--------|--------|
 E|--------|--------|--------|--------|--------|--------|--------|--------|--------|
 B|--------|--------|--------|--------|--------|--------|--------|--------|--------|
F#|--------|--------|--------|--------|--------|--------|--------|--------|--------|
C#|--------|--------|--------|--------|--------|--------|--------|--------|--------|


C#|--------|--------|--------|--------|--------|--------|--------|--------|--------|
G#|--------|--------|--------|--------|--------|--------|--------|--------|--------|
 E|--------|--------|--------|--------|--------|--------|--------|--------|--------|
 B|--------|--------|--------|--------|--------|--------|--------|--------|--------|
F#|--------|--------|--------|--------|--------|--------|--------|--------|--------|
C#|--------|--------|--------|--------|--------|--------|--------|--------|--------|


C#|--------|--------|--------|--------|--------|--------|--------|--------|--------|
G#|--------|--------|--------|--------|--------|--------|--------|--------|--------|
 E|--------|--------|--------|--------|--------|--------|--------|--------|--------|
 B|--------|--------|--------|--------|--------|--------|--------|--------|--------|
F#|--------|--------|--------|--------|--------|--------|--------|--------|--------|
C#|--------|--------|--------|--------|--------|--------|--------|--------|--------|


C#|--------|--------|--------|--------|--------|--------|--------|--------|--------|
G#|--------|--------|--------|--------|--------|--------|--------|--------|--------|
 E|--------|--------|--------|--------|--------|--------|--------|--------|--------|
 B|--------|--------|--------|--------|--------|--------|--------|--------|--------|
F#|--------|--------|--------|--------|--------|--------|--------|--------|--------|
C#|--------|--------|--------|--------|--------|--------|--------|--------|--------|


C#|--------|--------|--------|--------|--------|--------|--------|--------|--------|
G#|--------|--------|--------|--------|--------|--------|--------|--------|--------|
 E|--------|--------|--------|--------|--------|--------|--------|--------|--------|
 B|--------|--------|--------|--------|--------|--------|--------|--------|--------|
F#|--------|--------|--------|--------|--------|--------|--------|--------|--------|
C#|--------|--------|--------|--------|--------|--------|--------|--------|--------|


C#|--------|--------|--------|--------|--------|--------|--------|--------|--------|
G#|--------|--------|--------|--------|--------|--------|--------|--------|--------|
 E|--------|--------|--------|--------|--------|--------|--------|--------|--------|
 B|--------|--------|--------|--------|--------|--------|--------|--------|--------|
F#|--------|--------|--------|--------|--------|--------|--------|--------|--------|
C#|--------|--------|--------|--------|--------|--------|--------|--------|--------|


C#|--------|--------|--------|--------|--------|--------|--------|
G#|--------|--------|--------|--------|--------|--------|--------|
 E|--------|--------|--------|--------|--------|--------|--------|
 B|--------|--------|--------|--------|--------|--------|--------|
F#|--------|--------|--------|--------|--------|--------|--------|
C#|--------|--------|--------|--------|--------|--------|--------|





Track 7: Rhy Guitar 1

C#|--------|--------|--------|--------|--------|--------|--------|--------|--------|
G#|--------|--------|--------|--------|--------|--------|--------|--------|--------|
 E|--------|--------|--------|--------|--------|--------|--------|--------|--------|
 B|--------|--------|--------|--------|--------|--------|--------|--------|--------|
F#|--------|--------|--------|--------|--------|--------|--------|--------|--------|
C#|--------|--------|--------|--------|--------|--------|--------|--------|--------|


C#|--------|--------|--------|--------|--------|--------|--------|--------|--------|
G#|--------|--------|--------|--------|--------|--------|--------|--------|--------|
 E|--------|--------|--------|--------|--------|--------|--------|--------|--------|
 B|--------|--------|--------|--------|--------|--------|--------|--------|--------|
F#|--------|--------|--------|--------|--------|--------|--------|--------|--------|
C#|--------|--------|--------|--------|--------|--------|--------|--------|--------|


C#|--------|--------|--------|--------|--------|--------|--------|--------|--------|
G#|--------|--------|--------|--------|--------|--------|--------|--------|--------|
 E|--------|--------|--------|--------|--------|--------|--------|--------|--------|
 B|--------|--------|--------|--------|--------|--------|--------|--------|--------|
F#|--------|--------|--------|--------|--------|--------|--------|--------|--------|
C#|--------|--------|--------|--------|--------|--------|--------|--------|--------|


C#|--------|--------|--------|--------|--------|--------|--------|--------|--------|
G#|--------|--------|--------|--------|--------|--------|--------|--------|--------|
 E|--------|--------|--------|--------|--------|--------|--------|--------|--------|
 B|--------|--------|--------|--------|--------|--------|--------|--------|--------|
F#|--------|--------|--------|--------|--------|--------|--------|--------|--------|
C#|--------|--------|--------|--------|--------|--------|--------|--------|--------|


C#|--------|--------|--------|--------|--------|--------|--------|--------|--------|
G#|--------|--------|--------|--------|--------|--------|--------|--------|--------|
 E|--------|--------|--------|--------|--------|--------|--------|--------|--------|
 B|--------|--------|--------|--------|--------|--------|--------|--------|--------|
F#|--------|--------|--------|--------|--------|--------|--------|--------|--------|
C#|--------|--------|--------|--------|--------|--------|--------|--------|--------|


C#|--------|--------|--------|--------|--------|--------|--------|--------|--------|
G#|--------|--------|--------|--------|--------|--------|--------|--------|--------|
 E|--------|--------|--------|--------|--------|--------|--------|--------|--------|
 B|--------|--------|--------|--------|--------|--------|--------|--------|--------|
F#|--------|--------|--------|--------|--------|--------|--------|--------|--------|
C#|--------|--------|--------|--------|--------|--------|--------|--------|--------|


C#|--------|--------|--------|--------|--------|--------|--------|--------|--------|
G#|--------|--------|--------|--------|--------|--------|--------|--------|--------|
 E|--------|--------|--------|--------|--------|--------|--------|--------|--------|
 B|--------|--------|--------|--------|--------|--------|--------|--------|--------|
F#|--------|--------|--------|--------|--------|--------|--------|--------|--------|
C#|--------|--------|--------|--------|--------|--------|--------|--------|--------|


C#|--------|--------|-------------|--------|--------|--------|--------|--------|--------|
G#|--------|--------|-------------|--------|--------|--------|--------|--------|--------|
 E|--------|--------|-------------|--------|--------|--------|--------|--------|--------|
 B|--------|--------|-------------|--------|--------|--------|--------|--------|--------|
F#|--------|--------|-------------|--------|--------|--------|--------|--------|--------|
C#|--------|--------|-------------|--------|--------|--------|--------|--------|--------|


C#|--------|--------|--------|--------|--------|--------|--------|--------|--------|
G#|--------|--------|--------|--------|--------|--------|--------|--------|--------|
 E|--------|--------|--------|--------|--------|--------|--------|--------|--------|
 B|--------|--------|--------|--------|--------|--------|--------|--------|--------|
F#|--------|--------|--------|--------|--------|--------|--------|--------|--------|
C#|--------|--------|--------|--------|--------|--------|--------|--------|--------|


C#|--------|--------|--------|--------|--------|--------|--------|--------|--------|
G#|--------|--------|--------|--------|--------|--------|--------|--------|--------|
 E|--------|--------|--------|--------|--------|--------|--------|--------|--------|
 B|--------|--------|--------|--------|--------|--------|--------|--------|--------|
F#|--------|--------|--------|--------|--------|--------|--------|--------|--------|
C#|--------|--------|--------|--------|--------|--------|--------|--------|--------|


C#|--------|--------|--------|--------|--------|--------|--------|
G#|--------|--------|--------|--------|--------|--------|--------|
 E|--------|--------|--------|--------|--------|--------|--------|
 B|--------|--------|--------|--------|--------|--------|--------|
F#|--------|--------|--------|--------|--------|--------|--------|
C#|--------|--------|--------|--------|--------|--------|--------|





Track 8: Bass Guitar

 E|--------|--------|--------|--------|--------|------------------------------------------|
 B|--------|--------|--------|--------|--------|------------------------------------------|
F#|--------|--------|--------|--------|--------|------------------------------------------|
C#|--------|--------|--------|--------|--------|-0--0-----0--0-----0--0-----0--0----------|


 E|------------------------------------------|------------------------------------------|
 B|------------------------------------------|------------------------------------------|
F#|------------------------------------------|------------------------------------------|
C#|-0--0-----0--0-----0--0-----0--0----------|-0--0-----0--0-----0--0-----0--0----------|


 E|------------------------------------------|------------------------------------------|
 B|------------------------------------------|------------------------------------------|
F#|------------------------------------------|------------------------------------------|
C#|-0--0-----0--0-----0--0-----0--0----------|-0--0-----0--0-----0--0-----0--0----------|


 E|------------------------------------------|------------------------------------------|
 B|------------------------------------------|------------------------------------------|
F#|------------------------------------------|------------------------------------------|
C#|-0--0-----0--0-----0--0-----0--0----------|-0--0-----0--0-----0--0-----0--0----------|


 E|------------------------------------------|------------------------------------------|
 B|------------------------------------------|------------------------------------------|
F#|------------------------------------------|------------------------------------------|
C#|-0--0-----0--0-----0--0-----0--0----------|-0--0-----0--0-----0--0-----0--0----------|


 E|------------------------------------------|------------------------------------------|
 B|------------------------------------------|------------------------------------------|
F#|------------------------------------------|------------------------------------------|
C#|-0--0-----0--0-----0--0-----0--0----------|-0--0-----0--0-----0--0-----0--0----------|


 E|------------------------------------------|------------------------------------------|
 B|------------------------------------------|------------------------------------------|
F#|------------------------------------------|------------------------------------------|
C#|-0--0-----0--0-----0--0-----0--0----------|-0--0--0--0--0-----0--0--0--0--0----------|


 E|------------------------------------------|------------------------------------------|
 B|------------------------------------------|------------------------------------------|
F#|------------------------------------------|------------------------------------------|
C#|-0--0--0--0--0-----0--0--0--0--0----------|-0--0--0--0--0-----0--0--0--0--0----------|


 E|------------------------------------------|------------------------------------------|
 B|------------------------------------------|------------------------------------------|
F#|------------------------------------------|------------------------------------------|
C#|-0--0--0--0--0-----0--0--0--0--0----------|-0--0-----0--0-----0--0-----0--0----------|


 E|------------------------------------------|------------------------------------------|
 B|------------------------------------------|------------------------------------------|
F#|------------------------------------------|------------------------------------------|
C#|-0--0-----0--0-----0--0-----0--0----------|-0--0-----0--0-----0--0-----0--0----------|


 E|------------------------------------------|------------------------------------------|
 B|------------------------------------------|------------------------------------------|
F#|------------------------------------------|------------------------------------------|
C#|-0--0-----0--0-----0--0-----0--0----------|-0--0-----0--0-----0--0-----0--0----------|


 E|------------------------------------------|------------------------------------------|
 B|------------------------------------------|------------------------------------------|
F#|------------------------------------------|------------------------------------------|
C#|-0--0-----0--0-----0--0-----0--0----------|-0--0-----0--0-----0--0-----0--0----------|


 E|------------------------------------------|------------------------------------------|
 B|------------------------------------------|------------------------------------------|
F#|------------------------------------------|------------------------------------------|
C#|-0--0-----0--0-----0--0-----0--0----------|-0--0--0--0--0-----0--0--0--0--0----------|


 E|------------------------------------------|------------------------------------------|
 B|------------------------------------------|------------------------------------------|
F#|------------------------------------------|------------------------------------------|
C#|-0--0--0--0--0-----0--0--0--0--0----------|-0--0--0--0--0-----0--0--0--0--0----------|


 E|------------------------------------------|------------------------------------------|
 B|------------------------------------------|------------------------------------------|
F#|------------------------------------------|------------------------------------------|
C#|-0--0--0--0--0-----0--0--0--0--0----------|-0--0-----0--0-----0--0-----0--0----------|


 E|------------------------------------------|------------------------------------------|
 B|------------------------------------------|------------------------------------------|
F#|------------------------------------------|------------------------------------------|
C#|-0--0-----0--0-----0--0-----0--0----------|-0--0-----0--0-----0--0-----0--0----------|


 E|------------------------------------------|------------------------------------------|
 B|------------------------------------------|------------------------------------------|
F#|------------------------------------------|------------------------------------------|
C#|-0--0-----0--0-----0--0-----0--0----------|-0--0-----0--0-----0--0-----0--0----------|


 E|------------------------------------------|------------------------------------------|
 B|------------------------------------------|------------------------------------------|
F#|------------------------------------------|------------------------------------------|
C#|-0--0-----0--0-----0--0-----0--0----------|-0--0-----0--0-----0--0-----0--0----------|


 E|------------------------------------------|------------------------------------------|
 B|------------------------------------------|------------------------------------------|
F#|------------------------------------------|------------------------------------------|
C#|-0--0-----0--0-----0--0-----0--0----------|-0--0-----0--0-----0--0-----0--0----------|


 E|------------------------------------------|------------------------------------------|
 B|------------------------------------------|------------------------------------------|
F#|------------------------------------------|------------------------------------------|
C#|-0--0-----0--0-----0--0-----0--0----------|-0--0-----0--0-----0--0-----0--0----------|


 E|------------------------------------------|------------------------------------------|
 B|------------------------------------------|------------------------------------------|
F#|------------------------------------------|------------------------------------------|
C#|-0--0-----0--0-----0--0-----0--0----------|-0--0-----0--0-----0--0-----0--0----------|


 E|------------------------------------------|------------------------------------------|
 B|------------------------------------------|------------------------------------------|
F#|------------------------------------------|------------------------------------------|
C#|-0--0-----0--0-----0--0-----0--0----------|-0--0-----0--0-----0--0-----0--0----------|


 E|------------------------------------------|------------------------------------------|
 B|------------------------------------------|------------------------------------------|
F#|------------------------------------------|------------------------------------------|
C#|-0--0-----0--0-----0--0-----0--0----------|-0--0-----0--0-----0--0-----0--0----------|


 E|------------------------------------------|------------------------------------------|
 B|------------------------------------------|------------------------------------------|
F#|------------------------------------------|------------------------------------------|
C#|-0--0-----0--0-----0--0-----0--0----------|-0--0-----0--0-----0--0-----0--0----------|


 E|------------------------------------------|------------------------------------------|
 B|------------------------------------------|------------------------------------------|
F#|------------------------------------------|------------------------------------------|
C#|-0--0-----0--0-----0--0-----0--0----------|-0--0-----0--0-----0--0-----0--0----------|


 E|------------------------------------------|------------------------------------------|
 B|------------------------------------------|------------------------------------------|
F#|------------------------------------------|------------------------------------------|
C#|-0--0-----0--0-----0--0-----0--0----------|-0--0-----0--0-----0--0-----0--0----------|


 E|------------------------------------------|------------------------------------------|
 B|------------------------------------------|------------------------------------------|
F#|------------------------------------------|------------------------------------------|
C#|-0--0-----0--0-----0--0-----0--0----------|-0--0-----0--0-----0--0-----0--0----------|


 E|------------------------------------------|------------------------------------------|
 B|------------------------------------------|------------------------------------------|
F#|------------------------------------------|------------------------------------------|
C#|-0--0-----0--0-----0--0-----0--0----------|-0--0-----0--0-----0--0-----0--0----------|


 E|------------------------------------------|------------------------------------------|
 B|------------------------------------------|------------------------------------------|
F#|------------------------------------------|------------------------------------------|
C#|-0--0-----0--0-----0--0-----0--0----------|-0--0-----0--0-----0--0-----0--0----------|


 E|------------------------------------------|------------------------------------------|
 B|------------------------------------------|------------------------------------------|
F#|------------------------------------------|------------------------------------------|
C#|-0--0-----0--0-----0--0-----0--0----------|-0--0-----0--0-----0--0-----0--0----------|


 E|------------------------------------------|------------------------------------------|
 B|------------------------------------------|------------------------------------------|
F#|------------------------------------------|------------------------------------------|
C#|-0--0-----0--0-----0--0-----0--0----------|-0--0-----0--0-----0--0-----0--0----------|


 E|------------------------------------------|------------------------------------------|
 B|------------------------------------------|------------------------------------------|
F#|------------------------------------------|------------------------------------------|
C#|-0--0-----0--0-----0--0-----0--0----------|-0--0-----0--0-----0--0-----0--0----------|


 E|------------------------------------------|------------------------------------------|
 B|------------------------------------------|------------------------------------------|
F#|------------------------------------------|------------------------------------------|
C#|-0--0-----0--0-----0--0-----0--0----------|-0--0-----0--0-----0--0-----0--0----------|


 E|------------------------------------------|------------------------------------------|
 B|------------------------------------------|------------------------------------------|
F#|------------------------------------------|------------------------------------------|
C#|-0--0-----0--0-----0--0-----0--0----------|-0--0-----0--0-----0--0-----0--0----------|


 E|------------------------------------------|------------------------------------------|
 B|------------------------------------------|------------------------------------------|
F#|------------------------------------------|------------------------------------------|
C#|-0--0-----0--0-----0--0-----0--0----------|-0--0-----0--0-----0--0-----0--0----------|


 E|------------------------------------------|------------------------------------------|
 B|------------------------------------------|------------------------------------------|
F#|------------------------------------------|------------------------------------------|
C#|-0--0-----0--0-----0--0-----0--0----------|-0--0-----0--0-----0--0-----0--0----------|


 E|------------------------------------------|------------------------------------------|
 B|------------------------------------------|------------------------------------------|
F#|------------------------------------------|------------------------------------------|
C#|-0--0-----0--0-----0--0-----0--0----------|-0--0-----0--0-----0--0-----0--0----------|


 E|------------------------------------------|------------------------------------------|
 B|------------------------------------------|------------------------------------------|
F#|------------------------------------------|------------------------------------------|
C#|-0--0-----0--0-----0--0-----0--0----------|-0--0-----0--0-----0--0-----0--0----------|


 E|------------------------------------------|------------------------------------------|
 B|------------------------------------------|------------------------------------------|
F#|------------------------------------------|------------------------------------------|
C#|-0--0-----0--0-----0--0-----0--0----------|-0--0-----0--0-----0--0-----0--0----------|


 E|------------------------------------------|------------------------------------------|
 B|------------------------------------------|------------------------------------------|
F#|------------------------------------------|------------------------------------------|
C#|-0--0-----0--0-----0--0-----0--0----------|-0--0-----0--0-----0--0-----0--0----------|


 E|------------------------------------------|------------------------------------------|
 B|------------------------------------------|------------------------------------------|
F#|------------------------------------------|------------------------------------------|
C#|-0--0-----0--0-----0--0-----0--0----------|-0--0-----0--0-----0--0-----0--0----------|


 E|------------------------------------------|------------------------------------------|
 B|------------------------------------------|------------------------------------------|
F#|------------------------------------------|------------------------------------------|
C#|-0--0-----0--0-----0--0-----0--0----------|-0--0-----0--0-----0--0-----0--0----------|


 E|------------------------------------------|------------------------------------------|
 B|------------------------------------------|------------------------------------------|
F#|------------------------------------------|------------------------------------------|
C#|-0--0-----0--0-----0--0-----0--0----------|-0--0-----0--0-----0--0-----0--0----------|


 E|------------------------------------------|------------------------------------------|
 B|------------------------------------------|------------------------------------------|
F#|------------------------------------------|------------------------------------------|
C#|-0--0-----0--0-----0--0-----0--0----------|-0--0-----0--0-----0--0-----0--0----------|


 E|------------------------------------------|------------------------------------------|
 B|------------------------------------------|------------------------------------------|
F#|------------------------------------------|------------------------------------------|
C#|-0--0-----0--0-----0--0-----0--0----------|-0--0-----0--0-----0--0-----0--0----------|


 E|------------------------------------------|------------------------------------------|
 B|------------------------------------------|------------------------------------------|
F#|------------------------------------------|------------------------------------------|
C#|-0--0-----0--0-----0--0-----0--0----------|-0--0-----0--0-----0--0-----0--0----------|


 E|------------------------------------------|
 B|------------------------------------------|
F#|------------------------------------------|
C#|-0--0-----0--0-----0--0-----0--0----------|





Track 9: Chorus Vocals

G|--------|--------|--------|--------|--------|--------|--------|--------|--------|
D|--------|--------|--------|--------|--------|--------|--------|--------|--------|
A|--------|--------|--------|--------|--------|--------|--------|--------|--------|
E|--------|--------|--------|--------|--------|--------|--------|--------|--------|


G|--------|--------|--------|--------|--------|--------|--------|--------|--------|
D|--------|--------|--------|--------|--------|--------|--------|--------|--------|
A|--------|--------|--------|--------|--------|--------|--------|--------|--------|
E|--------|--------|--------|--------|--------|--------|--------|--------|--------|


G|--------|--------|--------|--------|--------|--------|--------|--------|--------|
D|--------|--------|--------|--------|--------|--------|--------|--------|--------|
A|--------|--------|--------|--------|--------|--------|--------|--------|--------|
E|--------|--------|--------|--------|--------|--------|--------|--------|--------|


G|--------|--------|--------|--------|--------|--------|-----------------16-|-16-----14---|
D|--------|--------|--------|--------|--------|--------|--------------------|-------------|
A|--------|--------|--------|--------|--------|--------|--------------------|-------------|
E|--------|--------|--------|--------|--------|--------|--------------------|-------------|


G|-----------------16-|-16-----14---|-----------------16-|-16-----14---|-----------------4--|
D|-----------------6--|-6------4----|--------------------|-------------|--------------------|
A|--------------------|-------------|--------------------|-------------|--------------------|
E|--------------------|-------------|--------------------|-------------|--------------------|


G|-4-----16--16----|--------|--------|--------|--------|--------|--------|--------|
D|-----------------|--------|--------|--------|--------|--------|--------|--------|
A|-----------------|--------|--------|--------|--------|--------|--------|--------|
E|-----------------|--------|--------|--------|--------|--------|--------|--------|


G|--------|--------|--------|--------|--------|--------|--------|--------|--------|
D|--------|--------|--------|--------|--------|--------|--------|--------|--------|
A|--------|--------|--------|--------|--------|--------|--------|--------|--------|
E|--------|--------|--------|--------|--------|--------|--------|--------|--------|


G|-----------------16-|-16-----14---|-----------------16-|-16-----14---|-----------------16-|
D|--------------------|-------------|-----------------6--|-6------4----|--------------------|
A|--------------------|-------------|--------------------|-------------|--------------------|
E|--------------------|-------------|--------------------|-------------|--------------------|


G|-16-----14---|-----------------16-|-16-----14---|-----------------16-|-16-----14---|
D|-------------|-----------------6--|-6------4----|--------------------|-------------|
A|-------------|--------------------|-------------|--------------------|-------------|
E|-------------|--------------------|-------------|--------------------|-------------|


G|-----------------16-|-16-----14---|-----------------16-|-16-----14---|-----------------4--|
D|-----------------6--|-6------4----|--------------------|-------------|--------------------|
A|--------------------|-------------|--------------------|-------------|--------------------|
E|--------------------|-------------|--------------------|-------------|--------------------|


G|-4-----16--16----|-----------------16-|-16-----14---|-----------------16-|-16-----14---|
D|-----------------|--------------------|-------------|-----------------6--|-6------4----|
A|-----------------|--------------------|-------------|--------------------|-------------|
E|-----------------|--------------------|-------------|--------------------|-------------|


G|-----------------16-|-16-----14---|-----------------4--|-4-----16--16----|-----------------16-|
D|--------------------|-------------|--------------------|-----------------|--------------------|
A|--------------------|-------------|--------------------|-----------------|--------------------|
E|--------------------|-------------|--------------------|-----------------|--------------------|


G|-16-----14---|-----------------16-|-16-----14---|-----------------16-|-16-----14---|
D|-------------|-----------------6--|-6------4----|--------------------|-------------|
A|-------------|--------------------|-------------|--------------------|-------------|
E|-------------|--------------------|-------------|--------------------|-------------|


G|-----------------4--|-4-----16--16----|-----------------16-|-16-----14---|-----------------16-|
D|--------------------|-----------------|--------------------|-------------|-----------------6--|
A|--------------------|-----------------|--------------------|-------------|--------------------|
E|--------------------|-----------------|--------------------|-------------|--------------------|


G|-16-----14---|-----------------16-|-16-----14---|-----------------4--|-4-----16--16----|
D|-6------4----|--------------------|-------------|--------------------|-----------------|
A|-------------|--------------------|-------------|--------------------|-----------------|
E|-------------|--------------------|-------------|--------------------|-----------------|