Menu:

 

Search:

 

warrant - uncle toms cabin:

 



Title: Uncle Tom's Cabin
Artist: 
Album: Cherry Pie
Author: Jani Lane


Track 1: Slide Intro

D#|-0-------------------------------|---------------------------------|------------------------------|
A#|-0-------------------------------|---------------------------------|------------------------------|
F#|-9-----------7-------------------|---------7-----------------------|------------------------------|
C#|-----12--9-----------------------|-----7---------------5-----------|-5-------7---5----------------|
G#|-----------------10--7-------7---|-10----------10--7-------7---7---|-----7-----------7--------2---|
D#|-------------------------8-------|---------------------------------|----------------------0-------|


D#|-------------------2---------------|-0----0-----------------0---0---|-----0---0----0---0--------|
A#|-------------------2---------------|-0----0-----------------0---0---|-----3--------0---3----3---|
F#|-------------------2---------------|------3--2--0-----------2---3---|-----4--------2---4----4---|
C#|-0---2---5--2--0-------0---2-------|----------------0---4-----------|-----------------------4---|
G#|-----------------------------------|--------------------------------|---------------------------|
D#|-----------------------------------|--------------------------------|---------------------------|


D#|------0--0--0---0-----|------------------------------|---------------------------|
A#|-3--------------0-----|------------------------------|---------------------------|
F#|-4----4--2--0---0-----|----------------------2-------|---------------------------|
C#|-4----4--2--0---2-----|------------------2-------6---|-5----5---2----------------|
G#|----------------2-----|----------2---4---------------|--------------3---0--------|
D#|----------------0-----|------3-----------------------|----------------------3----|


D#|------------------------------|---------------------------|-------------------------------------|
A#|------------------------------|---------------------------|-------------------------------------|
F#|---------------------2--------|---------------------------|---------------------------2---------|
C#|-------------0---2------------|------5-------7---5--------|---------0----------0--2------5--7---|
G#|---------2---------------7----|----------7-----------7----|-----2-----------2-------------------|
D#|-----3------------------------|---------------------------|-3-----------3-----------------------|


D#|---------------------------|--------------------------------------|-----------------------------------|
A#|---------------------------|--------------------------------------|-----------------------------------|
F#|---------------------------|------------------------------0---2---|-4---------------------------------|
C#|-7----5-------7---5--------|----------------------0---2-----------|------7--5--------7--5-------------|
G#|----------7-----------7----|-----7---7--------2-------------------|------------7--5--------7--5--7----|
D#|---------------------------|--------------5-----------------------|-----------------------------------|


D#|-------------------0-------|---------------------------------|---------------------------------|
A#|-------------------0-------|---------------------------------|---------------------------------|
F#|-------------------9-------|-----7---------------------------|-7-------------------------------|
C#|-----5---5----12-------12--|-9---------------------------7---|-------------5-----------5-------|
G#|---------------------------|---------10--7-------7---10------|-----10--7-------7---7-------7---|
D#|---------------------------|-----------------8---------------|---------------------------------|


D#|------------------------------|-----------2---------------0----|-0-----------------0---0----0---|
A#|------------------------------|-----------2---------------0----|-0-----------------0---0----3---|
F#|------------------------------|-----------2--------------------|-3--2--0-----------2---3----4---|
C#|-7---5----------------0---2---|-5--2--0-------0---2------------|-----------0---4----------------|
G#|---------7--------2-----------|--------------------------------|--------------------------------|
D#|--------------0---------------|--------------------------------|--------------------------------|


D#|-0----0---0-------------|-0--0--0---0------|--------|--------|--------|--------|
A#|------0---3----3---3----|-----------0------|--------|--------|--------|--------|
F#|------2---4----4---4----|-4--2--0---0------|--------|--------|--------|--------|
C#|---------------4---4----|-4--2--0---2------|--------|--------|--------|--------|
G#|------------------------|-----------2------|--------|--------|--------|--------|
D#|------------------------|-----------0------|--------|--------|--------|--------|


D#|--------|--------|--------|--------|--------|--------|--------|--------|--------|
A#|--------|--------|--------|--------|--------|--------|--------|--------|--------|
F#|--------|--------|--------|--------|--------|--------|--------|--------|--------|
C#|--------|--------|--------|--------|--------|--------|--------|--------|--------|
G#|--------|--------|--------|--------|--------|--------|--------|--------|--------|
D#|--------|--------|--------|--------|--------|--------|--------|--------|--------|


D#|--------|--------|--------|--------|--------|--------|--------|--------|--------|
A#|--------|--------|--------|--------|--------|--------|--------|--------|--------|
F#|--------|--------|--------|--------|--------|--------|--------|--------|--------|
C#|--------|--------|--------|--------|--------|--------|--------|--------|--------|
G#|--------|--------|--------|--------|--------|--------|--------|--------|--------|
D#|--------|--------|--------|--------|--------|--------|--------|--------|--------|


D#|--------|--------|--------|--------|--------|--------|--------|--------|--------|
A#|--------|--------|--------|--------|--------|--------|--------|--------|--------|
F#|--------|--------|--------|--------|--------|--------|--------|--------|--------|
C#|--------|--------|--------|--------|--------|--------|--------|--------|--------|
G#|--------|--------|--------|--------|--------|--------|--------|--------|--------|
D#|--------|--------|--------|--------|--------|--------|--------|--------|--------|


D#|--------|--------|--------|--------|--------|--------|--------|--------|--------|
A#|--------|--------|--------|--------|--------|--------|--------|--------|--------|
F#|--------|--------|--------|--------|--------|--------|--------|--------|--------|
C#|--------|--------|--------|--------|--------|--------|--------|--------|--------|
G#|--------|--------|--------|--------|--------|--------|--------|--------|--------|
D#|--------|--------|--------|--------|--------|--------|--------|--------|--------|


D#|--------|--------|--------|--------|--------|--------|--------|--------|--------|
A#|--------|--------|--------|--------|--------|--------|--------|--------|--------|
F#|--------|--------|--------|--------|--------|--------|--------|--------|--------|
C#|--------|--------|--------|--------|--------|--------|--------|--------|--------|
G#|--------|--------|--------|--------|--------|--------|--------|--------|--------|
D#|--------|--------|--------|--------|--------|--------|--------|--------|--------|


D#|--------|--------|--------|--------|--------|--------|--------|--------|--------|
A#|--------|--------|--------|--------|--------|--------|--------|--------|--------|
F#|--------|--------|--------|--------|--------|--------|--------|--------|--------|
C#|--------|--------|--------|--------|--------|--------|--------|--------|--------|
G#|--------|--------|--------|--------|--------|--------|--------|--------|--------|
D#|--------|--------|--------|--------|--------|--------|--------|--------|--------|


D#|--------|--------|--------|--------|--------|--------|--------|--------|--------|
A#|--------|--------|--------|--------|--------|--------|--------|--------|--------|
F#|--------|--------|--------|--------|--------|--------|--------|--------|--------|
C#|--------|--------|--------|--------|--------|--------|--------|--------|--------|
G#|--------|--------|--------|--------|--------|--------|--------|--------|--------|
D#|--------|--------|--------|--------|--------|--------|--------|--------|--------|


D#|--------|--------|--------|--------|--------|--------|--------|--------|--------|
A#|--------|--------|--------|--------|--------|--------|--------|--------|--------|
F#|--------|--------|--------|--------|--------|--------|--------|--------|--------|
C#|--------|--------|--------|--------|--------|--------|--------|--------|--------|
G#|--------|--------|--------|--------|--------|--------|--------|--------|--------|
D#|--------|--------|--------|--------|--------|--------|--------|--------|--------|


D#|--------|--------|--------|--------|--------|--------|--------|--------|--------|
A#|--------|--------|--------|--------|--------|--------|--------|--------|--------|
F#|--------|--------|--------|--------|--------|--------|--------|--------|--------|
C#|--------|--------|--------|--------|--------|--------|--------|--------|--------|
G#|--------|--------|--------|--------|--------|--------|--------|--------|--------|
D#|--------|--------|--------|--------|--------|--------|--------|--------|--------|


D#|--------|--------|--------|--------|--------|--------|--------|--------|--------|
A#|--------|--------|--------|--------|--------|--------|--------|--------|--------|
F#|--------|--------|--------|--------|--------|--------|--------|--------|--------|
C#|--------|--------|--------|--------|--------|--------|--------|--------|--------|
G#|--------|--------|--------|--------|--------|--------|--------|--------|--------|
D#|--------|--------|--------|--------|--------|--------|--------|--------|--------|


D#|--------|--------|--------|--------|--------|--------|--------|--------|--------|
A#|--------|--------|--------|--------|--------|--------|--------|--------|--------|
F#|--------|--------|--------|--------|--------|--------|--------|--------|--------|
C#|--------|--------|--------|--------|--------|--------|--------|--------|--------|
G#|--------|--------|--------|--------|--------|--------|--------|--------|--------|
D#|--------|--------|--------|--------|--------|--------|--------|--------|--------|


D#|--------|
A#|--------|
F#|--------|
C#|--------|
G#|--------|
D#|--------|





Track 2: Untitled

D#|--------|--------|--------|--------|--------|--------|--------|--------|--------|
A#|--------|--------|--------|--------|--------|--------|--------|--------|--------|
F#|--------|--------|--------|--------|--------|--------|--------|--------|--------|
C#|--------|--------|--------|--------|--------|--------|--------|--------|--------|
G#|--------|--------|--------|--------|--------|--------|--------|--------|--------|
D#|--------|--------|--------|--------|--------|--------|--------|--------|--------|


D#|--------|--------|--------|--------|--------|--------|--------|--------|--------|
A#|--------|--------|--------|--------|--------|--------|--------|--------|--------|
F#|--------|--------|--------|--------|--------|--------|--------|--------|--------|
C#|--------|--------|--------|--------|--------|--------|--------|--------|--------|
G#|--------|--------|--------|--------|--------|--------|--------|--------|--------|
D#|--------|--------|--------|--------|--------|--------|--------|--------|--------|


D#|--------|--------|--------|--------|--------|------------------------------|---------------------------------|
A#|--------|--------|--------|--------|--------|------------------------------|---------------------------------|
F#|--------|--------|--------|--------|--------|--------------0-----------0---|---------0-----------------------|
C#|--------|--------|--------|--------|--------|----------2-----------0-------|-----4-----------4---5---5---4---|
G#|--------|--------|--------|--------|--------|------0-----------3-----------|-5-----------5-------------------|
D#|--------|--------|--------|--------|--------|------------------------------|---------------------------------|


D#|---------------------------------|------------------------------|------------------------------|
A#|---------------------------------|------------------------------|------------------------------|
F#|-----------------0-----------0---|---------0--------------------|--------------0-----------0---|
C#|-------------2-----------0-------|-----4-----------4---5---7----|-7--------2-----------0-------|
G#|-5---3---0-----------3-----------|-5-----------5----------------|------0-----------3-----------|
D#|---------------------------------|------------------------------|------------------------------|


D#|---------------------------------|---------------------------------|-------------3-----3----|
A#|---------------------------------|---------------------------------|-------------0-----0----|
F#|---------0-----------------------|-----------------0-----------0---|---------0---0-----0----|
C#|-----4-----------4---5---5---4---|-------------2-----------0-------|-----0-------0-----0----|
G#|-5-----------5-------------------|-5---3---0-----------3-----------|-2-----------2-----2----|
D#|---------------------------------|---------------------------------|-------------3-----3----|


D#|------------------------------|---------------------------------|---------------------------------|
A#|------------------------------|---------------------------------|---------------------------------|
F#|--------------0-----------0---|---------0-----------------------|-----------------0-----------0---|
C#|----------2-----------0-------|-----4-----------4---5---5---4---|-------------2-----------0-------|
G#|------0-----------3-----------|-5-----------5-------------------|-5---3---0-----------3-----------|
D#|------------------------------|---------------------------------|---------------------------------|


D#|------------------------------|------------------------------|---------------------------------|
A#|------------------------------|------------------------------|---------------------------------|
F#|---------0--------------------|--------------0-----------0---|---------0-----------------------|
C#|-----4-----------4---5---7----|-7--------2-----------0-------|-----4-----------4---5---5---4---|
G#|-5-----------5----------------|------0-----------3-----------|-5-----------5-------------------|
D#|------------------------------|------------------------------|---------------------------------|


D#|---------------------------------|-------------3----------|--------|--------|--------|
A#|---------------------------------|-------------0----------|--------|--------|--------|
F#|-----------------0-----------0---|---------0---0----------|--------|--------|--------|
C#|-------------2-----------0-------|-----0-------0----------|--------|--------|--------|
G#|-5---3---0-----------3-----------|-2-----------2----------|--------|--------|--------|
D#|---------------------------------|-------------3----------|--------|--------|--------|


D#|--------|--------|--------|--------|--------|--------|--------|--------|--------|
A#|--------|--------|--------|--------|--------|--------|--------|--------|--------|
F#|--------|--------|--------|--------|--------|--------|--------|--------|--------|
C#|--------|--------|--------|--------|--------|--------|--------|--------|--------|
G#|--------|--------|--------|--------|--------|--------|--------|--------|--------|
D#|--------|--------|--------|--------|--------|--------|--------|--------|--------|


D#|--------|--------|--------|--------|--------|--------|--------|--------|--------|
A#|--------|--------|--------|--------|--------|--------|--------|--------|--------|
F#|--------|--------|--------|--------|--------|--------|--------|--------|--------|
C#|--------|--------|--------|--------|--------|--------|--------|--------|--------|
G#|--------|--------|--------|--------|--------|--------|--------|--------|--------|
D#|--------|--------|--------|--------|--------|--------|--------|--------|--------|


D#|--------|--------|--------|--------|--------|--------|--------|--------|--------|
A#|--------|--------|--------|--------|--------|--------|--------|--------|--------|
F#|--------|--------|--------|--------|--------|--------|--------|--------|--------|
C#|--------|--------|--------|--------|--------|--------|--------|--------|--------|
G#|--------|--------|--------|--------|--------|--------|--------|--------|--------|
D#|--------|--------|--------|--------|--------|--------|--------|--------|--------|


D#|--------|--------|--------|--------|--------|--------|--------|--------|--------|
A#|--------|--------|--------|--------|--------|--------|--------|--------|--------|
F#|--------|--------|--------|--------|--------|--------|--------|--------|--------|
C#|--------|--------|--------|--------|--------|--------|--------|--------|--------|
G#|--------|--------|--------|--------|--------|--------|--------|--------|--------|
D#|--------|--------|--------|--------|--------|--------|--------|--------|--------|


D#|--------|--------|--------|--------|--------|--------|--------|--------|--------|
A#|--------|--------|--------|--------|--------|--------|--------|--------|--------|
F#|--------|--------|--------|--------|--------|--------|--------|--------|--------|
C#|--------|--------|--------|--------|--------|--------|--------|--------|--------|
G#|--------|--------|--------|--------|--------|--------|--------|--------|--------|
D#|--------|--------|--------|--------|--------|--------|--------|--------|--------|


D#|------------------------------|---------------------------------|---------------------------------|
A#|------------------------------|---------------------------------|---------------------------------|
F#|--------------0-----------0---|---------0-----------------------|-----------------0-----------0---|
C#|----------2-----------0-------|-----4-----------4---5---5---4---|-------------2-----------0-------|
G#|------0-----------3-----------|-5-----------5-------------------|-5---3---0-----------3-----------|
D#|------------------------------|---------------------------------|---------------------------------|


D#|------------------------------|------------------------------|---------------------------------|
A#|------------------------------|------------------------------|---------------------------------|
F#|---------0--------------------|--------------0-----------0---|---------0-----------------------|
C#|-----4-----------4---5---7----|-7--------2-----------0-------|-----4-----------4---5---5---4---|
G#|-5-----------5----------------|------0-----------3-----------|-5-----------5-------------------|
D#|------------------------------|------------------------------|---------------------------------|


D#|---------------------------------|------------------------------|------------------------------|
A#|---------------------------------|------------------------------|------------------------------|
F#|-----------------0-----------0---|---------0--------------------|--------------0-----------0---|
C#|-------------2-----------0-------|-----4-----------4---5---7----|-7--------2-----------0-------|
G#|-5---3---0-----------3-----------|-5-----------5----------------|------0-----------3-----------|
D#|---------------------------------|------------------------------|------------------------------|


D#|---------------------------------|---------------------------------|-------------3----------|
A#|---------------------------------|---------------------------------|-------------0----------|
F#|---------0-----------------------|-----------------0-----------0---|---------0---0----------|
C#|-----4-----------4---5---5---4---|-------------2-----------0-------|-----0-------0----------|
G#|-5-----------5-------------------|-5---3---0-----------3-----------|-2-----------2----------|
D#|---------------------------------|---------------------------------|-------------3----------|


D#|--------|--------|--------|--------|--------|--------|--------|--------|--------|
A#|--------|--------|--------|--------|--------|--------|--------|--------|--------|
F#|--------|--------|--------|--------|--------|--------|--------|--------|--------|
C#|--------|--------|--------|--------|--------|--------|--------|--------|--------|
G#|--------|--------|--------|--------|--------|--------|--------|--------|--------|
D#|--------|--------|--------|--------|--------|--------|--------|--------|--------|


D#|--------|--------|--------|--------|--------|--------|--------|--------|--------|
A#|--------|--------|--------|--------|--------|--------|--------|--------|--------|
F#|--------|--------|--------|--------|--------|--------|--------|--------|--------|
C#|--------|--------|--------|--------|--------|--------|--------|--------|--------|
G#|--------|--------|--------|--------|--------|--------|--------|--------|--------|
D#|--------|--------|--------|--------|--------|--------|--------|--------|--------|


D#|--------|--------|--------|--------|--------|--------|---------------------------------|
A#|--------|--------|--------|--------|--------|--------|---------------------------------|
F#|--------|--------|--------|--------|--------|--------|---------------------------------|
C#|--------|--------|--------|--------|--------|--------|---------0-----------0-----------|
G#|--------|--------|--------|--------|--------|--------|-----2-----------0-----------4---|
D#|--------|--------|--------|--------|--------|--------|-0-----------3-----------5-------|


D#|---------------------------------|-------0-----|-0------|
A#|---------------------------------|-------0-----|-0------|
F#|---------------------------------|-------4-----|-4------|
C#|-0-------------------------------|-------0-----|-0------|
G#|---------4---5---5---4-----------|-------2-----|-2------|
D#|-----5-------------------5---3---|-------0-----|-0------|





Track 3: Untitled

D#|--------|--------|--------|--------|--------|--------|--------|--------|--------|
A#|--------|--------|--------|--------|--------|--------|--------|--------|--------|
F#|--------|--------|--------|--------|--------|--------|--------|--------|--------|
C#|--------|--------|--------|--------|--------|--------|--------|--------|--------|
G#|--------|--------|--------|--------|--------|--------|--------|--------|--------|
D#|--------|--------|--------|--------|--------|--------|--------|--------|--------|


D#|--------|--------|--------|--------|--------|--------|--------|--------|--------|
A#|--------|--------|--------|--------|--------|--------|--------|--------|--------|
F#|--------|--------|--------|--------|--------|--------|--------|--------|--------|
C#|--------|--------|--------|--------|--------|--------|--------|--------|--------|
G#|--------|--------|--------|--------|--------|--------|--------|--------|--------|
D#|--------|--------|--------|--------|--------|--------|--------|--------|--------|


D#|--------|--------|--------|--------|--------|------------------------------|---------------------------------|
A#|--------|--------|--------|--------|--------|------------------------------|---------------------------------|
F#|--------|--------|--------|--------|--------|--------------12----------12--|---------------------------------|
C#|--------|--------|--------|--------|--------|----------14----------12------|-----16--17------16--17--17--16--|
G#|--------|--------|--------|--------|--------|------12----------15----------|-17----------17------------------|
D#|--------|--------|--------|--------|--------|------------------------------|---------------------------------|


D#|---------------------------------|------------------------------|------------------------------|
A#|---------------------------------|------------------------------|------------------------------|
F#|-----------------12----------12--|------------------------------|--------------12----------12--|
C#|-------------14----------12------|-----16--17------16--17--19---|-19-------14----------12------|
G#|-17--15--12----------15----------|-17----------17---------------|------12----------15----------|
D#|---------------------------------|------------------------------|------------------------------|


D#|---------------------------------|---------------------------------|------------------------|
A#|---------------------------------|---------------------------------|------------------------|
F#|---------------------------------|-----------------12----------12--|-------------12----12---|
C#|-----16--17------16--17--17--16--|-------------14----------12------|-----16--17--12----12---|
G#|-17----------17------------------|-17--15--12----------15----------|-17----------14----14---|
D#|---------------------------------|---------------------------------|------------------------|


D#|------------------------------|---------------------------------|---------------------------------|
A#|------------------------------|---------------------------------|---------------------------------|
F#|--------------12----------12--|---------12----------------------|-----------------12----------12--|
C#|----------14----------12------|-----16----------16--17--17--16--|-------------14----------12------|
G#|------12----------15----------|-17----------17------------------|-17--15--12----------15----------|
D#|------------------------------|---------------------------------|---------------------------------|


D#|------------------------------|------------------------------|---------------------------------|
A#|------------------------------|------------------------------|---------------------------------|
F#|------------------------------|--------------12----------12--|---------12----------------------|
C#|-----16--17------16--17--19---|-19-------14----------12------|-----16----------16--17--17--16--|
G#|-17----------17---------------|------12----------15----------|-17----------17------------------|
D#|------------------------------|------------------------------|---------------------------------|


D#|---------------------------------|------------------------|--------|--------|--------|
A#|---------------------------------|------------------------|--------|--------|--------|
F#|-----------------12----------12--|-------------12---------|--------|--------|--------|
C#|-------------14----------12------|-----16--17--12---------|--------|--------|--------|
G#|-17--15--12----------15----------|-17----------14---------|--------|--------|--------|
D#|---------------------------------|------------------------|--------|--------|--------|


D#|--------|--------|--------|--------|--------|--------|--------|--------|--------|
A#|--------|--------|--------|--------|--------|--------|--------|--------|--------|
F#|--------|--------|--------|--------|--------|--------|--------|--------|--------|
C#|--------|--------|--------|--------|--------|--------|--------|--------|--------|
G#|--------|--------|--------|--------|--------|--------|--------|--------|--------|
D#|--------|--------|--------|--------|--------|--------|--------|--------|--------|


D#|--------|--------|--------|--------|--------|--------|--------|--------|--------|
A#|--------|--------|--------|--------|--------|--------|--------|--------|--------|
F#|--------|--------|--------|--------|--------|--------|--------|--------|--------|
C#|--------|--------|--------|--------|--------|--------|--------|--------|--------|
G#|--------|--------|--------|--------|--------|--------|--------|--------|--------|
D#|--------|--------|--------|--------|--------|--------|--------|--------|--------|


D#|--------|--------|--------|--------|--------|--------|--------|--------|--------|
A#|--------|--------|--------|--------|--------|--------|--------|--------|--------|
F#|--------|--------|--------|--------|--------|--------|--------|--------|--------|
C#|--------|--------|--------|--------|--------|--------|--------|--------|--------|
G#|--------|--------|--------|--------|--------|--------|--------|--------|--------|
D#|--------|--------|--------|--------|--------|--------|--------|--------|--------|


D#|--------|--------|--------|--------|--------|--------|--------|--------|--------|
A#|--------|--------|--------|--------|--------|--------|--------|--------|--------|
F#|--------|--------|--------|--------|--------|--------|--------|--------|--------|
C#|--------|--------|--------|--------|--------|--------|--------|--------|--------|
G#|--------|--------|--------|--------|--------|--------|--------|--------|--------|
D#|--------|--------|--------|--------|--------|--------|--------|--------|--------|


D#|--------|--------|--------|--------|--------|--------|--------|--------|--------|
A#|--------|--------|--------|--------|--------|--------|--------|--------|--------|
F#|--------|--------|--------|--------|--------|--------|--------|--------|--------|
C#|--------|--------|--------|--------|--------|--------|--------|--------|--------|
G#|--------|--------|--------|--------|--------|--------|--------|--------|--------|
D#|--------|--------|--------|--------|--------|--------|--------|--------|--------|


D#|--------|--------|--------|--------|--------|--------|--------|--------|--------|
A#|--------|--------|--------|--------|--------|--------|--------|--------|--------|
F#|--------|--------|--------|--------|--------|--------|--------|--------|--------|
C#|--------|--------|--------|--------|--------|--------|--------|--------|--------|
G#|--------|--------|--------|--------|--------|--------|--------|--------|--------|
D#|--------|--------|--------|--------|--------|--------|--------|--------|--------|


D#|--------|--------|--------|--------|--------|--------|--------|--------|--------|
A#|--------|--------|--------|--------|--------|--------|--------|--------|--------|
F#|--------|--------|--------|--------|--------|--------|--------|--------|--------|
C#|--------|--------|--------|--------|--------|--------|--------|--------|--------|
G#|--------|--------|--------|--------|--------|--------|--------|--------|--------|
D#|--------|--------|--------|--------|--------|--------|--------|--------|--------|


D#|--------|--------|--------|--------|--------|--------|--------|--------|--------|
A#|--------|--------|--------|--------|--------|--------|--------|--------|--------|
F#|--------|--------|--------|--------|--------|--------|--------|--------|--------|
C#|--------|--------|--------|--------|--------|--------|--------|--------|--------|
G#|--------|--------|--------|--------|--------|--------|--------|--------|--------|
D#|--------|--------|--------|--------|--------|--------|--------|--------|--------|


D#|--------|--------|--------|--------|--------|--------|--------|--------|--------|
A#|--------|--------|--------|--------|--------|--------|--------|--------|--------|
F#|--------|--------|--------|--------|--------|--------|--------|--------|--------|
C#|--------|--------|--------|--------|--------|--------|--------|--------|--------|
G#|--------|--------|--------|--------|--------|--------|--------|--------|--------|
D#|--------|--------|--------|--------|--------|--------|--------|--------|--------|


D#|---------------------------------|---------------------------------|-------0-----|
A#|---------------------------------|---------------------------------|-------0-----|
F#|---------------------------------|---------------------------------|-------4-----|
C#|---------0-----------0-----------|-0-------------------------------|-------0-----|
G#|-----2-----------0-----------4---|---------4---5---5---4-----------|-------2-----|
D#|-0-----------3-----------5-------|-----5-------------------5---3---|-------0-----|


D#|-0------|
A#|-0------|
F#|-4------|
C#|-0------|
G#|-2------|
D#|-0------|





Track 4: Untitled

D#|--------|--------|--------|--------|--------|--------|--------|--------|--------|
A#|--------|--------|--------|--------|--------|--------|--------|--------|--------|
F#|--------|--------|--------|--------|--------|--------|--------|--------|--------|
C#|--------|--------|--------|--------|--------|--------|--------|--------|--------|
G#|--------|--------|--------|--------|--------|--------|--------|--------|--------|
D#|--------|--------|--------|--------|--------|--------|--------|--------|--------|


D#|--------|--------|--------|--------|--------|--------|--------|--------|--------|
A#|--------|--------|--------|--------|--------|--------|--------|--------|--------|
F#|--------|--------|--------|--------|--------|--------|--------|--------|--------|
C#|--------|--------|--------|--------|--------|--------|--------|--------|--------|
G#|--------|--------|--------|--------|--------|--------|--------|--------|--------|
D#|--------|--------|--------|--------|--------|--------|--------|--------|--------|


D#|--------|--------|--------|--------|--------|-------------|-------------|-------------|
A#|--------|--------|--------|--------|--------|-------------|-------------|-------------|
F#|--------|--------|--------|--------|--------|-------------|-------------|-------------|
C#|--------|--------|--------|--------|--------|-------------|-------------|-------------|
G#|--------|--------|--------|--------|--------|-------------|-------------|-------------|
D#|--------|--------|--------|--------|--------|-------------|-------------|-------------|


D#|-----------------|-----------------------------------|---------------------------------|
A#|-----------------|-----------------------------------|---------------------------------|
F#|-----------------|-------------------12----------12--|---------12----------------------|
C#|-----------------|-----14-12-----14----------12------|-----16----------16--17--17--16--|
G#|-----------------|-----------12----------15----------|-17----------17------------------|
D#|-----------------|-----------------------------------|---------------------------------|


D#|---------------------------------|------------------------|-----------------------------------|
A#|---------------------------------|------------------------|-----------------------------------|
F#|-----------------12----------12--|---------12-------------|-------------------12----------12--|
C#|-------------14----------12------|-9---12-----------------|-----14-12-----14----------12------|
G#|-17--15--12----------15----------|-------------10----10---|-----------12----------15----------|
D#|---------------------------------|------------------------|-----------------------------------|


D#|---------------------------------|-------------------------------------|---------------------------------|
A#|---------------------------------|-------------------------------------|---------------------------------|
F#|---------12----------------------|---------------------12----------12--|---------12----------------------|
C#|-----16----------16--17--17--16--|-12-10-7--10-----14----------12------|-----16----------16--17--19------|
G#|-17----------17------------------|-------------12----------15----------|-17----------17--------------19--|
D#|---------------------------------|-------------------------------------|---------------------------------|


D#|-----------------------------------|---------------------------------|-------------------------------------|
A#|-----------------------------------|---------------------------------|-------------------------------------|
F#|-------------------12----------12--|---------12----------------------|---------------------12----------12--|
C#|-19------------14----------12------|-----16----------16--17--17--16--|-12-10-7--10-----14----------12------|
G#|-----19-17-12----------15----------|-17----------17------------------|-------------12----------15----------|
D#|-----------------------------------|---------------------------------|-------------------------------------|


D#|------------------------------|--------|--------|--------|--------|--------|--------|
A#|------------------------------|--------|--------|--------|--------|--------|--------|
F#|-14-12------------------------|--------|--------|--------|--------|--------|--------|
C#|-------12-10-9--12------------|--------|--------|--------|--------|--------|--------|
G#|-------------------10---------|--------|--------|--------|--------|--------|--------|
D#|------------------------------|--------|--------|--------|--------|--------|--------|


D#|--------|--------|--------|--------|--------|--------|--------|--------|--------|
A#|--------|--------|--------|--------|--------|--------|--------|--------|--------|
F#|--------|--------|--------|--------|--------|--------|--------|--------|--------|
C#|--------|--------|--------|--------|--------|--------|--------|--------|--------|
G#|--------|--------|--------|--------|--------|--------|--------|--------|--------|
D#|--------|--------|--------|--------|--------|--------|--------|--------|--------|


D#|--------|--------|--------|--------|--------|--------|--------|--------|--------|
A#|--------|--------|--------|--------|--------|--------|--------|--------|--------|
F#|--------|--------|--------|--------|--------|--------|--------|--------|--------|
C#|--------|--------|--------|--------|--------|--------|--------|--------|--------|
G#|--------|--------|--------|--------|--------|--------|--------|--------|--------|
D#|--------|--------|--------|--------|--------|--------|--------|--------|--------|


D#|--------|--------|--------|--------|--------|--------|--------|--------|--------|
A#|--------|--------|--------|--------|--------|--------|--------|--------|--------|
F#|--------|--------|--------|--------|--------|--------|--------|--------|--------|
C#|--------|--------|--------|--------|--------|--------|--------|--------|--------|
G#|--------|--------|--------|--------|--------|--------|--------|--------|--------|
D#|--------|--------|--------|--------|--------|--------|--------|--------|--------|


D#|--------|--------|--------|--------|--------|--------|--------|--------|--------|
A#|--------|--------|--------|--------|--------|--------|--------|--------|--------|
F#|--------|--------|--------|--------|--------|--------|--------|--------|--------|
C#|--------|--------|--------|--------|--------|--------|--------|--------|--------|
G#|--------|--------|--------|--------|--------|--------|--------|--------|--------|
D#|--------|--------|--------|--------|--------|--------|--------|--------|--------|


D#|--------|--------|--------|--------|--------|--------|--------|--------|-------------------------------------|
A#|--------|--------|--------|--------|--------|--------|--------|--------|-------------------------------------|
F#|--------|--------|--------|--------|--------|--------|--------|--------|---------------------12----------12--|
C#|--------|--------|--------|--------|--------|--------|--------|--------|-12-10-7--10-----14----------12------|
G#|--------|--------|--------|--------|--------|--------|--------|--------|-------------12----------15----------|
D#|--------|--------|--------|--------|--------|--------|--------|--------|-------------------------------------|


D#|---------------------------------|-----------------------------------|---------------------------------|
A#|---------------------------------|-----------------------------------|---------------------------------|
F#|---------------------------------|-------------------12----------12--|---------12----------------------|
C#|-----16--17------16--17--19------|-19------------14----------12------|-----16----------16--17--17--16--|
G#|-17----------17------------------|-----19-17-12----------15----------|-17----------17------------------|
D#|-----------------------------17--|-----------------------------------|---------------------------------|


D#|-------------------------------------|---------------------------------|-----------------------------------|
A#|-------------------------------------|---------------------------------|-----------------------------------|
F#|---------------------12----------12--|---------12----------------------|-------------------12----------12--|
C#|-12-10-7--10-----14----------12------|-----16----------16--17--19------|-19------------14----------12------|
G#|-------------12----------15----------|-17----------17--------------19--|-----19-17-12----------15----------|
D#|-------------------------------------|---------------------------------|-----------------------------------|


D#|---------------------------------|-------------------------------------|------------------------------|
A#|---------------------------------|-------------------------------------|------------------------------|
F#|---------12----------------------|---------------------12----------12--|-14-12------------------------|
C#|-----16----------16--17--17--16--|-12-10-7--10-----14----------12------|-------12-10-9--12------------|
G#|-17----------17------------------|-------------12----------15----------|-------------------10---------|
D#|---------------------------------|-------------------------------------|------------------------------|


D#|--------|--------|--------|--------|--------|--------|--------|--------|--------|
A#|--------|--------|--------|--------|--------|--------|--------|--------|--------|
F#|--------|--------|--------|--------|--------|--------|--------|--------|--------|
C#|--------|--------|--------|--------|--------|--------|--------|--------|--------|
G#|--------|--------|--------|--------|--------|--------|--------|--------|--------|
D#|--------|--------|--------|--------|--------|--------|--------|--------|--------|


D#|--------|--------|--------|--------|--------|--------|--------|--------|--------|
A#|--------|--------|--------|--------|--------|--------|--------|--------|--------|
F#|--------|--------|--------|--------|--------|--------|--------|--------|--------|
C#|--------|--------|--------|--------|--------|--------|--------|--------|--------|
G#|--------|--------|--------|--------|--------|--------|--------|--------|--------|
D#|--------|--------|--------|--------|--------|--------|--------|--------|--------|


D#|--------|--------|--------|--------|--------|--------|--------|--------|-------------|
A#|--------|--------|--------|--------|--------|--------|--------|--------|-------12----|
F#|--------|--------|--------|--------|--------|--------|--------|--------|-------------|
C#|--------|--------|--------|--------|--------|--------|--------|--------|-------------|
G#|--------|--------|--------|--------|--------|--------|--------|--------|-------------|
D#|--------|--------|--------|--------|--------|--------|--------|--------|-------------|


D#|-----------------------------|
A#|-12--14-12-15---12-11---15---|
F#|-----------------------------|
C#|-----------------------------|
G#|-----------------------------|
D#|-----------------------------|





Track 5: Untitled

D#|--------|--------|--------|--------|--------|--------|--------|--------|--------|
A#|--------|--------|--------|--------|--------|--------|--------|--------|--------|
F#|--------|--------|--------|--------|--------|--------|--------|--------|--------|
C#|--------|--------|--------|--------|--------|--------|--------|--------|--------|
G#|--------|--------|--------|--------|--------|--------|--------|--------|--------|
D#|--------|--------|--------|--------|--------|--------|--------|--------|--------|


D#|--------|--------|--------|--------|--------|--------|--------|--------|--------|
A#|--------|--------|--------|--------|--------|--------|--------|--------|--------|
F#|--------|--------|--------|--------|--------|--------|--------|--------|--------|
C#|--------|--------|--------|--------|--------|--------|--------|--------|--------|
G#|--------|--------|--------|--------|--------|--------|--------|--------|--------|
D#|--------|--------|--------|--------|--------|--------|--------|--------|--------|


D#|--------|--------|--------|--------|--------|--------|--------|--------|--------|
A#|--------|--------|--------|--------|--------|--------|--------|--------|--------|
F#|--------|--------|--------|--------|--------|--------|--------|--------|--------|
C#|--------|--------|--------|--------|--------|--------|--------|--------|--------|
G#|--------|--------|--------|--------|--------|--------|--------|--------|--------|
D#|--------|--------|--------|--------|--------|--------|--------|--------|--------|


D#|--------|--------|--------|--------|--------|--------|--------|--------|--------|
A#|--------|--------|--------|--------|--------|--------|--------|--------|--------|
F#|--------|--------|--------|--------|--------|--------|--------|--------|--------|
C#|--------|--------|--------|--------|--------|--------|--------|--------|--------|
G#|--------|--------|--------|--------|--------|--------|--------|--------|--------|
D#|--------|--------|--------|--------|--------|--------|--------|--------|--------|


D#|--------|--------|-------------|------------------------------|---------------------------------|
A#|--------|--------|-------------|------------------------------|---------------------------------|
F#|--------|--------|-------------|------------------------------|---------------------------------|
C#|--------|--------|-------------|------2-----------------------|---------------------------------|
G#|--------|--------|-------------|------2-----------5-----------|-7---------------5-------5---7---|
D#|--------|--------|--------15---|------0---0---0---3---0---0---|-5---0---0---0---3---0---3---5---|


D#|------------------------------|---------------------------------|------------------------------|
A#|------------------------------|---------------------------------|------------------------------|
F#|------------------------------|---------------------------------|------------------------------|
C#|------2-----------------------|-----------------------------7---|------2-----------------------|
G#|-7----2-----------5-----------|-7---------------------------5---|------2-----------5-----------|
D#|-5----0---0---0---3---0---0---|-5---0---0---0---0---0---0-------|------0---0---0---3---0---0---|


D#|---------------------------------|------------------------------|---------------------------------|
A#|---------------------------------|------------------------------|---------------------------------|
F#|---------------------------------|------------------------------|---------------------------------|
C#|---------------------------------|------2-----------------------|-----------------------------7---|
G#|-7---------------5-------5---7---|-7----2-----------5-----------|-7---------------------------5---|
D#|-5---0---0---0---3---0---3---5---|-5----0---0---0---3---0---0---|-5---0---0---0---0---0---0-------|


D#|------------3---3----|-3----3-----------------|------------------------------|---------------------------------|
A#|------3-----3---3----|-3----3---3---3----3----|------------------------------|---------------------------------|
F#|------5-----0---0----|-0----0---2---2----2----|------------------------------|---------------------------------|
C#|-7----5-----0---0----|-0----0---0---0----0----|-7----2-----------------------|---------------------------------|
G#|-5----3--------------|------------------------|-5----2-----------5-----------|-7---------------5---6---7---6---|
D#|---------------------|------------------------|------0---0---0---3---0---0---|-5---0---0---0---3---4---5---4---|


D#|------------3---3----|-3----3-----------------|------------------------------|---------------------------------|
A#|------3-----3---3----|-3----3---3---3---------|------------------------------|---------------------------------|
F#|------5-----0---0----|-0----0---2---2----2----|------------------------------|---------------------------------|
C#|------5-----0---0----|-0----0---0---0----2----|------2-----------------------|---------------------------------|
G#|-5----3--------------|-------------------0----|------2-----------5-----------|-7---------------5-------5---7---|
D#|-3-------------------|------------------------|------0---0---0---3---0---0---|-5---0---0---0---3---0---3---5---|


D#|------------------------------|---------------------------------|------------------------------|
A#|------------------------------|---------------------------------|------------------------------|
F#|------------------------------|---------------------------------|------------------------------|
C#|------2-----------------------|-----------------------------7---|------2-----------------------|
G#|-7----2-----------5-----------|-7---------------------------5---|------2-----------5-----------|
D#|-5----0---0---0---3---0---0---|-5---0---0---0---0---0---0-------|------0---0---0---3---0---0---|


D#|---------------------------------|------------------------------|---------------------------------|
A#|---------------------------------|------------------------------|---------------------------------|
F#|---------------------------------|------------------------------|---------------------------------|
C#|---------------------------------|------2-----------------------|-----------------------------7---|
G#|-7---------------5-------5---7---|-7----2-----------5-----------|-7---------------------------5---|
D#|-5---0---0---0---3---0---3---5---|-5----0---0---0---3---0---0---|-5---0---0---0---0---0---0-------|


D#|------------3---3----|-3----3-----------------|------------------------------|---------------------------------|
A#|------3-----3---3----|-3----3---3---3----3----|------------------------------|---------------------------------|
F#|------5-----0---0----|-0----0---2---2----2----|------------------------------|---------------------------------|
C#|-7----5-----0---0----|-0----0---0---0----0----|-7----2-----------------------|---------------------------------|
G#|-5----3--------------|------------------------|-5----2-----------5-----------|-7---------------5---6---7---6---|
D#|---------------------|------------------------|------0---0---0---3---0---0---|-5---0---0---0---3---4---5---4---|


D#|------------3---3----|-3----3-----------------|------------3---3----|-3----3-----------------|
A#|------3-----3---3----|-3----3---3---3---------|------3-----3---3----|-3----3---3---3----3----|
F#|------5-----0---0----|-0----0---2---2----2----|------5-----0---0----|-0----0---2---2----2----|
C#|------5-----0---0----|-0----0---0---0----2----|------5-----0---0----|-0----0---0---0----0----|
G#|-5----3--------------|-------------------0----|------3--------------|------------------------|
D#|-3-------------------|------------------------|---------------------|------------------------|


D#|------3--------------|---------------------------|------------3---3----|-3----3-----------------|
A#|------3-----3---3----|------3-----------3---3----|------3-----3---3----|-3----3---3---3----3----|
F#|------0-----5---5----|------5-----------2---2----|------5-----0---0----|-0----0---2---2----2----|
C#|------0-----5---5----|------5-----------0---0----|------5-----0---0----|-0----0---0---0----0----|
G#|------------3---3----|------3---2---2------------|------3--------------|------------------------|
D#|---------------------|----------0---0------------|---------------------|------------------------|


D#|---------------------|------------------------------|---------------------------------|
A#|---------------------|------------------------------|---------------------------------|
F#|------2--------------|------------------------------|---------------------------------|
C#|-7----2--------------|------------------------------|---------2-----------5-----------|
G#|-5----0--------------|----------2---2---2---2---2---|-2---2---0---0---0---3---0---0---|
D#|---------------------|----------0---0---0---0---0---|-0---0---------------------------|


D#|---------------------------------|---------------------------------|---------------------------------|
A#|---------------------------------|---------------------------------|---------------------------------|
F#|---------------------------------|---------------------------------|---------------------------------|
C#|-7---------------5---6---7---6---|-5-------2-----------5-----------|-7---------------5---6---7---9---|
G#|-5---0---0---0---3---4---5---4---|-3---0---0---0---0---3---0---0---|-5---0---0---0---3---4---5---7---|
D#|---------------------------------|---------------------------------|---------------------------------|


D#|------------------------------|---------------------------------|------------------------------|
A#|------------------------------|---------------------------------|------------------------------|
F#|------------------------------|---------------------------------|------------------------------|
C#|------2-----------5-----------|-7---------------5---6---7---6---|-5----2-----------5-----------|
G#|------0---0---0---3---0---0---|-5---0---0---0---3---4---5---4---|-3----0---0---0---3---0---0---|
D#|------------------------------|---------------------------------|------------------------------|


D#|------------------------------|------------------------------|---------------------------------|
A#|------------------------------|------------------------------|---------------------------------|
F#|------------------------------|------------------------------|---------------------------------|
C#|-7-------7---6---5------------|------2-----------------------|---------------------------------|
G#|-5---0---5---4---3----7---6---|-5----2-----------5-----------|-7---------------5---6---7---6---|
D#|----------------------5---4---|-3----0---0---0---3---0---0---|-5---0---0---0---3---4---5---4---|


D#|------------------------------|---------------------------------|-----------------|
A#|------------------------------|---------------------------------|-----------------|
F#|------------------------------|---------------------------------|-----------------|
C#|------2-----------------------|---------------------------------|-----------------|
G#|-5----2-----------5-----------|-7-------3----4----5----4----3---|-----0-----------|
D#|-3----0---0---0---3---0---0---|-5---0---------------------------|-----------------|


D#|--------|--------|--------|--------|--------|--------|--------|--------|--------|
A#|--------|--------|--------|--------|--------|--------|--------|--------|--------|
F#|--------|--------|--------|--------|--------|--------|--------|--------|--------|
C#|--------|--------|--------|--------|--------|--------|--------|--------|--------|
G#|--------|--------|--------|--------|--------|--------|--------|--------|--------|
D#|--------|--------|--------|--------|--------|--------|--------|--------|--------|


D#|--------|-------------|------------------------------|---------------------------------|
A#|--------|-------------|------------------------------|---------------------------------|
F#|--------|-------------|------------------------------|---------------------------------|
C#|--------|-------------|------2-----------------------|---------------------------------|
G#|--------|-------------|------2-----------5-----------|-7---------------5-------5---7---|
D#|--------|--------15---|------0---0---0---3---0---0---|-5---0---0---0---3---0---3---5---|


D#|------------------------------|---------------------------------|------------------------------|
A#|------------------------------|---------------------------------|------------------------------|
F#|------------------------------|---------------------------------|------------------------------|
C#|------2-----------------------|-----------------------------7---|------2-----------------------|
G#|-7----2-----------5-----------|-7---------------------------5---|------2-----------5-----------|
D#|-5----0---0---0---3---0---0---|-5---0---0---0---0---0---0-------|------0---0---0---3---0---0---|


D#|---------------------------------|---------------------|------------------------|
A#|---------------------------------|---------------------|------------------------|
F#|---------------------------------|------7-----7---7----|-7----7-----------------|
C#|---------------------------------|------7-----7---7----|-7----7---7---7----7----|
G#|-7---------------5-------5---7---|-7----5-----5---5----|-5----5---7---7----7----|
D#|-5---0---0---0---3---0---3---5---|-5-------------------|----------5---5----5----|


D#|------------3---3----|-3----3-----------------|------3--------------|---------------------------|
A#|------3-----3---3----|-3----3---3---3----3----|------3-----3---3----|------3-----------3---3----|
F#|------5-----0---0----|-0----0---2---2----2----|------0-----5---5----|------5-----------2---2----|
C#|------5-----0---0----|-0----0---0---0----0----|------0-----5---5----|------5-----------0---0----|
G#|------3--------------|------------------------|------------3---3----|------3---2---2------------|
D#|---------------------|------------------------|---------------------|----------0---0------------|


D#|------------3---3----|-3----3-----------------|------------3---3----|-3----3-----------------|
A#|------3-----3---3----|-3----3---3---3----3----|------3-----3---3----|-3----3---3---3----3----|
F#|------5-----0---0----|-0----0---2---2----2----|------5-----0---0----|-0----0---2---2----2----|
C#|------5-----0---0----|-0----0---0---0----0----|------5-----0---0----|-0----0---0---0----0----|
G#|------3--------------|------------------------|------3--------------|------------------------|
D#|---------------------|------------------------|---------------------|------------------------|


D#|------3--------------|---------------------------|------------3---3----|-3----3-----------------|
A#|------3-----3---3----|------3-----------3---3----|------3-----3---3----|-3----3---3---3----3----|
F#|------0-----5---5----|------5-----------2---2----|------5-----0---0----|-0----0---2---2----2----|
C#|------0-----5---5----|------5-----------0---0----|------5-----0---0----|-0----0---0---0----0----|
G#|------------3---3----|------3---2---2------------|------3--------------|------------------------|
D#|---------------------|----------0---0------------|---------------------|------------------------|


D#|------------3---3----|-3----3-----------------|---------------------|-------------|
A#|------3-----3---3----|-3----3---3---3----3----|---------------------|-------------|
F#|------5-----0---0----|-0----0---2---2----2----|------2--------------|-2-----------|
C#|------5-----0---0----|-0----0---0---0----0----|------2--------------|-2-----------|
G#|------3--------------|------------------------|------0--------------|-0-----------|
D#|---------------------|------------------------|---------------------|-------------|


D#|--------|--------|--------|--------|
A#|--------|--------|--------|--------|
F#|--------|--------|--------|--------|
C#|--------|--------|--------|--------|
G#|--------|--------|--------|--------|
D#|--------|--------|--------|--------|





Track 6: Slide Intro

D#|--------|--------|--------|--------|--------|--------|--------|--------|--------|
A#|--------|--------|--------|--------|--------|--------|--------|--------|--------|
F#|--------|--------|--------|--------|--------|--------|--------|--------|--------|
C#|--------|--------|--------|--------|--------|--------|--------|--------|--------|
G#|--------|--------|--------|--------|--------|--------|--------|--------|--------|
D#|--------|--------|--------|--------|--------|--------|--------|--------|--------|


D#|--------|--------|--------|--------|--------|--------|--------|--------|--------|
A#|--------|--------|--------|--------|--------|--------|--------|--------|--------|
F#|--------|--------|--------|--------|--------|--------|--------|--------|--------|
C#|--------|--------|--------|--------|--------|--------|--------|--------|--------|
G#|--------|--------|--------|--------|--------|--------|--------|--------|--------|
D#|--------|--------|--------|--------|--------|--------|--------|--------|--------|


D#|--------|--------|--------|--------|--------|--------|--------|--------|--------|
A#|--------|--------|--------|--------|--------|--------|--------|--------|--------|
F#|--------|--------|--------|--------|--------|--------|--------|--------|--------|
C#|--------|--------|--------|--------|--------|--------|--------|--------|--------|
G#|--------|--------|--------|--------|--------|--------|--------|--------|--------|
D#|--------|--------|--------|--------|--------|--------|--------|--------|--------|


D#|--------|--------|--------|--------|--------|--------|--------|--------|--------|
A#|--------|--------|--------|--------|--------|--------|--------|--------|--------|
F#|--------|--------|--------|--------|--------|--------|--------|--------|--------|
C#|--------|--------|--------|--------|--------|--------|--------|--------|--------|
G#|--------|--------|--------|--------|--------|--------|--------|--------|--------|
D#|--------|--------|--------|--------|--------|--------|--------|--------|--------|


D#|--------|--------|-------------|--------|--------|--------|--------|--------|--------|
A#|--------|--------|-------------|--------|--------|--------|--------|--------|--------|
F#|--------|--------|-------------|--------|--------|--------|--------|--------|--------|
C#|--------|--------|-------------|--------|--------|--------|--------|--------|--------|
G#|--------|--------|-------------|--------|--------|--------|--------|--------|--------|
D#|--------|--------|-------------|--------|--------|--------|--------|--------|--------|


D#|--------|--------|--------|--------|--------|--------|--------|--------|--------|
A#|--------|--------|--------|--------|--------|--------|--------|--------|--------|
F#|--------|--------|--------|--------|--------|--------|--------|--------|--------|
C#|--------|--------|--------|--------|--------|--------|--------|--------|--------|
G#|--------|--------|--------|--------|--------|--------|--------|--------|--------|
D#|--------|--------|--------|--------|--------|--------|--------|--------|--------|


D#|--------|--------|--------|--------|--------|--------|--------|--------|--------|
A#|--------|--------|--------|--------|--------|--------|--------|--------|--------|
F#|--------|--------|--------|--------|--------|--------|--------|--------|--------|
C#|--------|--------|--------|--------|--------|--------|--------|--------|--------|
G#|--------|--------|--------|--------|--------|--------|--------|--------|--------|
D#|--------|--------|--------|--------|--------|--------|--------|--------|--------|


D#|--------|--------|--------|--------|--------|--------|--------|--------|--------|
A#|--------|--------|--------|--------|--------|--------|--------|--------|--------|
F#|--------|--------|--------|--------|--------|--------|--------|--------|--------|
C#|--------|--------|--------|--------|--------|--------|--------|--------|--------|
G#|--------|--------|--------|--------|--------|--------|--------|--------|--------|
D#|--------|--------|--------|--------|--------|--------|--------|--------|--------|


D#|--------|--------|--------|--------|--------|--------|--------|--------|--------|
A#|--------|--------|--------|--------|--------|--------|--------|--------|--------|
F#|--------|--------|--------|--------|--------|--------|--------|--------|--------|
C#|--------|--------|--------|--------|--------|--------|--------|--------|--------|
G#|--------|--------|--------|--------|--------|--------|--------|--------|--------|
D#|--------|--------|--------|--------|--------|--------|--------|--------|--------|


D#|--------|--------|--------|--------|--------|--------|--------|--------|--------|
A#|--------|--------|--------|--------|--------|--------|--------|--------|--------|
F#|--------|--------|--------|--------|--------|--------|--------|--------|--------|
C#|--------|--------|--------|--------|--------|--------|--------|--------|--------|
G#|--------|--------|--------|--------|--------|--------|--------|--------|--------|
D#|--------|--------|--------|--------|--------|--------|--------|--------|--------|


D#|--------|--------|--------|--------|--------|--------|--------|--------|--------|
A#|--------|--------|--------|--------|--------|--------|--------|--------|--------|
F#|--------|--------|--------|--------|--------|--------|--------|--------|--------|
C#|--------|--------|--------|--------|--------|--------|--------|--------|--------|
G#|--------|--------|--------|--------|--------|--------|--------|--------|--------|
D#|--------|--------|--------|--------|--------|--------|--------|--------|--------|


D#|--------|--------|--------|--------|--------|--------|--------|--------|--------|
A#|--------|--------|--------|--------|--------|--------|--------|--------|--------|
F#|--------|--------|--------|--------|--------|--------|--------|--------|--------|
C#|--------|--------|--------|--------|--------|--------|--------|--------|--------|
G#|--------|--------|--------|--------|--------|--------|--------|--------|--------|
D#|--------|--------|--------|--------|--------|--------|--------|--------|--------|


D#|--------|--------|--------|--------|--------|--------|--------|--------|--------|
A#|--------|--------|--------|--------|--------|--------|--------|--------|--------|
F#|--------|--------|--------|--------|--------|--------|--------|--------|--------|
C#|--------|--------|--------|--------|--------|--------|--------|--------|--------|
G#|--------|--------|--------|--------|--------|--------|--------|--------|--------|
D#|--------|--------|--------|--------|--------|--------|--------|--------|--------|


D#|--------|--------|--------|--------|--------|--------|--------|--------|--------|
A#|--------|--------|--------|--------|--------|--------|--------|--------|--------|
F#|--------|--------|--------|--------|--------|--------|--------|--------|--------|
C#|--------|--------|--------|--------|--------|--------|--------|--------|--------|
G#|--------|--------|--------|--------|--------|--------|--------|--------|--------|
D#|--------|--------|--------|--------|--------|--------|--------|--------|--------|


D#|--------|
A#|--------|
F#|--------|
C#|--------|
G#|--------|
D#|--------|





Track 7: Slide Intro

D#|--------|--------|--------|--------|--------|--------|--------|--------|--------|
A#|--------|--------|--------|--------|--------|--------|--------|--------|--------|
F#|--------|--------|--------|--------|--------|--------|--------|--------|--------|
C#|--------|--------|--------|--------|--------|--------|--------|--------|--------|
G#|--------|--------|--------|--------|--------|--------|--------|--------|--------|
D#|--------|--------|--------|--------|--------|--------|--------|--------|--------|


D#|--------|--------|--------|--------|--------|--------|--------|--------|--------|
A#|--------|--------|--------|--------|--------|--------|--------|--------|--------|
F#|--------|--------|--------|--------|--------|--------|--------|--------|--------|
C#|--------|--------|--------|--------|--------|--------|--------|--------|--------|
G#|--------|--------|--------|--------|--------|--------|--------|--------|--------|
D#|--------|--------|--------|--------|--------|--------|--------|--------|--------|


D#|--------|--------|--------|--------|--------|--------|--------|--------|--------|
A#|--------|--------|--------|--------|--------|--------|--------|--------|--------|
F#|--------|--------|--------|--------|--------|--------|--------|--------|--------|
C#|--------|--------|--------|--------|--------|--------|--------|--------|--------|
G#|--------|--------|--------|--------|--------|--------|--------|--------|--------|
D#|--------|--------|--------|--------|--------|--------|--------|--------|--------|


D#|--------|--------|--------|--------|--------|--------|--------|--------|--------|
A#|--------|--------|--------|--------|--------|--------|--------|--------|--------|
F#|--------|--------|--------|--------|--------|--------|--------|--------|--------|
C#|--------|--------|--------|--------|--------|--------|--------|--------|--------|
G#|--------|--------|--------|--------|--------|--------|--------|--------|--------|
D#|--------|--------|--------|--------|--------|--------|--------|--------|--------|


D#|--------|--------|-------------|--------|--------|--------|--------|--------|--------|
A#|--------|--------|-------------|--------|--------|--------|--------|--------|--------|
F#|--------|--------|-------------|--------|--------|--------|--------|--------|--------|
C#|--------|--------|-------------|--------|--------|--------|--------|--------|--------|
G#|--------|--------|--------10---|--------|--------|--------|--------|--------|--------|
D#|--------|--------|-------------|--------|--------|--------|--------|--------|--------|


D#|--------|--------|--------|--------|--------|--------|--------|--------|--------|
A#|--------|--------|--------|--------|--------|--------|--------|--------|--------|
F#|--------|--------|--------|--------|--------|--------|--------|--------|--------|
C#|--------|--------|--------|--------|--------|--------|--------|--------|--------|
G#|--------|--------|--------|--------|--------|--------|--------|--------|--------|
D#|--------|--------|--------|--------|--------|--------|--------|--------|--------|


D#|--------|--------|--------|--------|--------|--------|--------|--------|--------|
A#|--------|--------|--------|--------|--------|--------|--------|--------|--------|
F#|--------|--------|--------|--------|--------|--------|--------|--------|--------|
C#|--------|--------|--------|--------|--------|--------|--------|--------|--------|
G#|--------|--------|--------|--------|--------|--------|--------|--------|--------|
D#|--------|--------|--------|--------|--------|--------|--------|--------|--------|


D#|--------|--------|--------|--------|--------|--------|--------|--------|--------|
A#|--------|--------|--------|--------|--------|--------|--------|--------|--------|
F#|--------|--------|--------|--------|--------|--------|--------|--------|--------|
C#|--------|--------|--------|--------|--------|--------|--------|--------|--------|
G#|--------|--------|--------|--------|--------|--------|--------|--------|--------|
D#|--------|--------|--------|--------|--------|--------|--------|--------|--------|


D#|--------|--------|--------|--------|--------|--------|--------|--------|--------|
A#|--------|--------|--------|--------|--------|--------|--------|--------|--------|
F#|--------|--------|--------|--------|--------|--------|--------|--------|--------|
C#|--------|--------|--------|--------|--------|--------|--------|--------|--------|
G#|--------|--------|--------|--------|--------|--------|--------|--------|--------|
D#|--------|--------|--------|--------|--------|--------|--------|--------|--------|


D#|--------|--------|--------|--------|--------|--------|--------|--------|--------|
A#|--------|--------|--------|--------|--------|--------|--------|--------|--------|
F#|--------|--------|--------|--------|--------|--------|--------|--------|--------|
C#|--------|--------|--------|--------|--------|--------|--------|--------|--------|
G#|--------|--------|--------|--------|--------|--------|--------|--------|--------|
D#|--------|--------|--------|--------|--------|--------|--------|--------|--------|


D#|--------|--------|--------|--------|--------|--------|--------|--------|--------|
A#|--------|--------|--------|--------|--------|--------|--------|--------|--------|
F#|--------|--------|--------|--------|--------|--------|--------|--------|--------|
C#|--------|--------|--------|--------|--------|--------|--------|--------|--------|
G#|--------|--------|--------|--------|--------|--------|--------|--------|--------|
D#|--------|--------|--------|--------|--------|--------|--------|--------|--------|


D#|--------|--------|--------|--------|--------|--------|--------|--------|--------|
A#|--------|--------|--------|--------|--------|--------|--------|--------|--------|
F#|--------|--------|--------|--------|--------|--------|--------|--------|--------|
C#|--------|--------|--------|--------|--------|--------|--------|--------|--------|
G#|--------|--------|--------|--------|--------|--------|--------|--------|--------|
D#|--------|--------|--------|--------|--------|--------|--------|--------|--------|


D#|--------|--------|--------|--------|--------|--------|--------|--------|--------|
A#|--------|--------|--------|--------|--------|--------|--------|--------|--------|
F#|--------|--------|--------|--------|--------|--------|--------|--------|--------|
C#|--------|--------|--------|--------|--------|--------|--------|--------|--------|
G#|--------|--------|--------|--------|--------|--------|--------|--------|--------|
D#|--------|--------|--------|--------|--------|--------|--------|--------|--------|


D#|--------|--------|--------|--------|--------|--------|--------|--------|--------|
A#|--------|--------|--------|--------|--------|--------|--------|--------|--------|
F#|--------|--------|--------|--------|--------|--------|--------|--------|--------|
C#|--------|--------|--------|--------|--------|--------|--------|--------|--------|
G#|--------|--------|--------|--------|--------|--------|--------|--------|--------|
D#|--------|--------|--------|--------|--------|--------|--------|--------|--------|


D#|--------|
A#|--------|
F#|--------|
C#|--------|
G#|--------|
D#|--------|





Track 8: Untitled

D#|--------|--------|--------|--------|--------|--------|--------|--------|--------|
A#|--------|--------|--------|--------|--------|--------|--------|--------|--------|
F#|--------|--------|--------|--------|--------|--------|--------|--------|--------|
C#|--------|--------|--------|--------|--------|--------|--------|--------|--------|
G#|--------|--------|--------|--------|--------|--------|--------|--------|--------|
D#|--------|--------|--------|--------|--------|--------|--------|--------|--------|


D#|--------|--------|--------|--------|--------|--------|--------|--------|--------|
A#|--------|--------|--------|--------|--------|--------|--------|--------|--------|
F#|--------|--------|--------|--------|--------|--------|--------|--------|--------|
C#|--------|--------|--------|--------|--------|--------|--------|--------|--------|
G#|--------|--------|--------|--------|--------|--------|--------|--------|--------|
D#|--------|--------|--------|--------|--------|--------|--------|--------|--------|


D#|--------|--------|--------|--------|--------|--------|--------|--------|--------|
A#|--------|--------|--------|--------|--------|--------|--------|--------|--------|
F#|--------|--------|--------|--------|--------|--------|--------|--------|--------|
C#|--------|--------|--------|--------|--------|--------|--------|--------|--------|
G#|--------|--------|--------|--------|--------|--------|--------|--------|--------|
D#|--------|--------|--------|--------|--------|--------|--------|--------|--------|


D#|--------|--------|--------|--------|--------|--------|--------|--------|--------|
A#|--------|--------|--------|--------|--------|--------|--------|--------|--------|
F#|--------|--------|--------|--------|--------|--------|--------|--------|--------|
C#|--------|--------|--------|--------|--------|--------|--------|--------|--------|
G#|--------|--------|--------|--------|--------|--------|--------|--------|--------|
D#|--------|--------|--------|--------|--------|--------|--------|--------|--------|


D#|--------|--------|--------|-------------|--------|--------|--------|--------|--------|
A#|--------|--------|--------|-------------|--------|--------|--------|--------|--------|
F#|--------|--------|--------|-------------|--------|--------|--------|--------|--------|
C#|--------|--------|--------|-------------|--------|--------|--------|--------|--------|
G#|--------|--------|--------|-------------|--------|--------|--------|--------|--------|
D#|--------|--------|--------|-12----------|--------|--------|--------|--------|--------|


D#|--------|--------|--------|--------|--------|--------|--------|--------|--------|
A#|--------|--------|--------|--------|--------|--------|--------|--------|--------|
F#|--------|--------|--------|--------|--------|--------|--------|--------|--------|
C#|--------|--------|--------|--------|--------|--------|--------|--------|--------|
G#|--------|--------|--------|--------|--------|--------|--------|--------|--------|
D#|--------|--------|--------|--------|--------|--------|--------|--------|--------|


D#|--------|--------|--------|--------|--------|--------|--------|--------|--------|
A#|--------|--------|--------|--------|--------|--------|--------|--------|--------|
F#|--------|--------|--------|--------|--------|--------|--------|--------|--------|
C#|--------|--------|--------|--------|--------|--------|--------|--------|--------|
G#|--------|--------|--------|--------|--------|--------|--------|--------|--------|
D#|--------|--------|--------|--------|--------|--------|--------|--------|--------|


D#|------------------12-------------|--------------------------------|-------------|
A#|------------------12--------12---|--------------------------------|-------------|
F#|----------------------------12---|-----14--14--14-12--------------|-------------|
C#|------14-14-14-14-----14-14------|-14-----------------------------|-------------|
G#|------14-14-14-14-----14-14------|---------------------------12---|-12----------|
D#|---------------------------------|-------------------15--15-------|-------------|


D#|--------|--------|--------|--------|--------|------------3---3----|-3----3-----------------|
A#|--------|--------|--------|--------|--------|------3-----3---3----|-3----3---3---3----3----|
F#|--------|--------|--------|--------|--------|------5-----0---0----|-0----0---2---2----2----|
C#|--------|--------|--------|--------|--------|------5-----0---0----|-0----0---0---0----0----|
G#|--------|--------|--------|--------|--------|------3--------------|------------------------|
D#|--------|--------|--------|--------|--------|---------------------|------------------------|


D#|---------------------|------------------------------|----------------|-5--------------------------------------------------|
A#|---------------------|------------------------------|-----8---8------|----8--5-----5--------------------------------------|
F#|------2--------------|------------------------------|----------------|----------8-----8--7--5-----7-----5--6--------------|
C#|-7----2--------------|------------------------------|----------------|-------------------------7-----7--------7-5---------|
G#|-5----0--------------|----------2---2---2---2---2---|-2--------------|--------------------------------------------7-5-5---|
D#|---------------------|----------0---0---0---0---0---|-0--------------|----------------------------------------------------|


D#|-------------------------------------|-----10-8-------------------------------|
A#|-------------------------------------|-----------10-8--------------8--8--8----|
F#|--------------------------8--9--11---|-----------------9--8--7----------------|
C#|------7--7----------10-12------------|--------------------------10------------|
G#|-5----7--7------1012-----------------|----------------------------------------|
D#|------------1012---------------------|----------------------------------------|


D#|-------------------------------|-----------------------------|---------------------|
A#|-------------------------------|-----------------------------|------7-----7---7----|
F#|-------------------------------|-----------5----5------------|------7-----7---7----|
C#|---------------------------5---|-5---5--7-----------7---7----|---------------------|
G#|-9--------------3----5--7------|-----------------------------|---------------------|
D#|----------3--5-----------------|-----------------------------|---------------------|


D#|---------------------------|---------------------|-----17--17--17--17--22--22---|
A#|-5-------------------------|------17----17--17---|------------------------------|
F#|-5-------------------------|---------------------|------------------------------|
C#|---------------------------|---------------------|------------------------------|
G#|------5---4---3------------|---------------------|------------------------------|
D#|-------------------5---4---|-3-------------------|------------------------------|


D#|-----------------------------------------------|-------12----------------------------12---14--|
A#|--------------------------------------------12-|-12-15----15-12----------------12-15----------|
F#|-----------------------------------12-12-14----|----------------15-14-12-14-15----------------|
C#|-14-----------------------12-12-14-------------|----------------------------------------------|
G#|-----------------10-12-14----------------------|----------------------------------------------|
D#|-----10-12-10-12-------------------------------|----------------------------------------------|


D#|-----15----------|--------|--------|--------|--------|--------|--------|--------|
A#|-----------------|--------|--------|--------|--------|--------|--------|--------|
F#|-----------------|--------|--------|--------|--------|--------|--------|--------|
C#|-----------------|--------|--------|--------|--------|--------|--------|--------|
G#|-----------------|--------|--------|--------|--------|--------|--------|--------|
D#|-----------------|--------|--------|--------|--------|--------|--------|--------|


D#|--------|--------|--------|--------|-------------|--------|--------|--------|--------|
A#|--------|--------|--------|--------|-------------|--------|--------|--------|--------|
F#|--------|--------|--------|--------|-------------|--------|--------|--------|--------|
C#|--------|--------|--------|--------|-------------|--------|--------|--------|--------|
G#|--------|--------|--------|--------|-------------|--------|--------|--------|--------|
D#|--------|--------|--------|--------|-12----------|--------|--------|--------|--------|


D#|--------|--------|--------|--------|--------|--------|--------|--------|--------|
A#|--------|--------|--------|--------|--------|--------|--------|--------|--------|
F#|--------|--------|--------|--------|--------|--------|--------|--------|--------|
C#|--------|--------|--------|--------|--------|--------|--------|--------|--------|
G#|--------|--------|--------|--------|--------|--------|--------|--------|--------|
D#|--------|--------|--------|--------|--------|--------|--------|--------|--------|


D#|------15----15--15---|-15--15-12----12-------------12----------------|-------------|
A#|---------------------|-----------15----15-12----12----12-15-12-------|-------------|
F#|---------------------|-----------------------14----------------15-14-|-12----------|
C#|---------------------|-----------------------------------------------|-------------|
G#|---------------------|-----------------------------------------------|-------------|
D#|---------------------|-----------------------------------------------|-------------|


D#|--------|------20----20---20--|-19--17-----------------------------------|-------------|
A#|--------|---------------------|---------20--19--17------17--19-----------|-------------|
F#|--------|---------------------|---------------------19----------19--19---|-19----------|
C#|--------|---------------------|------------------------------------------|-------------|
G#|--------|---------------------|------------------------------------------|-------------|
D#|--------|---------------------|------------------------------------------|-------------|


D#|--------|--------|--------|--------|--------|--------|--------|
A#|--------|--------|--------|--------|--------|--------|--------|
F#|--------|--------|--------|--------|--------|--------|--------|
C#|--------|--------|--------|--------|--------|--------|--------|
G#|--------|--------|--------|--------|--------|--------|--------|
D#|--------|--------|--------|--------|--------|--------|--------|





Track 9: Slide Intro

D#|--------|--------|--------|--------|--------|--------|--------|--------|--------|
A#|--------|--------|--------|--------|--------|--------|--------|--------|--------|
F#|--------|--------|--------|--------|--------|--------|--------|--------|--------|
C#|--------|--------|--------|--------|--------|--------|--------|--------|--------|
G#|--------|--------|--------|--------|--------|--------|--------|--------|--------|
D#|--------|--------|--------|--------|--------|--------|--------|--------|--------|


D#|--------|--------|--------|--------|--------|--------|--------|--------|--------|
A#|--------|--------|--------|--------|--------|--------|--------|--------|--------|
F#|--------|--------|--------|--------|--------|--------|--------|--------|--------|
C#|--------|--------|--------|--------|--------|--------|--------|--------|--------|
G#|--------|--------|--------|--------|--------|--------|--------|--------|--------|
D#|--------|--------|--------|--------|--------|--------|--------|--------|--------|


D#|--------|--------|--------|--------|--------|--------|--------|--------|--------|
A#|--------|--------|--------|--------|--------|--------|--------|--------|--------|
F#|--------|--------|--------|--------|--------|--------|--------|--------|--------|
C#|--------|--------|--------|--------|--------|--------|--------|--------|--------|
G#|--------|--------|--------|--------|--------|--------|--------|--------|--------|
D#|--------|--------|--------|--------|--------|--------|--------|--------|--------|


D#|--------|--------|--------|--------|--------|--------|--------|--------|--------|
A#|--------|--------|--------|--------|--------|--------|--------|--------|--------|
F#|--------|--------|--------|--------|--------|--------|--------|--------|--------|
C#|--------|--------|--------|--------|--------|--------|--------|--------|--------|
G#|--------|--------|--------|--------|--------|--------|--------|--------|--------|
D#|--------|--------|--------|--------|--------|--------|--------|--------|--------|


D#|--------|--------|--------|--------|--------|--------|--------|--------|--------|
A#|--------|--------|--------|--------|--------|--------|--------|--------|--------|
F#|--------|--------|--------|--------|--------|--------|--------|--------|--------|
C#|--------|--------|--------|--------|--------|--------|--------|--------|--------|
G#|--------|--------|--------|--------|--------|--------|--------|--------|--------|
D#|--------|--------|--------|--------|--------|--------|--------|--------|--------|


D#|--------|--------|--------|--------|--------------------------------------|-15--15-12-------17--17---17---|
A#|--------|--------|--------|--------|----------------------15--15-12-------|-----------15-12---------------|
F#|--------|--------|--------|--------|------14--14-12-----------------14-12-|-------------------------------|
C#|--------|--------|--------|--------|----------------14-12-----------------|-------------------------------|
G#|--------|--------|--------|--------|--------------------------------------|-------------------------------|
D#|--------|--------|--------|--------|--------------------------------------|-------------------------------|


D#|--------|--------|--------|--------|--------|--------|--------|--------|--------|
A#|--------|--------|--------|--------|--------|--------|--------|--------|--------|
F#|--------|--------|--------|--------|--------|--------|--------|--------|--------|
C#|--------|--------|--------|--------|--------|--------|--------|--------|--------|
G#|--------|--------|--------|--------|--------|--------|--------|--------|--------|
D#|--------|--------|--------|--------|--------|--------|--------|--------|--------|


D#|--------|--------|--------|--------|--------|--------|--------|--------|--------|
A#|--------|--------|--------|--------|--------|--------|--------|--------|--------|
F#|--------|--------|--------|--------|--------|--------|--------|--------|--------|
C#|--------|--------|--------|--------|--------|--------|--------|--------|--------|
G#|--------|--------|--------|--------|--------|--------|--------|--------|--------|
D#|--------|--------|--------|--------|--------|--------|--------|--------|--------|


D#|--------|--------|--------|--------|--------|--------|--------|--------|--------|
A#|--------|--------|--------|--------|--------|--------|--------|--------|--------|
F#|--------|--------|--------|--------|--------|--------|--------|--------|--------|
C#|--------|--------|--------|--------|--------|--------|--------|--------|--------|
G#|--------|--------|--------|--------|--------|--------|--------|--------|--------|
D#|--------|--------|--------|--------|--------|--------|--------|--------|--------|


D#|--------|--------|--------|--------|--------|--------|--------|--------|--------|
A#|--------|--------|--------|--------|--------|--------|--------|--------|--------|
F#|--------|--------|--------|--------|--------|--------|--------|--------|--------|
C#|--------|--------|--------|--------|--------|--------|--------|--------|--------|
G#|--------|--------|--------|--------|--------|--------|--------|--------|--------|
D#|--------|--------|--------|--------|--------|--------|--------|--------|--------|


D#|--------|--------|--------|--------|--------|--------|--------|--------|--------|
A#|--------|--------|--------|--------|--------|--------|--------|--------|--------|
F#|--------|--------|--------|--------|--------|--------|--------|--------|--------|
C#|--------|--------|--------|--------|--------|--------|--------|--------|--------|
G#|--------|--------|--------|--------|--------|--------|--------|--------|--------|
D#|--------|--------|--------|--------|--------|--------|--------|--------|--------|


D#|--------|--------|--------|--------|--------|--------|--------|--------|--------|
A#|--------|--------|--------|--------|--------|--------|--------|--------|--------|
F#|--------|--------|--------|--------|--------|--------|--------|--------|--------|
C#|--------|--------|--------|--------|--------|--------|--------|--------|--------|
G#|--------|--------|--------|--------|--------|--------|--------|--------|--------|
D#|--------|--------|--------|--------|--------|--------|--------|--------|--------|


D#|--------|--------|--------|--------|--------|--------|--------|--------|--------|
A#|--------|--------|--------|--------|--------|--------|--------|--------|--------|
F#|--------|--------|--------|--------|--------|--------|--------|--------|--------|
C#|--------|--------|--------|--------|--------|--------|--------|--------|--------|
G#|--------|--------|--------|--------|--------|--------|--------|--------|--------|
D#|--------|--------|--------|--------|--------|--------|--------|--------|--------|


D#|--------|--------|--------|--------|--------|--------|--------|--------|--------|
A#|--------|--------|--------|--------|--------|--------|--------|--------|--------|
F#|--------|--------|--------|--------|--------|--------|--------|--------|--------|
C#|--------|--------|--------|--------|--------|--------|--------|--------|--------|
G#|--------|--------|--------|--------|--------|--------|--------|--------|--------|
D#|--------|--------|--------|--------|--------|--------|--------|--------|--------|


D#|--------|--------|--------|--------|
A#|--------|--------|--------|--------|
F#|--------|--------|--------|--------|
C#|--------|--------|--------|--------|
G#|--------|--------|--------|--------|
D#|--------|--------|--------|--------|





Track 10: Slide Intro

D#|--------|--------|--------|--------|--------|--------|--------|--------|--------|
A#|--------|--------|--------|--------|--------|--------|--------|--------|--------|
F#|--------|--------|--------|--------|--------|--------|--------|--------|--------|
C#|--------|--------|--------|--------|--------|--------|--------|--------|--------|
G#|--------|--------|--------|--------|--------|--------|--------|--------|--------|
D#|--------|--------|--------|--------|--------|--------|--------|--------|--------|


D#|--------|--------|--------|--------|--------|--------|--------|--------|--------|
A#|--------|--------|--------|--------|--------|--------|--------|--------|--------|
F#|--------|--------|--------|--------|--------|--------|--------|--------|--------|
C#|--------|--------|--------|--------|--------|--------|--------|--------|--------|
G#|--------|--------|--------|--------|--------|--------|--------|--------|--------|
D#|--------|--------|--------|--------|--------|--------|--------|--------|--------|


D#|--------|--------|--------|--------|--------|--------|--------|--------|--------|
A#|--------|--------|--------|--------|--------|--------|--------|--------|--------|
F#|--------|--------|--------|--------|--------|--------|--------|--------|--------|
C#|--------|--------|--------|--------|--------|--------|--------|--------|--------|
G#|--------|--------|--------|--------|--------|--------|--------|--------|--------|
D#|--------|--------|--------|--------|--------|--------|--------|--------|--------|


D#|--------|--------|--------|--------|--------|--------|--------|--------|--------|
A#|--------|--------|--------|--------|--------|--------|--------|--------|--------|
F#|--------|--------|--------|--------|--------|--------|--------|--------|--------|
C#|--------|--------|--------|--------|--------|--------|--------|--------|--------|
G#|--------|--------|--------|--------|--------|--------|--------|--------|--------|
D#|--------|--------|--------|--------|--------|--------|--------|--------|--------|


D#|--------|--------|--------|--------|--------|--------|--------|--------|--------|
A#|--------|--------|--------|--------|--------|--------|--------|--------|--------|
F#|--------|--------|--------|--------|--------|--------|--------|--------|--------|
C#|--------|--------|--------|--------|--------|--------|--------|--------|--------|
G#|--------|--------|--------|--------|--------|--------|--------|--------|--------|
D#|--------|--------|--------|--------|--------|--------|--------|--------|--------|


D#|--------|--------|--------|--------|--------|--------|--------|--------|--------|
A#|--------|--------|--------|--------|--------|--------|--------|--------|--------|
F#|--------|--------|--------|--------|--------|--------|--------|--------|--------|
C#|--------|--------|--------|--------|--------|--------|--------|--------|--------|
G#|--------|--------|--------|--------|--------|--------|--------|--------|--------|
D#|--------|--------|--------|--------|--------|--------|--------|--------|--------|


D#|--------|--------|--------|--------|--------|--------|--------|--------|--------|
A#|--------|--------|--------|--------|--------|--------|--------|--------|--------|
F#|--------|--------|--------|--------|--------|--------|--------|--------|--------|
C#|--------|--------|--------|--------|--------|--------|--------|--------|--------|
G#|--------|--------|--------|--------|--------|--------|--------|--------|--------|
D#|--------|--------|--------|--------|--------|--------|--------|--------|--------|


D#|--------|--------|--------|--------|--------|--------|--------|--------|--------|
A#|--------|--------|--------|--------|--------|--------|--------|--------|--------|
F#|--------|--------|--------|--------|--------|--------|--------|--------|--------|
C#|--------|--------|--------|--------|--------|--------|--------|--------|--------|
G#|--------|--------|--------|--------|--------|--------|--------|--------|--------|
D#|--------|--------|--------|--------|--------|--------|--------|--------|--------|


D#|--------|--------|--------|--------|--------|--------|--------|--------|--------|
A#|--------|--------|--------|--------|--------|--------|--------|--------|--------|
F#|--------|--------|--------|--------|--------|--------|--------|--------|--------|
C#|--------|--------|--------|--------|--------|--------|--------|--------|--------|
G#|--------|--------|--------|--------|--------|--------|--------|--------|--------|
D#|--------|--------|--------|--------|--------|--------|--------|--------|--------|


D#|--------|--------|--------|--------|--------|--------|------17-----|-17--15--15-----|
A#|--------|--------|--------|--------|--------|--------|-------------|----------------|
F#|--------|--------|--------|--------|--------|--------|-------------|----------------|
C#|--------|--------|--------|--------|--------|--------|-------------|----------------|
G#|--------|--------|--------|--------|--------|--------|-------------|----------------|
D#|--------|--------|--------|--------|--------|--------|-------------|----------------|


D#|-15--12--12-----|------12---------|------------------------------|---------------------------------|
A#|----------------|-----------------|------------------------------|---------------------------------|
F#|----------------|-----------------|--------------12----------12--|---------12----------------------|
C#|----------------|-----------------|----------14----------12------|-----16----------16--17--17--16--|
G#|----------------|-----------------|------12----------15----------|-17----------17------------------|
D#|----------------|-----------------|------------------------------|---------------------------------|


D#|---------------------------------|------------------------------|------------------------------|
A#|---------------------------------|------------------------------|------------------------------|
F#|-----------------12----------12--|------------------------------|--------------12----------12--|
C#|-------------14----------12------|-----16--17------16--17--19---|-19-------14----------12------|
G#|-17--15--12----------15----------|-17----------17---------------|------12----------15----------|
D#|---------------------------------|------------------------------|------------------------------|


D#|---------------------------------|---------------------------------|------------------------|
A#|---------------------------------|---------------------------------|------------------------|
F#|---------12----------------------|-----------------12----------12--|-------------12---------|
C#|-----16----------16--17--17--16--|-------------14----------12------|-----16--17--12---------|
G#|-17----------17------------------|-17--15--12----------15----------|-17----------14---------|
D#|---------------------------------|---------------------------------|------------------------|


D#|--------|--------|--------|--------|--------|--------|--------|--------|--------|
A#|--------|--------|--------|--------|--------|--------|--------|--------|--------|
F#|--------|--------|--------|--------|--------|--------|--------|--------|--------|
C#|--------|--------|--------|--------|--------|--------|--------|--------|--------|
G#|--------|--------|--------|--------|--------|--------|--------|--------|--------|
D#|--------|--------|--------|--------|--------|--------|--------|--------|--------|


D#|--------|--------|--------|--------|--------|--------|--------|--------|--------|
A#|--------|--------|--------|--------|--------|--------|--------|--------|--------|
F#|--------|--------|--------|--------|--------|--------|--------|--------|--------|
C#|--------|--------|--------|--------|--------|--------|--------|--------|--------|
G#|--------|--------|--------|--------|--------|--------|--------|--------|--------|
D#|--------|--------|--------|--------|--------|--------|--------|--------|--------|


D#|--------|--------|--------|--------|--------|--------|--------|--------|--------|
A#|--------|--------|--------|--------|--------|--------|--------|--------|--------|
F#|--------|--------|--------|--------|--------|--------|--------|--------|--------|
C#|--------|--------|--------|--------|--------|--------|--------|--------|--------|
G#|--------|--------|--------|--------|--------|--------|--------|--------|--------|
D#|--------|--------|--------|--------|--------|--------|--------|--------|--------|


D#|--------|
A#|--------|
F#|--------|
C#|--------|
G#|--------|
D#|--------|





Track 11: Slide Intro

D#|--------|--------|--------|--------|--------|--------|--------|--------|--------|
A#|--------|--------|--------|--------|--------|--------|--------|--------|--------|
F#|--------|--------|--------|--------|--------|--------|--------|--------|--------|
C#|--------|--------|--------|--------|--------|--------|--------|--------|--------|
G#|--------|--------|--------|--------|--------|--------|--------|--------|--------|
D#|--------|--------|--------|--------|--------|--------|--------|--------|--------|


D#|--------|--------|--------|--------|--------|--------|--------|--------|--------|
A#|--------|--------|--------|--------|--------|--------|--------|--------|--------|
F#|--------|--------|--------|--------|--------|--------|--------|--------|--------|
C#|--------|--------|--------|--------|--------|--------|--------|--------|--------|
G#|--------|--------|--------|--------|--------|--------|--------|--------|--------|
D#|--------|--------|--------|--------|--------|--------|--------|--------|--------|


D#|--------|--------|--------|--------|--------|--------|--------|--------|--------|
A#|--------|--------|--------|--------|--------|--------|--------|--------|--------|
F#|--------|--------|--------|--------|--------|--------|--------|--------|--------|
C#|--------|--------|--------|--------|--------|--------|--------|--------|--------|
G#|--------|--------|--------|--------|--------|--------|--------|--------|--------|
D#|--------|--------|--------|--------|--------|--------|--------|--------|--------|


D#|--------|--------|--------|--------|--------|--------|--------|--------|--------|
A#|--------|--------|--------|--------|--------|--------|--------|--------|--------|
F#|--------|--------|--------|--------|--------|--------|--------|--------|--------|
C#|--------|--------|--------|--------|--------|--------|--------|--------|--------|
G#|--------|--------|--------|--------|--------|--------|--------|--------|--------|
D#|--------|--------|--------|--------|--------|--------|--------|--------|--------|


D#|--------|--------|--------|--------|--------|--------|--------|--------|--------|
A#|--------|--------|--------|--------|--------|--------|--------|--------|--------|
F#|--------|--------|--------|--------|--------|--------|--------|--------|--------|
C#|--------|--------|--------|--------|--------|--------|--------|--------|--------|
G#|--------|--------|--------|--------|--------|--------|--------|--------|--------|
D#|--------|--------|--------|--------|--------|--------|--------|--------|--------|


D#|--------|--------|--------|--------|--------|--------|--------|--------|--------|
A#|--------|--------|--------|--------|--------|--------|--------|--------|--------|
F#|--------|--------|--------|--------|--------|--------|--------|--------|--------|
C#|--------|--------|--------|--------|--------|--------|--------|--------|--------|
G#|--------|--------|--------|--------|--------|--------|--------|--------|--------|
D#|--------|--------|--------|--------|--------|--------|--------|--------|--------|


D#|--------|--------|--------|--------|--------|--------|--------|--------|--------|
A#|--------|--------|--------|--------|--------|--------|--------|--------|--------|
F#|--------|--------|--------|--------|--------|--------|--------|--------|--------|
C#|--------|--------|--------|--------|--------|--------|--------|--------|--------|
G#|--------|--------|--------|--------|--------|--------|--------|--------|--------|
D#|--------|--------|--------|--------|--------|--------|--------|--------|--------|


D#|--------|--------|--------|--------|--------|--------|--------|--------|--------|
A#|--------|--------|--------|--------|--------|--------|--------|--------|--------|
F#|--------|--------|--------|--------|--------|--------|--------|--------|--------|
C#|--------|--------|--------|--------|--------|--------|--------|--------|--------|
G#|--------|--------|--------|--------|--------|--------|--------|--------|--------|
D#|--------|--------|--------|--------|--------|--------|--------|--------|--------|


D#|--------|--------|--------|--------|--------|--------|--------|--------|--------|
A#|--------|--------|--------|--------|--------|--------|--------|--------|--------|
F#|--------|--------|--------|--------|--------|--------|--------|--------|--------|
C#|--------|--------|--------|--------|--------|--------|--------|--------|--------|
G#|--------|--------|--------|--------|--------|--------|--------|--------|--------|
D#|--------|--------|--------|--------|--------|--------|--------|--------|--------|


D#|--------|--------|--------|--------|--------|--------|-------------|-----------------|
A#|--------|--------|--------|--------|--------|--------|-------------|-----------------|
F#|--------|--------|--------|--------|--------|--------|-------------|-----------------|
C#|--------|--------|--------|--------|--------|--------|-------------|-----------------|
G#|--------|--------|--------|--------|--------|--------|-------------|-----------------|
D#|--------|--------|--------|--------|--------|--------|-------------|-----------------|


D#|--------|--------|--------|--------|--------|--------|--------|--------|--------|
A#|--------|--------|--------|--------|--------|--------|--------|--------|--------|
F#|--------|--------|--------|--------|--------|--------|--------|--------|--------|
C#|--------|--------|--------|--------|--------|--------|--------|--------|--------|
G#|--------|--------|--------|--------|--------|--------|--------|--------|--------|
D#|--------|--------|--------|--------|--------|--------|--------|--------|--------|


D#|--------|--------|--------|--------|--------|--------|--------|--------|--------|
A#|--------|--------|--------|--------|--------|--------|--------|--------|--------|
F#|--------|--------|--------|--------|--------|--------|--------|--------|--------|
C#|--------|--------|--------|--------|--------|--------|--------|--------|--------|
G#|--------|--------|--------|--------|--------|--------|--------|--------|--------|
D#|--------|--------|--------|--------|--------|--------|--------|--------|--------|


D#|--------|--------|--------|--------|--------|--------|--------|--------|--------|
A#|--------|--------|--------|--------|--------|--------|--------|--------|--------|
F#|--------|--------|--------|--------|--------|--------|--------|--------|--------|
C#|--------|--------|--------|--------|--------|--------|--------|--------|--------|
G#|--------|--------|--------|--------|--------|--------|--------|--------|--------|
D#|--------|--------|--------|--------|--------|--------|--------|--------|--------|


D#|--------|--------|--------|--------|--------|--------|--------|--------|--------|
A#|--------|--------|--------|--------|--------|--------|--------|--------|--------|
F#|--------|--------|--------|--------|--------|--------|--------|--------|--------|
C#|--------|--------|--------|--------|--------|--------|--------|--------|--------|
G#|--------|--------|--------|--------|--------|--------|--------|--------|--------|
D#|--------|--------|--------|--------|--------|--------|--------|--------|--------|


D#|--------|--------|
A#|--------|--------|
F#|--------|--------|
C#|--------|--------|
G#|--------|--------|
D#|--------|--------|





Track 12: Slide Intro

D#|--------|--------|--------|--------|--------|--------|--------|--------|--------|
A#|--------|--------|--------|--------|--------|--------|--------|--------|--------|
F#|--------|--------|--------|--------|--------|--------|--------|--------|--------|
C#|--------|--------|--------|--------|--------|--------|--------|--------|--------|
G#|--------|--------|--------|--------|--------|--------|--------|--------|--------|
D#|--------|--------|--------|--------|--------|--------|--------|--------|--------|


D#|--------|--------|--------|--------|--------|--------|--------|--------|--------|
A#|--------|--------|--------|--------|--------|--------|--------|--------|--------|
F#|--------|--------|--------|--------|--------|--------|--------|--------|--------|
C#|--------|--------|--------|--------|--------|--------|--------|--------|--------|
G#|--------|--------|--------|--------|--------|--------|--------|--------|--------|
D#|--------|--------|--------|--------|--------|--------|--------|--------|--------|


D#|--------|--------|--------|--------|--------|--------|--------|--------|--------|
A#|--------|--------|--------|--------|--------|--------|--------|--------|--------|
F#|--------|--------|--------|--------|--------|--------|--------|--------|--------|
C#|--------|--------|--------|--------|--------|--------|--------|--------|--------|
G#|--------|--------|--------|--------|--------|--------|--------|--------|--------|
D#|--------|--------|--------|--------|--------|--------|--------|--------|--------|


D#|--------|--------|--------|--------|--------|--------|--------|--------|--------|
A#|--------|--------|--------|--------|--------|--------|--------|--------|--------|
F#|--------|--------|--------|--------|--------|--------|--------|--------|--------|
C#|--------|--------|--------|--------|--------|--------|--------|--------|--------|
G#|--------|--------|--------|--------|--------|--------|--------|--------|--------|
D#|--------|--------|--------|--------|--------|--------|--------|--------|--------|


D#|--------|--------|--------|--------|--------|--------|--------|--------|--------|
A#|--------|--------|--------|--------|--------|--------|--------|--------|--------|
F#|--------|--------|--------|--------|--------|--------|--------|--------|--------|
C#|--------|--------|--------|--------|--------|--------|--------|--------|--------|
G#|--------|--------|--------|--------|--------|--------|--------|--------|--------|
D#|--------|--------|--------|--------|--------|--------|--------|--------|--------|


D#|--------|--------|--------|--------|--------|--------|--------|--------|--------|
A#|--------|--------|--------|--------|--------|--------|--------|--------|--------|
F#|--------|--------|--------|--------|--------|--------|--------|--------|--------|
C#|--------|--------|--------|--------|--------|--------|--------|--------|--------|
G#|--------|--------|--------|--------|--------|--------|--------|--------|--------|
D#|--------|--------|--------|--------|--------|--------|--------|--------|--------|


D#|--------|--------|--------|--------|--------|--------|--------|--------|--------|
A#|--------|--------|--------|--------|--------|--------|--------|--------|--------|
F#|--------|--------|--------|--------|--------|--------|--------|--------|--------|
C#|--------|--------|--------|--------|--------|--------|--------|--------|--------|
G#|--------|--------|--------|--------|--------|--------|--------|--------|--------|
D#|--------|--------|--------|--------|--------|--------|--------|--------|--------|


D#|--------|--------|--------|--------|--------|--------|--------|--------|--------|
A#|--------|--------|--------|--------|--------|--------|--------|--------|--------|
F#|--------|--------|--------|--------|--------|--------|--------|--------|--------|
C#|--------|--------|--------|--------|--------|--------|--------|--------|--------|
G#|--------|--------|--------|--------|--------|--------|--------|--------|--------|
D#|--------|--------|--------|--------|--------|--------|--------|--------|--------|


D#|--------|--------|--------|--------|--------|--------|--------|--------|--------|
A#|--------|--------|--------|--------|--------|--------|--------|--------|--------|
F#|--------|--------|--------|--------|--------|--------|--------|--------|--------|
C#|--------|--------|--------|--------|--------|--------|--------|--------|--------|
G#|--------|--------|--------|--------|--------|--------|--------|--------|--------|
D#|--------|--------|--------|--------|--------|--------|--------|--------|--------|


D#|--------|--------|--------|--------|--------|--------|--------|--------|--------|
A#|--------|--------|--------|--------|--------|--------|--------|--------|--------|
F#|--------|--------|--------|--------|--------|--------|--------|--------|--------|
C#|--------|--------|--------|--------|--------|--------|--------|--------|--------|
G#|--------|--------|--------|--------|--------|--------|--------|--------|--------|
D#|--------|--------|--------|--------|--------|--------|--------|--------|--------|


D#|--------|--------|--------|--------|--------|--------|--------|--------|-------------|
A#|--------|--------|--------|--------|--------|--------|--------|--------|-------------|
F#|--------|--------|--------|--------|--------|--------|--------|--------|-------------|
C#|--------|--------|--------|--------|--------|--------|--------|--------|-------------|
G#|--------|--------|--------|--------|--------|--------|--------|--------|-------------|
D#|--------|--------|--------|--------|--------|--------|--------|--------|-------------|


D#|--------|--------|--------|--------|--------|--------|--------|--------|--------|
A#|--------|--------|--------|--------|--------|--------|--------|--------|--------|
F#|--------|--------|--------|--------|--------|--------|--------|--------|--------|
C#|--------|--------|--------|--------|--------|--------|--------|--------|--------|
G#|--------|--------|--------|--------|--------|--------|--------|--------|--------|
D#|--------|--------|--------|--------|--------|--------|--------|--------|--------|


D#|--------|--------|--------|--------|--------|--------|--------|--------|--------|
A#|--------|--------|--------|--------|--------|--------|--------|--------|--------|
F#|--------|--------|--------|--------|--------|--------|--------|--------|--------|
C#|--------|--------|--------|--------|--------|--------|--------|--------|--------|
G#|--------|--------|--------|--------|--------|--------|--------|--------|--------|
D#|--------|--------|--------|--------|--------|--------|--------|--------|--------|


D#|--------|--------|--------|--------|--------|--------|--------|--------|--------|
A#|--------|--------|--------|--------|--------|--------|--------|--------|--------|
F#|--------|--------|--------|--------|--------|--------|--------|--------|--------|
C#|--------|--------|--------|--------|--------|--------|--------|--------|--------|
G#|--------|--------|--------|--------|--------|--------|--------|--------|--------|
D#|--------|--------|--------|--------|--------|--------|--------|--------|--------|


D#|--------|
A#|--------|
F#|--------|
C#|--------|
G#|--------|
D#|--------|





Track 13: Slide Intro

D#|--------|--------|--------|--------|--------|--------|--------|--------|--------|
A#|--------|--------|--------|--------|--------|--------|--------|--------|--------|
F#|--------|--------|--------|--------|--------|--------|--------|--------|--------|
C#|--------|--------|--------|--------|--------|--------|--------|--------|--------|
G#|--------|--------|--------|--------|--------|--------|--------|--------|--------|
D#|--------|--------|--------|--------|--------|--------|--------|--------|--------|


D#|--------|--------|--------|--------|--------|--------|--------|--------|--------|
A#|--------|--------|--------|--------|--------|--------|--------|--------|--------|
F#|--------|--------|--------|--------|--------|--------|--------|--------|--------|
C#|--------|--------|--------|--------|--------|--------|--------|--------|--------|
G#|--------|--------|--------|--------|--------|--------|--------|--------|--------|
D#|--------|--------|--------|--------|--------|--------|--------|--------|--------|


D#|--------|--------|--------|--------|--------|--------|--------|--------|--------|
A#|--------|--------|--------|--------|--------|--------|--------|--------|--------|
F#|--------|--------|--------|--------|--------|--------|--------|--------|--------|
C#|--------|--------|--------|--------|--------|--------|--------|--------|--------|
G#|--------|--------|--------|--------|--------|--------|--------|--------|--------|
D#|--------|--------|--------|--------|--------|--------|--------|--------|--------|


D#|--------|--------|--------|--------|--------|--------|--------|--------|--------|
A#|--------|--------|--------|--------|--------|--------|--------|--------|--------|
F#|--------|--------|--------|--------|--------|--------|--------|--------|--------|
C#|--------|--------|--------|--------|--------|--------|--------|--------|--------|
G#|--------|--------|--------|--------|--------|--------|--------|--------|--------|
D#|--------|--------|--------|--------|--------|--------|--------|--------|--------|


D#|--------|--------|--------|--------|--------|--------|--------|--------|--------|
A#|--------|--------|--------|--------|--------|--------|--------|--------|--------|
F#|--------|--------|--------|--------|--------|--------|--------|--------|--------|
C#|--------|--------|--------|--------|--------|--------|--------|--------|--------|
G#|--------|--------|--------|--------|--------|--------|--------|--------|--------|
D#|--------|--------|--------|--------|--------|--------|--------|--------|--------|


D#|--------|--------|--------|--------|--------|--------|--------|--------|--------|
A#|--------|--------|--------|--------|--------|--------|--------|--------|--------|
F#|--------|--------|--------|--------|--------|--------|--------|--------|--------|
C#|--------|--------|--------|--------|--------|--------|--------|--------|--------|
G#|--------|--------|--------|--------|--------|--------|--------|--------|--------|
D#|--------|--------|--------|--------|--------|--------|--------|--------|--------|


D#|--------|--------|--------|--------|--------|--------|--------|--------|--------|
A#|--------|--------|--------|--------|--------|--------|--------|--------|--------|
F#|--------|--------|--------|--------|--------|--------|--------|--------|--------|
C#|--------|--------|--------|--------|--------|--------|--------|--------|--------|
G#|--------|--------|--------|--------|--------|--------|--------|--------|--------|
D#|--------|--------|--------|--------|--------|--------|--------|--------|--------|


D#|--------|--------|--------|--------|--------|--------|--------|--------|--------|
A#|--------|--------|--------|--------|--------|--------|--------|--------|--------|
F#|--------|--------|--------|--------|--------|--------|--------|--------|--------|
C#|--------|--------|--------|--------|--------|--------|--------|--------|--------|
G#|--------|--------|--------|--------|--------|--------|--------|--------|--------|
D#|--------|--------|--------|--------|--------|--------|--------|--------|--------|


D#|--------|--------|--------|--------|--------|--------|--------|--------|--------|
A#|--------|--------|--------|--------|--------|--------|--------|--------|--------|
F#|--------|--------|--------|--------|--------|--------|--------|--------|--------|
C#|--------|--------|--------|--------|--------|--------|--------|--------|--------|
G#|--------|--------|--------|--------|--------|--------|--------|--------|--------|
D#|--------|--------|--------|--------|--------|--------|--------|--------|--------|


D#|--------|--------|--------|--------|--------|--------|--------|--------|--------|
A#|--------|--------|--------|--------|--------|--------|--------|--------|--------|
F#|--------|--------|--------|--------|--------|--------|--------|--------|--------|
C#|--------|--------|--------|--------|--------|--------|--------|--------|--------|
G#|--------|--------|--------|--------|--------|--------|--------|--------|--------|
D#|--------|--------|--------|--------|--------|--------|--------|--------|--------|


D#|--------|--------|--------|--------|--------|--------|--------|--------|-------------|
A#|--------|--------|--------|--------|--------|--------|--------|--------|-------------|
F#|--------|--------|--------|--------|--------|--------|--------|--------|-------------|
C#|--------|--------|--------|--------|--------|--------|--------|--------|-------------|
G#|--------|--------|--------|--------|--------|--------|--------|--------|--------10---|
D#|--------|--------|--------|--------|--------|--------|--------|--------|-------------|


D#|--------|--------|--------|--------|--------|--------|--------|--------|--------|
A#|--------|--------|--------|--------|--------|--------|--------|--------|--------|
F#|--------|--------|--------|--------|--------|--------|--------|--------|--------|
C#|--------|--------|--------|--------|--------|--------|--------|--------|--------|
G#|--------|--------|--------|--------|--------|--------|--------|--------|--------|
D#|--------|--------|--------|--------|--------|--------|--------|--------|--------|


D#|--------|--------|--------|--------|--------|--------|--------|--------|--------|
A#|--------|--------|--------|--------|--------|--------|--------|--------|--------|
F#|--------|--------|--------|--------|--------|--------|--------|--------|--------|
C#|--------|--------|--------|--------|--------|--------|--------|--------|--------|
G#|--------|--------|--------|--------|--------|--------|--------|--------|--------|
D#|--------|--------|--------|--------|--------|--------|--------|--------|--------|


D#|--------|--------|--------|--------|--------|--------|--------|--------|--------|
A#|--------|--------|--------|--------|--------|--------|--------|--------|--------|
F#|--------|--------|--------|--------|--------|--------|--------|--------|--------|
C#|--------|--------|--------|--------|--------|--------|--------|--------|--------|
G#|--------|--------|--------|--------|--------|--------|--------|--------|--------|
D#|--------|--------|--------|--------|--------|--------|--------|--------|--------|


D#|--------|
A#|--------|
F#|--------|
C#|--------|
G#|--------|
D#|--------|





Track 14: Untitled

F#|--------|--------|-----------------|-------------|-----------------|-------------|
C#|--------|--------|-----------------|-------------|-----------------|-------------|
G#|--------|--------|-----------------|-------------|-----------------|-------------|
C#|--------|--------|-----------------|-------------|-----------------|-------------|


F#|-----------------|-------------|-------------|-----------------|-------------|-------------|
C#|-----------------|-------------|-------------|-----------------|-------------|-------------|
G#|-----------------|-------------|-------------|-----------------|-------------|-------------|
C#|-----------------|-------------|-------------|-----------------|-------------|-------------|


F#|-------------|-------------|-------------|-----------------|-------------|-------------|
C#|-------------|-------------|-------------|-----------------|-------------|-------------|
G#|-------------|-------------|-------------|-----------------|-------------|-------------|
C#|-------------|-------------|-------------|-----------------|-------------|-------------|


F#|-------------|--------|-------------|-------------|-------------|-------------|
C#|-------------|--------|-------------|-------------|-------------|-------------|
G#|-------------|--------|-------------|-------------|-------------|-------------|
C#|-------------|--------|-------------|-------------|-------------|-------------|


F#|-------------|-------------|-------------|-------------|-------------|-------------|
C#|-------------|-------------|-------------|-------------|-------------|-------------|
G#|-------------|-------------|-------------|-------------|-------------|-------------|
C#|-------------|-------------|-------------|-------------|-------------|-------------|


F#|-------------|-----------------|------------------------------|---------------------------------|
C#|-------------|-----------------|------------------------------|---------------------------------|
G#|-------------|-----------------|------------------------------|---------------------------------|
C#|-------------|-----------------|-14---2---2---2---2---2---2---|-2---2---2---2---2---2---2---2---|


F#|---------------------------------|---------------------------------|------------------------------|
C#|---------------------------------|---------------------------------|------------------------------|
G#|---------------------------------|-----------------------------5---|------------------------------|
C#|-2---2---2---2---2---2---2---2---|-2---2---2---2---2---2---5-------|------2---2---2---2---2---2---|


F#|---------------------------------|---------------------------------|---------------------------------|
C#|---------------------------------|---------------------------------|---------------------------------|
G#|---------------------------------|---------------------------------|-----------------------------5---|
C#|-2---2---2---2---2---2---2---2---|-2---2---2---2---2---2---2---2---|-2---2---2---2---2---2---5-------|


F#|------------------------|------------------------|------------------------------|
C#|------------------------|------------------------|------------------------------|
G#|-5----3-----------------|----------5---5----5----|-5----------------------------|
C#|------------5---5---5---|-5----5-----------------|------2---2---2---2---2---2---|


F#|---------------------------------|------------------------|------------------------|
C#|---------------------------------|------------------------|------------------------|
G#|---------------------------------|------3-----------------|----------5---5----0----|
C#|-2---2---2---2---2---2---2---2---|-2----------5---5---5---|-5----5-----------------|


F#|------------------------------|---------------------------------|---------------------------------|
C#|------------------------------|---------------------------------|---------------------------------|
G#|-0----------------------------|---------------------------------|---------------------------------|
C#|------2---2---2---2---2---2---|-2---2---2---2---2---2---2---2---|-2---2---2---2---2---2---2---2---|


F#|---------------------------------|------------------------------|---------------------------------|
C#|---------------------------------|------------------------------|---------------------------------|
G#|-----------------------------5---|------------------------------|---------------------------------|
C#|-2---2---2---2---2---2---5-------|------2---2---2---2---2---2---|-2---2---2---2---2---2---2---2---|


F#|---------------------------------|---------------------------------|------------------------|
C#|---------------------------------|---------------------------------|------------------------|
G#|---------------------------------|-----------------------------5---|-5----3-----------------|
C#|-2---2---2---2---2---2---2---2---|-2---2---2---2---2---2---5-------|------------5---5---5---|


F#|------------------------|------------------------------|---------------------------------|
C#|------------------------|------------------------------|---------------------------------|
G#|----------5---5----5----|-5----------------------------|---------------------------------|
C#|-5----5-----------------|------2---2---2---2---2---2---|-2---2---2---2---2---2---2---2---|


F#|------------------------|------------------------|------------------------|------------------------|
C#|------------------------|------------------------|------------------------|------------------------|
G#|------3-----------------|----------5---5----0----|-0----3-----------------|----------5---5----5----|
C#|-2----------5---5---5---|-5----5-----------------|------------5---5---5---|-5----5-----------------|


F#|------------------------|--------------------------------|-7--9--7--9--------------------------|
C#|------------------------|--------------------------7--9--|-------------------------------------|
G#|-5----------3---3---3---|-3----3---7---7---5---5---------|-------------------------------------|
C#|------5-----------------|--------------------------------|-------------0---0---0---0---0---0---|


F#|---------------------------------|---------------------|------------------------------|
C#|---------------------------------|---------------------|------------------------------|
G#|---------------------5-----------|------0--------------|------------------------------|
C#|-0---0---0---0---0-------0---0---|-0-------------------|----------2---2---2---2---2---|


F#|---------------------------------|---------------------------------|---------------------------------|
C#|---------------------7-----------|-5---------------5-------5-------|-5---7---------------5-----------|
G#|---------0---0---0-------0---0---|-----0---0---0-------0-------7---|---------0---0---0-------0---0---|
C#|-2---2---------------------------|---------------------------------|---------------------------------|


F#|---------------------------------|------------------------------|---------------------------------|
C#|---------------------------------|------------------7-----------|-5-------------------------------|
G#|-0---0---0---0---3---4---5---7---|------0---0---0-------0---0---|-----0---0---0---0---0---0---0---|
C#|---------------------------------|------------------------------|---------------------------------|


F#|---------------------------------|---------------------------------|---------------------------------|
C#|---------------------5-----------|---------------------------------|---------------------------------|
G#|-0---0---0---0---0-------0---0---|-0---0---5---4---3---------------|---------------------------------|
C#|---------------------------------|---------------------0---7---6---|-5---2---2---2---2---2---2---2---|


F#|---------------------------------|---------------------------------|---------------------------------|
C#|---------------------------------|---------------------------------|---------------------------------|
G#|---------------------------------|---------------------------------|---------3----4----5----4----3---|
C#|-2---2---2---2---2---2---2---2---|-2---2---2---2---2---2---2---2---|-2---2---------------------------|


F#|-----------------|-----7---14-----|-14--14--14--12--12--12--12---|------12---------|
C#|-----------------|----------------|------------------------------|-----------------|
G#|-----0----0------|----------------|------------------------------|-----------------|
C#|-----------------|----------------|------------------------------|-----------------|


F#|-------------|-------------|-------------|-------------|-------------|-------------|
C#|-------------|-------------|-------------|-------------|-------------|-------------|
G#|-------------|-------------|-------------|-------------|-------------|-------------|
C#|-------------|-------------|-------------|-------------|-------------|-------------|


F#|---------------------------|---------------------------------|---------------------------------|
C#|---------------------------|---------------------------------|---------------------------------|
G#|---------------------------|---------------------------------|---------------------------------|
C#|------14---2---2---2---2---|-2---2---2---2---2---2---2---2---|-2---2---2---2---2---2---2---2---|


F#|---------------------------------|---------------------------|---------------------------------|
C#|---------------------------------|---------------------------|---------------------------------|
G#|---------------------------------|-----5---------------------|---------------------------------|
C#|-2---2---2---2---2---2---2---2---|-5---------2---2---2---2---|-2---2---2---2---2---2---2---2---|


F#|---------------------------|----------------------4---5---|-6---------------|---------------------------|
C#|---------------------------|------------------------------|-----------------|---------------------------|
G#|-----------------5-----5---|-5----5---0---0---0-----------|-------3---------|------------------5---5----|
C#|-2---2---2---2-------------|------------------------------|-------------5---|-5---5---5----5------------|


F#|---------------------|------------------------------|-----------7--9--7--9------------------|
C#|---------------------|------------------------------|-----7--9------------------------------|
G#|-5----5----------3---|-3---3---3----3---7---7---5---|-5-------------------------------------|
C#|-----------5---------|------------------------------|-----------------------0---0---0---0---|


F#|---------------------------------|---------------------------------|---------------------------------|
C#|---------------------------------|---------------------------------|---------------------------------|
G#|---------------------------------|---------------------------------|---------------------------------|
C#|-0---0---0---0---0---0---0---0---|-0---0---0---0---0---0---0---0---|-0---0---0---0---0---0---0---0---|


F#|------------------------------|------------------------------|---------9---7-------------------|
C#|------------------------------|------------------------------|-----9---------------------------|
G#|--------------------------3---|-3---3---3----3---7---7---5---|-5-------------------------------|
C#|-0---0---0---0---5----5-------|------------------------------|-----------------0---0---0---0---|


F#|---------------------------------|---------------------------------|---------------------------------|
C#|---------------------------------|---------------------------------|---------------------------------|
G#|---------------------------------|---------------------------------|-----------------------------5---|
C#|-0---0---0---0---0---0---0---0---|-0---0---0---0---0---0---0---0---|-0---0---0---0---0---0---0-------|


F#|------------------------|-----------------|-------------|-------------|-------------|
C#|------------------------|-----------------|-------------|-------------|-------------|
G#|--------------0---------|------0----------|-------------|-------------|-------------|
C#|-0---0---0--------------|-----------------|-------------|-------------|-------------|


F#|--------|--------|--------|--------|--------|--------|--------|--------|--------|
C#|--------|--------|--------|--------|--------|--------|--------|--------|--------|
G#|--------|--------|--------|--------|--------|--------|--------|--------|--------|
C#|--------|--------|--------|--------|--------|--------|--------|--------|--------|


F#|--------|
C#|--------|
G#|--------|
C#|--------|