Menu:

 

Search:

 

unique creation - the sunset:

 



Title: The Sunset
Artist: 
Album: UC 2004/2005
Author: Unique Creation


Track 1: Main guitar

E|-------------0---0---------------|-------------2---2---------------|-------------0---0---------------|
B|---------3---------------3-------|---------3---------------3-------|---------3---------------3-------|
G|-----3---------------3-------0---|-----2---------------2-------0---|-----3---------------3-------0---|
D|---------------------------------|-0-------------------------------|---------------------------------|
A|---------------------------------|---------------------------------|---------------------------------|
E|-3-------------------------------|---------------------------------|-3-------------------------------|


E|-------------2---2-------3--2------|-------------0---0---------------|-------------2---2---------------|
B|---------3---------------------3---|---------3---------------3-------|---------3---------------3-------|
G|-----2---------------2-------------|-----3---------------3-------0---|-----2---------------2-------0---|
D|-0---------------------------------|---------------------------------|-0-------------------------------|
A|-----------------------------------|---------------------------------|---------------------------------|
E|-----------------------------------|-3-------------------------------|---------------------------------|


E|-------------0---0---------------|-------------2---2-------3--2------|-------------0---0---------------|
B|---------3---------------3-------|---------3---------------------3---|---------3---------------3-------|
G|-----3---------------3-------0---|-----2---------------2-------------|-----3---------------3-------0---|
D|---------------------------------|-0---------------------------------|---------------------------------|
A|---------------------------------|-----------------------------------|---------------------------------|
E|-3-------------------------------|-----------------------------------|-3-------------------------------|


E|-------------2---2---------------|-------------0---0---------------|-------------2---2-------3--2------|
B|---------3---------------3-------|---------3---------------3-------|---------3---------------------3---|
G|-----2---------------2-------0---|-----3---------------3-------0---|-----2---------------2-------------|
D|-0-------------------------------|---------------------------------|-0---------------------------------|
A|---------------------------------|---------------------------------|-----------------------------------|
E|---------------------------------|-3-------------------------------|-----------------------------------|


E|-------------0---0---------------|-------------2---2---------------|-------------0---0---------------|
B|---------3---------------3-------|---------3---------------3-------|---------3---------------3-------|
G|-----3---------------3-------0---|-----2---------------2-------0---|-----3---------------3-------0---|
D|---------------------------------|-0-------------------------------|---------------------------------|
A|---------------------------------|---------------------------------|---------------------------------|
E|-3-------------------------------|---------------------------------|-3-------------------------------|


E|-------------0---------|-3------|-2------|-3------|---------------------------------|
B|---------2-------------|-3------|-3------|-3------|---------------------------------|
G|-----2-----------------|-0------|-2------|-0------|---------------------------------|
D|-0---------------------|-0------|-0------|-0------|-----------------2---2---2---2---|
A|-----------------------|-2------|--------|-2------|-0---0---0---0---0---0---0---0---|
E|-----------------------|-3------|--------|-3------|---------------------------------|


E|---------------------------------|-0----0----0---0---0---0---|-0----0----0---0---0---0---|
B|-----------------2---2---2---2---|-0----0----0---0---0---0---|-2----2----2---2---2---2---|
G|-2---2---2---2---2---2---2---2---|-0----0----0---0---0---0---|-2----2----2---2---2---2---|
D|-2---2---2---2---2---2---2---2---|-2----2----2---2---2---2---|-2----2----2---2---2---2---|
A|-0---0---0---0---0---0---0---0---|-2----2----2---2---2---2---|-0----0----0---0---0---0---|
E|---------------------------------|-0----0----0---0---0---0---|---------------------------|


E|-0----0----0---0---0---0---|-0----0----0---0---0---0---|-0----0----0---0---0---0---|
B|-0----0----0---0---0---0---|-2----2----2---2---2---2---|-0----0----0---0---0---0---|
G|-0----0----0---0---0---0---|-2----2----2---2---2---2---|-0----0----0---0---0---0---|
D|-2----2----2---2---2---2---|-2----2----2---2---2---2---|-2----2----2---2---2---2---|
A|-2----2----2---2---2---2---|-0----0----0---0---0---0---|-2----2----2---2---2---2---|
E|-0----0----0---0---0---0---|---------------------------|-0----0----0---0---0---0---|


E|-0----0----0---0---0---0---|-0----0----0---0---0---0---|-0---0---0---0---3-----|
B|-2----2----2---2---2---2---|-0----0----0---0---0---0---|-2---2---2---0---3-----|
G|-2----2----2---2---2---2---|-0----0----0---0---0---0---|-2---2---2---0---0-----|
D|-2----2----2---2---2---2---|-2----2----2---2---2---2---|-2---2---2-------0-----|
A|-0----0----0---0---0---0---|-2----2----2---2---2---2---|-0---0---0-------2-----|
E|---------------------------|-0----0----0---0---0---0---|-----------------3-----|


E|-------------------0---|-0---------------------------2---|-2---------------------------0---|
B|---------------3-------|---------3---------------3-------|---------3---------------3-------|
G|-----------3-----------|-----3-------0-------2-----------|-----2-------0-------3-----------|
D|-----------------------|-----------------0---------------|---------------------------------|
A|-----------------------|---------------------------------|---------------------------------|
E|-------3---------------|---------------------------------|-----------------3---------------|


E|-0---------------------------2---|-2-------3--2------------------0---|-0---------------------------2---|
B|---------3---------------3-------|---------------3-----------3-------|---------3---------------3-------|
G|-----3-------0-------2-----------|-----2-----------------3-----------|-----3-------0-------2-----------|
D|-----------------0---------------|-----------------------------------|-----------------0---------------|
A|---------------------------------|-----------------------------------|---------------------------------|
E|---------------------------------|-------------------3---------------|---------------------------------|


E|-2---------------------------0---|-0---------------------------2---|-2-------3--2------------------0---|
B|---------3---------------3-------|---------3---------------3-------|---------------3-----------3-------|
G|-----2-------0-------3-----------|-----3-------0-------2-----------|-----2-----------------3-----------|
D|---------------------------------|-----------------0---------------|-----------------------------------|
A|---------------------------------|---------------------------------|-----------------------------------|
E|-----------------3---------------|---------------------------------|-------------------3---------------|


E|-0---------------------------2---|-2---------------------------0---|-0---------------------------0---|
B|---------3---------------3-------|---------3---------------3-------|---------3---------------2-------|
G|-----3-------0-------2-----------|-----2-------0-------3-----------|-----3-------0-------2-----------|
D|-----------------0---------------|---------------------------------|-----------------0---------------|
A|---------------------------------|---------------------------------|---------------------------------|
E|---------------------------------|-----------------3---------------|---------------------------------|


E|-----------3-----|-------2-----|-------3-----|-----------------------|---------------------------------|
B|-----------3-----|-------3-----|-------3-----|-----------------------|---------------------------------|
G|-----------0-----|-------2-----|-------0-----|-----------------------|-----------------2---2---2---2---|
D|-----------0-----|-------0-----|-------0-----|-----------------------|-2---2---2---2---2---2---2---2---|
A|-----------2-----|-------------|-------2-----|-------0---0---0---0---|-0---0---0---0---0---0---0---0---|
E|-----------3-----|-------------|-------3-----|-----------------------|---------------------------------|


E|-----------------0----0----|-0---0---0---0---0----0----|-0---0---0---0---0----0----|
B|-2---2---2---2---0----0----|-0---0---0---0---2----2----|-2---2---2---2---0----0----|
G|-2---2---2---2---0----0----|-0---0---0---0---2----2----|-2---2---2---2---0----0----|
D|-2---2---2---2---2----2----|-2---2---2---2---2----2----|-2---2---2---2---2----2----|
A|-0---0---0---0---2----2----|-2---2---2---2---0----0----|-0---0---0---0---2----2----|
E|-----------------0----0----|-0---0---0---0-------------|-----------------0----0----|


E|-0---0---0---0---0----0----|-0---0---0---0---0----0----|-0---0---0---0---0----0----|
B|-0---0---0---0---2----2----|-2---2---2---2---0----0----|-0---0---0---0---2----2----|
G|-0---0---0---0---2----2----|-2---2---2---2---0----0----|-0---0---0---0---2----2----|
D|-2---2---2---2---2----2----|-2---2---2---2---2----2----|-2---2---2---2---2----2----|
A|-2---2---2---2---0----0----|-0---0---0---0---2----2----|-2---2---2---2---0----0----|
E|-0---0---0---0-------------|-----------------0----0----|-0---0---0---0-------------|


E|-0---0---0---0---0----0----|-0---0---0---0---0---0---0---0---|-3------|-12-----12-10--12--10-----------|
B|-2---2---2---2---0----0----|-0---0---0---0---2---2---2---0---|-3------|-----------------------10--10---|
G|-2---2---2---2---0----0----|-0---0---0---0---2---2---2---0---|-0------|--------------------------------|
D|-2---2---2---2---2----2----|-2---2---2---2---2---2---2-------|-0------|--------------------------------|
A|-0---0---0---0---2----2----|-2---2---2---2---0---0---0-------|-2------|--------------------------------|
E|-----------------0----0----|-0---0---0---0-------------------|-3------|--------------------------------|


E|-10--9---9---9---10-9--10--12---|-12-----12-10--12--10-----------|-10--9--9--9--------------------|
B|--------------------------------|-----------------------10--10---|---------------10--8---10-------|
G|--------------------------------|--------------------------------|--------------------------------|
D|--------------------------------|--------------------------------|--------------------------------|
A|--------------------------------|--------------------------------|--------------------------------|
E|--------------------------------|--------------------------------|--------------------------------|


E|--------|--------|--------|--------0----|-0----0---0---0---0---0----|-0----0---0---0---0---0----|
B|--------|--------|--------|--------0----|-0----0---0---0---0---2----|-2----2---2---2---2---0----|
G|--------|--------|--------|--------0----|-0----0---0---0---0---2----|-2----2---2---2---2---0----|
D|--------|--------|--------|--------2----|-2----2---2---2---2---2----|-2----2---2---2---2---2----|
A|--------|--------|--------|--------2----|-2----2---2---2---2---0----|-0----0---0---0---0---2----|
E|--------|--------|--------|--------0----|-0----0---0---0---0--------|----------------------0----|


E|-0----0---0---0---0---0----|-0----0---0---0---0---0----|-0----0---0---0---0---0----|
B|-0----0---0---0---0---2----|-2----2---2---2---2---0----|-0----0---0---0---0---2----|
G|-0----0---0---0---0---2----|-2----2---2---2---2---0----|-0----0---0---0---0---2----|
D|-2----2---2---2---2---2----|-2----2---2---2---2---2----|-2----2---2---2---2---2----|
A|-2----2---2---2---2---0----|-0----0---0---0---0---2----|-2----2---2---2---2---0----|
E|-0----0---0---0---0--------|----------------------0----|-0----0---0---0---0--------|


E|-0----0---0---0---0---0----|-0----0---0---0---0---0---0---|-0---0---3------|------------------0---0-------|
B|-2----2---2---2---2---0----|-0----0---0---0---0---2---2---|-2---0---3------|--------------3---------------|
G|-2----2---2---2---2---0----|-0----0---0---0---0---2---2---|-2---0---0------|----------3---------------3---|
D|-2----2---2---2---2---2----|-2----2---2---2---2---2---2---|-2-------0------|------------------------------|
A|-0----0---0---0---0---2----|-2----2---2---2---2---0---0---|-0-------2------|------------------------------|
E|----------------------0----|-0----0---0---0---0-----------|---------3------|------3-----------------------|


E|---------------------2---2-------|---------------------0---0-------|---------------------2---2-------|
B|-3---------------3---------------|-3---------------3---------------|-3---------------3---------------|
G|-----0-------2---------------2---|-----0-------3---------------3---|-----0-------2---------------2---|
D|---------0-----------------------|---------------------------------|---------0-----------------------|
A|---------------------------------|---------------------------------|---------------------------------|
E|---------------------------------|---------3-----------------------|---------------------------------|


E|-3--2------------------0---0-------|---------------------2---2-------|---------------------0---0-------|
B|-------3-----------3---------------|-3---------------3---------------|-3---------------3---------------|
G|---------------3---------------3---|-----0-------2---------------2---|-----0-------3---------------3---|
D|-----------------------------------|---------0-----------------------|---------------------------------|
A|-----------------------------------|---------------------------------|---------------------------------|
E|-----------3-----------------------|---------------------------------|---------3-----------------------|


E|---------2------|--------|
B|-3-------3------|--------|
G|-----0---2------|--------|
D|---------0------|--------|
A|----------------|--------|
E|----------------|--------|





Track 2: Second guitar

E|--------|--------|--------|--------|-0---0---0---0----0---0---0---|-2---2---2---2----2---2---2---|
B|--------|--------|--------|--------|-3---3---3---3----3---3---3---|-3---3---3---3----3---3---3---|
G|--------|--------|--------|--------|-3---3---3---3----3---3---3---|-2---2---2---2----2---2---2---|
D|--------|--------|--------|--------|-0---0---0---0----0---0---0---|-0---0---0---0----0---0---0---|
A|--------|--------|--------|--------|-2---2---2---2----2---2---2---|------------------------------|
E|--------|--------|--------|--------|-3---3---3---3----3---3---3---|------------------------------|


E|-0---0---0---0----0---0---0---|-2---2---2---2----2---2---2---|-0---0---0---0----0---0---0---|
B|-3---3---3---3----3---3---3---|-3---3---3---3----3---3---3---|-3---3---3---3----3---3---3---|
G|-3---3---3---3----3---3---3---|-2---2---2---2----2---2---2---|-3---3---3---3----3---3---3---|
D|-0---0---0---0----0---0---0---|-0---0---0---0----0---0---0---|-0---0---0---0----0---0---0---|
A|-2---2---2---2----2---2---2---|------------------------------|-2---2---2---2----2---2---2---|
E|-3---3---3---3----3---3---3---|------------------------------|-3---3---3---3----3---3---3---|


E|-2---2---2---2----2---2---2---|-0---0---0---0----0---0---0---|-2---2---2---2----2---2---2---|
B|-3---3---3---3----3---3---3---|-3---3---3---3----3---3---3---|-3---3---3---3----3---3---3---|
G|-2---2---2---2----2---2---2---|-3---3---3---3----3---3---3---|-2---2---2---2----2---2---2---|
D|-0---0---0---0----0---0---0---|-0---0---0---0----0---0---0---|-0---0---0---0----0---0---0---|
A|------------------------------|-2---2---2---2----2---2---2---|------------------------------|
E|------------------------------|-3---3---3---3----3---3---3---|------------------------------|


E|-0---0---0---0----0---0---0---|-2---2---2---2----2---2---2---|-0---0---0---0----0---0---0---|
B|-3---3---3---3----3---3---3---|-3---3---3---3----3---3---3---|-3---3---3---3----3---3---3---|
G|-3---3---3---3----3---3---3---|-2---2---2---2----2---2---2---|-3---3---3---3----3---3---3---|
D|-0---0---0---0----0---0---0---|-0---0---0---0----0---0---0---|-0---0---0---0----0---0---0---|
A|-2---2---2---2----2---2---2---|------------------------------|-2---2---2---2----2---2---2---|
E|-3---3---3---3----3---3---3---|------------------------------|-3---3---3---3----3---3---3---|


E|-0---0---0---0----0---0---0---|--------|--------|--------|--------|--------|--------|
B|-2---2---2---2----2---2---2---|--------|--------|--------|--------|--------|--------|
G|-2---2---2---2----2---2---2---|--------|--------|--------|--------|--------|--------|
D|-2---2---2---2----2---2---2---|--------|--------|--------|--------|--------|--------|
A|-0---0---0---0----0---0---0---|--------|--------|--------|--------|--------|--------|
E|------------------------------|--------|--------|--------|--------|--------|--------|


E|--------|--------|--------|--------|--------|--------|--------|-------0---0---0---0---|
B|--------|--------|--------|--------|--------|--------|--------|-------3---3---3---3---|
G|--------|--------|--------|--------|--------|--------|--------|-------3---3---3---3---|
D|--------|--------|--------|--------|--------|--------|--------|-------0---0---0---0---|
A|--------|--------|--------|--------|--------|--------|--------|-------2---2---2---2---|
E|--------|--------|--------|--------|--------|--------|--------|-------3---3---3---3---|


E|-----0---0---0---2---2---2---2---|-----2---2---2---0---0---0---0---|-----0---0---0---2---2---2---2---|
B|-----3---3---3---3---3---3---3---|-----3---3---3---3---3---3---3---|-----3---3---3---3---3---3---3---|
G|-----3---3---3---2---2---2---2---|-----2---2---2---3---3---3---3---|-----3---3---3---2---2---2---2---|
D|-----0---0---0---0---0---0---0---|-----0---0---0---0---0---0---0---|-----0---0---0---0---0---0---0---|
A|-----2---2---2-------------------|-----------------2---2---2---2---|-----2---2---2-------------------|
E|-----3---3---3-------------------|-----------------3---3---3---3---|-----3---3---3-------------------|


E|-----2---2---2---0---0---0---0---|-----0---0---0---2---2---2---2---|-----2---2---2---0---0---0---0---|
B|-----3---3---3---3---3---3---3---|-----3---3---3---3---3---3---3---|-----3---3---3---3---3---3---3---|
G|-----2---2---2---3---3---3---3---|-----3---3---3---2---2---2---2---|-----2---2---2---3---3---3---3---|
D|-----0---0---0---0---0---0---0---|-----0---0---0---0---0---0---0---|-----0---0---0---0---0---0---0---|
A|-----------------2---2---2---2---|-----2---2---2-------------------|-----------------2---2---2---2---|
E|-----------------3---3---3---3---|-----3---3---3-------------------|-----------------3---3---3---3---|


E|-----0---0---0---2---2---2---2---|-----2---2---2---0---0---0---0---|-----0---0---0---2---2---2---2---|
B|-----3---3---3---3---3---3---3---|-----3---3---3---3---3---3---3---|-----3---3---3---3---3---3---3---|
G|-----3---3---3---2---2---2---2---|-----2---2---2---3---3---3---3---|-----3---3---3---2---2---2---2---|
D|-----0---0---0---0---0---0---0---|-----0---0---0---0---0---0---0---|-----0---0---0---0---0---0---0---|
A|-----2---2---2-------------------|-----------------2---2---2---2---|-----2---2---2-------------------|
E|-----3---3---3-------------------|-----------------3---3---3---3---|-----3---3---3-------------------|


E|-----2---2---2---0---0---0---0---|-----0---0---0---0---0---0---0---|-----0---0---0---------|
B|-----3---3---3---3---3---3---3---|-----3---3---3---2---2---2---2---|-----2---2---2---------|
G|-----2---2---2---3---3---3---3---|-----3---3---3---2---2---2---2---|-----2---2---2---------|
D|-----0---0---0---0---0---0---0---|-----0---0---0---2---2---2---2---|-----2---2---2---------|
A|-----------------2---2---2---2---|-----2---2---2---0---0---0---0---|-----0---0---0---------|
E|-----------------3---3---3---3---|-----3---3---3-------------------|-----------------------|


E|--------|--------|--------|--------|--------|--------|--------|--------|--------|
B|--------|--------|--------|--------|--------|--------|--------|--------|--------|
G|--------|--------|--------|--------|--------|--------|--------|--------|--------|
D|--------|--------|--------|--------|--------|--------|--------|--------|--------|
A|--------|--------|--------|--------|--------|--------|--------|--------|--------|
E|--------|--------|--------|--------|--------|--------|--------|--------|--------|


E|--------|--------|--------|--------|--------|--------|--------|--------|------0---0---0---0---0----|
B|--------|--------|--------|--------|--------|--------|--------|--------|------0---0---0---0---2----|
G|--------|--------|--------|--------|--------|--------|--------|--------|------0---0---0---0---2----|
D|--------|--------|--------|--------|--------|--------|--------|--------|------2---2---2---2---2----|
A|--------|--------|--------|--------|--------|--------|--------|--------|------2---2---2---2---0----|
E|--------|--------|--------|--------|--------|--------|--------|--------|------0---0---0---0--------|


E|-0----0---0---0---0---0----|-0----0---0---0---0---0----|-0----0---0---0---0--------|
B|-2----2---2---2---2---0----|-0----0---0---0---0---2----|-2----2---2---2---2--------|
G|-2----2---2---2---2---0----|-0----0---0---0---0---2----|-2----2---2---2---2--------|
D|-2----2---2---2---2---2----|-2----2---2---2---2---2----|-2----2---2---2---2--------|
A|-0----0---0---0---0---2----|-2----2---2---2---2---0----|-0----0---0---0---0--------|
E|----------------------0----|-0----0---0---0---0--------|---------------------------|


E|--------|--------|--------|--------|--------|--------|--------|--------|------0---0---0---0----0---|
B|--------|--------|--------|--------|--------|--------|--------|--------|------3---3---3---3----3---|
G|--------|--------|--------|--------|--------|--------|--------|--------|------3---3---3---3----3---|
D|--------|--------|--------|--------|--------|--------|--------|--------|------0---0---0---0----0---|
A|--------|--------|--------|--------|--------|--------|--------|--------|------2---2---2---2----2---|
E|--------|--------|--------|--------|--------|--------|--------|--------|------3---3---3---3----3---|


E|-0---0---2---2---2---2----2---|-2---2---0---0---0---0----0---|-0---0---2---2---2---2----2---|
B|-3---3---3---3---3---3----3---|-3---3---3---3---3---3----3---|-3---3---3---3---3---3----3---|
G|-3---3---2---2---2---2----2---|-2---2---3---3---3---3----3---|-3---3---2---2---2---2----2---|
D|-0---0---0---0---0---0----0---|-0---0---0---0---0---0----0---|-0---0---0---0---0---0----0---|
A|-2---2------------------------|---------2---2---2---2----2---|-2---2------------------------|
E|-3---3------------------------|---------3---3---3---3----3---|-3---3------------------------|


E|-2---2----------|--------|--------|--------|--------|
B|-3---3----------|--------|--------|--------|--------|
G|-2---2----------|--------|--------|--------|--------|
D|-0---0----------|--------|--------|--------|--------|
A|----------------|--------|--------|--------|--------|
E|----------------|--------|--------|--------|--------|





Track 3: Main guitar

E|--------|--------|--------|--------|--------|--------|--------|--------|--------|
B|--------|--------|--------|--------|--------|--------|--------|--------|--------|
G|--------|--------|--------|--------|--------|--------|--------|--------|--------|
D|--------|--------|--------|--------|--------|--------|--------|--------|--------|
A|--------|--------|--------|--------|--------|--------|--------|--------|--------|
E|--------|--------|--------|--------|--------|--------|--------|--------|--------|


E|--------|--------|--------|--------|--------|--------|--------|--------|--------|
B|--------|--------|--------|--------|--------|--------|--------|--------|--------|
G|--------|--------|--------|--------|--------|--------|--------|--------|--------|
D|--------|--------|--------|--------|--------|--------|--------|--------|--------|
A|--------|--------|--------|--------|--------|--------|--------|--------|--------|
E|--------|--------|--------|--------|--------|--------|--------|--------|--------|


E|--------|--------|--------|--------|--------|--------|--------|--------|--------|
B|--------|--------|--------|--------|--------|--------|--------|--------|--------|
G|--------|--------|--------|--------|--------|--------|--------|--------|--------|
D|--------|--------|--------|--------|--------|--------|--------|--------|--------|
A|--------|--------|--------|--------|--------|--------|--------|--------|--------|
E|--------|--------|--------|--------|--------|--------|--------|--------|--------|


E|--------|--------|--------|--------|--------|--------|--------|--------|--------|
B|--------|--------|--------|--------|--------|--------|--------|--------|--------|
G|--------|--------|--------|--------|--------|--------|--------|--------|--------|
D|--------|--------|--------|--------|--------|--------|--------|--------|--------|
A|--------|--------|--------|--------|--------|--------|--------|--------|--------|
E|--------|--------|--------|--------|--------|--------|--------|--------|--------|


E|--------|--------|--------|--------|--------|--------|--------|--------|--------|
B|--------|--------|--------|--------|--------|--------|--------|--------|--------|
G|--------|--------|--------|--------|--------|--------|--------|--------|--------|
D|--------|--------|--------|--------|--------|--------|--------|--------|--------|
A|--------|--------|--------|--------|--------|--------|--------|--------|--------|
E|--------|--------|--------|--------|--------|--------|--------|--------|--------|


E|--------|--------|--------|--------|--------|--------|--------|--------|--------|
B|--------|--------|--------|--------|--------|--------|--------|--------|--------|
G|--------|--------|--------|--------|--------|--------|--------|--------|--------|
D|--------|--------|--------|--------|--------|--------|--------|--------|--------|
A|--------|--------|--------|--------|--------|--------|--------|--------|--------|
E|--------|--------|--------|--------|--------|--------|--------|--------|--------|


E|--------|-0----0---0---0---0---0----|-0----0---0---0---0---0----|-0----0---0---0---0---0----|
B|--------|-0----0---0---0---0---2----|-2----2---2---2---2---0----|-0----0---0---0---0---2----|
G|--------|-0----0---0---0---0---2----|-2----2---2---2---2---0----|-0----0---0---0---0---2----|
D|--------|-2----2---2---2---2---2----|-2----2---2---2---2---2----|-2----2---2---2---2---2----|
A|--------|-2----2---2---2---2---0----|-0----0---0---0---0---2----|-2----2---2---2---2---0----|
E|--------|-0----0---0---0---0--------|----------------------0----|-0----0---0---0---0--------|


E|-0----0---0---0---0--------|--------|--------|--------|--------|--------|--------|
B|-2----2---2---2---2--------|--------|--------|--------|--------|--------|--------|
G|-2----2---2---2---2--------|--------|--------|--------|--------|--------|--------|
D|-2----2---2---2---2--------|--------|--------|--------|--------|--------|--------|
A|-0----0---0---0---0--------|--------|--------|--------|--------|--------|--------|
E|---------------------------|--------|--------|--------|--------|--------|--------|


E|--------|--------|--------|--------|--------|--------|--------|--------|--------|
B|--------|--------|--------|--------|--------|--------|--------|--------|--------|
G|--------|--------|--------|--------|--------|--------|--------|--------|--------|
D|--------|--------|--------|--------|--------|--------|--------|--------|--------|
A|--------|--------|--------|--------|--------|--------|--------|--------|--------|
E|--------|--------|--------|--------|--------|--------|--------|--------|--------|


E|--------|--------|--------|--------|--------|--------|
B|--------|--------|--------|--------|--------|--------|
G|--------|--------|--------|--------|--------|--------|
D|--------|--------|--------|--------|--------|--------|
A|--------|--------|--------|--------|--------|--------|
E|--------|--------|--------|--------|--------|--------|





Track 4: dist2

E|--------|--------|--------|--------|--------|--------|--------|--------|--------|
B|--------|--------|--------|--------|--------|--------|--------|--------|--------|
G|--------|--------|--------|--------|--------|--------|--------|--------|--------|
D|--------|--------|--------|--------|--------|--------|--------|--------|--------|
A|--------|--------|--------|--------|--------|--------|--------|--------|--------|
E|--------|--------|--------|--------|--------|--------|--------|--------|--------|


E|--------|--------|--------|--------|--------|--------|--------|--------|--------|
B|--------|--------|--------|--------|--------|--------|--------|--------|--------|
G|--------|--------|--------|--------|--------|--------|--------|--------|--------|
D|--------|--------|--------|--------|--------|--------|--------|--------|--------|
A|--------|--------|--------|--------|--------|--------|--------|--------|--------|
E|--------|--------|--------|--------|--------|--------|--------|--------|--------|


E|--------|--------|--------|--------|--------|--------|--------|--------|--------|
B|--------|--------|--------|--------|--------|--------|--------|--------|--------|
G|--------|--------|--------|--------|--------|--------|--------|--------|--------|
D|--------|--------|--------|--------|--------|--------|--------|--------|--------|
A|--------|--------|--------|--------|--------|--------|--------|--------|--------|
E|--------|--------|--------|--------|--------|--------|--------|--------|--------|


E|--------|--------|--------|--------|--------|--------|--------|--------|--------|
B|--------|--------|--------|--------|--------|--------|--------|--------|--------|
G|--------|--------|--------|--------|--------|--------|--------|--------|--------|
D|--------|--------|--------|--------|--------|--------|--------|--------|--------|
A|--------|--------|--------|--------|--------|--------|--------|--------|--------|
E|--------|--------|--------|--------|--------|--------|--------|--------|--------|


E|--------|--------|--------|--------|--------|--------|--------|--------|--------|
B|--------|--------|--------|--------|--------|--------|--------|--------|--------|
G|--------|--------|--------|--------|--------|--------|--------|--------|--------|
D|--------|--------|--------|--------|--------|--------|--------|--------|--------|
A|--------|--------|--------|--------|--------|--------|--------|--------|--------|
E|--------|--------|--------|--------|--------|--------|--------|--------|--------|


E|--------|--------|--------|--------|--------|--------|--------|--------|--------|
B|--------|--------|--------|--------|--------|--------|--------|--------|--------|
G|--------|--------|--------|--------|--------|--------|--------|--------|--------|
D|--------|--------|--------|--------|--------|--------|--------|--------|--------|
A|--------|--------|--------|--------|--------|--------|--------|--------|--------|
E|--------|--------|--------|--------|--------|--------|--------|--------|--------|


E|--------|--------|--------|--------|--------------------|---------------------------------|
B|--------|--------|--------|--------|-----------8--------|---------------8-----8---8--10---|
G|--------|--------|--------|--------|--------9-----9--7--|-9----9--7--9-----9--------------|
D|--------|--------|--------|--------|--------------------|---------------------------------|
A|--------|--------|--------|--------|--------------------|---------------------------------|
E|--------|--------|--------|--------|--------------------|---------------------------------|


E|----------------------------------------|---------------------------------|-5----------------5--------|
B|-10-----8--10-8-----8-------------------|---------------------------------|-----8---8----8---8--------|
G|-----------------9-----9--7--------9----|-9----9--7--9--7---6--7--6--6----|------------------6--------|
D|-----------------------------9--7-------|---------------------------------|---------------------------|
A|----------------------------------------|---------------------------------|---------------------------|
E|----------------------------------------|---------------------------------|---------------------------|


E|--------|--------|--------|--------|--------|--------|--------|--------|--------|
B|--------|--------|--------|--------|--------|--------|--------|--------|--------|
G|--------|--------|--------|--------|--------|--------|--------|--------|--------|
D|--------|--------|--------|--------|--------|--------|--------|--------|--------|
A|--------|--------|--------|--------|--------|--------|--------|--------|--------|
E|--------|--------|--------|--------|--------|--------|--------|--------|--------|


E|--------|--------|--------|--------|--------|--------|--------|--------|
B|--------|--------|--------|--------|--------|--------|--------|--------|
G|--------|--------|--------|--------|--------|--------|--------|--------|
D|--------|--------|--------|--------|--------|--------|--------|--------|
A|--------|--------|--------|--------|--------|--------|--------|--------|
E|--------|--------|--------|--------|--------|--------|--------|--------|





Track 5: Main guitar

E|--------|--------|--------|--------|--------|--------|--------|--------|--------|
B|--------|--------|--------|--------|--------|--------|--------|--------|--------|
G|--------|--------|--------|--------|--------|--------|--------|--------|--------|
D|--------|--------|--------|--------|--------|--------|--------|--------|--------|
A|--------|--------|--------|--------|--------|--------|--------|--------|--------|
E|--------|--------|--------|--------|--------|--------|--------|--------|--------|


E|--------|--------|--------|--------|--------|--------|--------|--------|--------|
B|--------|--------|--------|--------|--------|--------|--------|--------|--------|
G|--------|--------|--------|--------|--------|--------|--------|--------|--------|
D|--------|--------|--------|--------|--------|--------|--------|--------|--------|
A|--------|--------|--------|--------|--------|--------|--------|--------|--------|
E|--------|--------|--------|--------|--------|--------|--------|--------|--------|


E|--------|--------|--------|--------|--------|--------|--------|--------|--------|
B|--------|--------|--------|--------|--------|--------|--------|--------|--------|
G|--------|--------|--------|--------|--------|--------|--------|--------|--------|
D|--------|--------|--------|--------|--------|--------|--------|--------|--------|
A|--------|--------|--------|--------|--------|--------|--------|--------|--------|
E|--------|--------|--------|--------|--------|--------|--------|--------|--------|


E|--------|--------|--------|--------|--------|--------|--------|--------|--------|
B|--------|--------|--------|--------|--------|--------|--------|--------|--------|
G|--------|--------|--------|--------|--------|--------|--------|--------|--------|
D|--------|--------|--------|--------|--------|--------|--------|--------|--------|
A|--------|--------|--------|--------|--------|--------|--------|--------|--------|
E|--------|--------|--------|--------|--------|--------|--------|--------|--------|


E|--------|--------|--------|--------|--------|--------|--------|--------|--------|
B|--------|--------|--------|--------|--------|--------|--------|--------|--------|
G|--------|--------|--------|--------|--------|--------|--------|--------|--------|
D|--------|--------|--------|--------|--------|--------|--------|--------|--------|
A|--------|--------|--------|--------|--------|--------|--------|--------|--------|
E|--------|--------|--------|--------|--------|--------|--------|--------|--------|


E|--------|--------|--------|--------|--------|--------|--------|--------|--------|
B|--------|--------|--------|--------|--------|--------|--------|--------|--------|
G|--------|--------|--------|--------|--------|--------|--------|--------|--------|
D|--------|--------|--------|--------|--------|--------|--------|--------|--------|
A|--------|--------|--------|--------|--------|--------|--------|--------|--------|
E|--------|--------|--------|--------|--------|--------|--------|--------|--------|


E|--------|--------|--------|--------|--------0----|-0-----------|--------|--------|
B|--------|--------|--------|--------|--------0----|-0-----------|--------|--------|
G|--------|--------|--------|--------|--------0----|-0-----------|--------|--------|
D|--------|--------|--------|--------|--------2----|-2-----------|--------|--------|
A|--------|--------|--------|--------|--------2----|-2-----------|--------|--------|
E|--------|--------|--------|--------|--------0----|-0-----------|--------|--------|


E|--------|--------|--------|--------|--------|--------|--------|--------|--------|
B|--------|--------|--------|--------|--------|--------|--------|--------|--------|
G|--------|--------|--------|--------|--------|--------|--------|--------|--------|
D|--------|--------|--------|--------|--------|--------|--------|--------|--------|
A|--------|--------|--------|--------|--------|--------|--------|--------|--------|
E|--------|--------|--------|--------|--------|--------|--------|--------|--------|


E|--------|--------|--------|--------|--------|--------|--------|--------|--------|
B|--------|--------|--------|--------|--------|--------|--------|--------|--------|
G|--------|--------|--------|--------|--------|--------|--------|--------|--------|
D|--------|--------|--------|--------|--------|--------|--------|--------|--------|
A|--------|--------|--------|--------|--------|--------|--------|--------|--------|
E|--------|--------|--------|--------|--------|--------|--------|--------|--------|





Track 6: Untitled

G|--------|--------|--------|--------|-----------------|--------|-----------------|
D|--------|--------|--------|--------|-8-----10---8----|-7------|-8-----10---8----|
A|--------|--------|--------|--------|-----------------|--------|-----------------|
E|--------|--------|--------|--------|-----------------|--------|-----------------|


G|--------|-----------------|--------|-----------------|--------|--------------------|
D|-7------|-8-----10---8----|-7------|-8-----10---8----|-7------|--------------------|
A|--------|-----------------|--------|-----------------|--------|--------------------|
E|--------|-----------------|--------|-----------------|--------|-3-----3---3--------|


G|--------------------|--------------------|--------------------|--------|--------|
D|--------------------|--------------------|--------------------|--------|--------|
A|-5-----5---5--------|--------------------|-5-----5---5--------|--------|-5------|
E|--------------------|-3-----3---3--------|--------------------|-3------|--------|


G|--------|---------------------------------|---------------------------------|--------------------|
D|--------|---------------------------------|---------------------------------|--------------------|
A|--------|---------------------------------|---------------------------------|-7-----7---7--------|
E|-3------|-5---5---5---5---5---5---5---5---|-5---5---5---5---5---5---5---5---|--------------------|


G|--------------------|--------------------|--------------------|--------------------|
D|--------------------|--------------------|--------------------|--------------------|
A|--------------------|-7-----7---7--------|--------------------|-7-----7---7--------|
E|-5-----5---5--------|--------------------|-5-----5---5--------|--------------------|


G|--------------------|--------------------|--------------------|-------------|--------------------|
D|--------------------|--------------------|--------------------|-------------|--------------------|
A|--------------------|-7-----7---7--------|--------------------|-------------|--------------5-----|
E|-5-----5---5--------|--------------------|-5----5---5---3-----|-------3-----|-3---3--------------|


G|--------------------|--------------------|--------------------|--------------------|
D|--------------------|--------------------|--------------------|--------------------|
A|-5---5--------------|--------------5-----|-5---5--------------|--------------5-----|
E|--------------3-----|-3---3--------------|--------------3-----|-3---3--------------|


G|--------------------|--------------------|--------------------|--------------------|
D|--------------------|--------------------|--------------------|--------------------|
A|-5---5--------------|--------------5-----|-5---5--------------|--------------5-----|
E|--------------3-----|-3---3--------------|--------------3-----|-3---3--------------|


G|--------------------|--------------------|--------------------|-------------|-------------|
D|--------------------|--------------------|--------------------|-------------|-------------|
A|-5---5--------------|--------------5-----|-5---5--------------|-------5-----|-------------|
E|--------------3-----|-3---3--------------|--------------3-----|-------------|-------3-----|


G|-----------------------|---------------------------------|-----------------------|
D|-----------------------|---------------------------------|-----------------------|
A|-----------------------|---------------------------------|-----------------7-----|
E|-------5---5---5---5---|-5---5---5---5---5---5---5---5---|-5---5---5---5---------|


G|--------------------|--------------------|--------------------|--------------------|
D|--------------------|--------------------|--------------------|--------------------|
A|-7---7--------------|--------------7-----|-7---7--------------|--------------7-----|
E|--------------5-----|-5---5--------------|--------------5-----|-5---5--------------|


G|--------------------|--------------------|---------------------------|--------|-------------|
D|--------------------|--------------------|---------------------------|--------|-------------|
A|-7---7--------------|--------------7-----|-7---7---------------------|--------|-------7-----|
E|--------------5-----|-5---5--------------|--------------5----5---5---|-3------|-------------|


G|--------------------|--------------------|--------------------|--------------------|
D|--------------------|--------------------|--------------------|--------------------|
A|-7---7--------------|--------------7-----|-7---7--------------|--------------7-----|
E|--------------5-----|-5---5--------------|--------------5-----|-5---5--------------|


G|--------------------|--------------------|--------------------|--------------------|
D|--------------------|--------------------|--------------------|--------------------|
A|-7---7--------------|--------------7-----|-7---7--------------|--------------7-----|
E|--------------5-----|-5---5--------------|--------------5-----|-5---5--------------|


G|--------------------|--------------------|--------------------|--------------------|
D|--------------------|--------------------|--------------------|--------------------|
A|-7---7--------------|--------------7-----|-7---7--------------|--------------7-----|
E|--------------5-----|-5---5--------------|--------------5-----|-5---5--------------|


G|--------------------|--------------------|---------------------------|--------|--------|
D|--------------------|--------------------|---------------------------|--------|--------|
A|-7---7--------------|--------------7-----|-7---7---------------------|--------|--------|
E|--------------5-----|-5---5--------------|--------------5----5---5---|-3------|--------|


G|--------|--------|--------|--------|--------|--------|--------|
D|--------|--------|--------|--------|--------|--------|--------|
A|--------|--------|--------|--------|--------|--------|--------|
E|--------|--------|--------|--------|--------|--------|--------|