Menu:

 

Search:

 

u2 - when love comes to town w bb king:

 



Title: When Love Comes To Town
Artist: 
Album: Rattle And Hum
Author: U2


Track 1: The Edge - Rhythm Guitar

E|--------|-0-----0---0-----|-0---------------------0---|-0------|-0-------------------0---|
B|--------|-0-----0---0-----|-0---------------------0---|-0------|-0-------------------0---|
G|--------|-1-----1---1-----|-1---------2---0-------1---|-1------|-1-------------------1---|
D|--------|-2-----2---------|-2---------2---0-------2---|-2------|-2-------------------2---|
A|--------|-2-----2---------|-2-----0---0-----------2---|-2------|-2-------------------2---|
E|--------|-0-----0---------|-0-----------------0---0---|-0------|-0-----12-----5--0---0---|


E|-0------|-0-----0-----------0---|-0------|-0-----------------0---|-0------|-0------|
B|-0------|-0-----0---2---0---0---|-0------|-0-----------------0---|-0------|-0------|
G|-1------|-1-----1---2---0---1---|-1------|-1-----------------1---|-1------|-1------|
D|-2------|-2-----2---2---0---2---|-2------|-2-----------------2---|-2------|-2------|
A|-2------|-2-----2---0-------2---|-2------|-2-----------------2---|-2------|-2------|
E|-0------|-0-----0-----------0---|-0------|-0-----3---0---3---0---|-0------|-0------|


E|-0---------------|-----------------|-0------|-0-----5---5--------------|--------|
B|-0---------------|-----------------|-2------|-2-----5---5--------0--0--|-0------|
G|-1---------------|-----------------|-2------|-2-----2---2---2----1--1--|-1------|
D|-2---------------|-----------------|-2------|-2-------------2----2--2--|-2------|
A|-2---------------|-----------------|-0------|-0-------------0----2--2--|-2------|
E|-0---------------|------------5----|--------|--------------------0--0--|-0------|


E|-----------------------|--------|-------------|-0----0--0---0---0--0----0-------|
B|-0-----0---------------|-0------|-0-----------|-0----0--0---0---0--0----0-------|
G|-1-----1---------------|-1------|-1-----------|-1----1--1---1---1--1----1-------|
D|-2-----2---------------|-2------|-2-----------|-2----2--2---2---2--2----2-------|
A|-2-----2---------------|-2------|-2-----------|-2----2--2---2---2--2----2-------|
E|-0-----0---0---0---0---|-0------|-0------12---|-0----0--0---0---0--0----0-------|


E|-----------------|-0------|-0-----------------0---|-0------0---|-0-----------------0---|
B|-----------------|-0------|-0-----2---2---2---0---|-0------0---|-0-----------------0---|
G|-----------------|-1------|-1-----2---2---2---1---|-1------1---|-1-----------------1---|
D|------------9----|-2------|-2-----2---2---2---2---|-2------2---|-2-----------------2---|
A|------------11---|-2------|-2-----0---0---0---2---|-2------2---|-2-----------------2---|
E|------------12---|-0------|-0-----------------0---|-0------0---|-0-----3---3---3---0---|


E|-0------|-0-----0-----------------|-0------|-0--------------------------|-0------|
B|-0------|-0-----0---2--2--2---0---|-0------|-0------------2---0--2--0---|-0------|
G|-1------|-1-----1---2--2--2---0---|-1------|-1------------2---0--2--0---|-1------|
D|-2------|-2-----2---------2---0---|-2------|-2-----13-14----------------|-2------|
A|-2------|-2-----2---------0-------|-2------|-2-----14-16----------------|-2------|
E|-0------|-0-----0-----------------|-0------|-0--------------------------|-0------|


E|-0---------------------|-0---------------|--------|-0------|-0-----0---0---0---0-------|
B|-0---------------------|-0---------------|--------|-2------|-2-----2---2---2---2---0---|
G|-1---------------------|-1---------------|--------|-2------|-2-----2---2---2---2---0---|
D|-2---------13--13------|-2---------------|--------|-2------|-2-------------------------|
A|-2---------14--14------|-2---------------|--------|-0------|-0-------------------------|
E|-0-----18----------0---|-0---------------|--------|--------|---------------------------|


E|-0------|-0---------------------|--------|-------------|-0---------------|------------0--0--0--0--|
B|-0------|-0-----------------0---|-0------|-0-----------|-0---------------|------------0--0--0--0--|
G|-1------|-1-----------------1---|-1------|-1-----------|-1---------------|------------------------|
D|-2------|-2-----------------2---|-2------|-2-----------|-2---------------|------------------------|
A|-2------|-2-----------------2---|-2------|-2------12---|-2---------------|------------------------|
E|-0------|-0-----0---0-------0---|-0------|-0------12---|-0---------------|------------------------|


E|-0------|-0--------0--0--0---0--0--0---0---|-0------|-0------|-0------|-0------|
B|-2------|-2--------0--0--0---2--2--2---0---|-0------|-0------|-0------|-0------|
G|-2------|-2--------2--2--2---2--2--2---1---|-1------|-1------|-1------|-1------|
D|-2------|-2--------2--2--2---2--2--2---2---|-2------|-2------|-2------|-2------|
A|-0------|-0--------0--0--0---0--0--0---2---|-2------|-2------|-2------|-2------|
E|--------|------------------------------0---|-0------|-0------|-0------|-0------|


E|-0----0--0---0---0--0----0-------|--------------------|-----------------0---|-0-------------------|
B|-0----0--0---0---0--0----0-------|--------------------|------3----3---------|------3---------3----|
G|-1----1--1---1---1--1----1-------|--------------------|---------------------|-----------2---------|
D|-2----2--2---2---2--2----2-------|--------------------|---------------------|---------------------|
A|-2----2--2---2---2--2----2-------|-------10-----------|---------------------|---------------------|
E|-0----0--0---0---0--0----0-------|-------10--0---12---|-0-------------------|---------------------|


E|-----------------0---|-0----------------------|-----------------0---|-0-------------------|
B|------3----3---------|-----3------------3-----|------3----3---------|------3---------3----|
G|---------------------|----------0---0---0-----|---------------------|-----------2---------|
D|---------------------|------------------------|---------------------|---------------------|
A|---------------------|------------------------|---------------------|---------------------|
E|-0-------------------|------------------------|-0-------------------|---------------------|


E|-----------------0---|-0----------------------|-----------------0---|-0--------0---0---------------|
B|------3----3---------|-----3------------3-----|------3----3-----0---|-0---3------------3---3---0---|
G|---------------------|----------0---0---0-----|------2----2---------|-----2------------2---2---0---|
D|---------------------|------------------------|---------------------|--------------------------0---|
A|---------------------|------------------------|-0-------------------|------------------------------|
E|-0-------------------|------------------------|---------------------|------------------------------|


E|-----------0--------0---|-0----------------------|--------0---|-0---------0---------|
B|------3--------3--------|-----3------------3-----|------------|------3---------3----|
G|---------------1--------|----------0---0---0-----|------------|------0---------0----|
D|------------------------|------------------------|-2----------|---------------------|
A|------------------------|------------------------|-2----------|---------------------|
E|-0----------------------|------------------------|-0----------|---------------------|


E|-----------------|--------------------|-0------|--------------------------0---|-0------|
B|-----------------|------------3-------|-0------|----------2---2---2---0---0---|-0------|
G|-0---------------|------------2-------|-1------|----------2---2---2---0---1---|-1------|
D|-2---------------|--------------------|-2------|----------2---2---2---0---2---|-2------|
A|-2---------------|--------------------|-2------|----------0---0---0-------2---|-2------|
E|-0---------------|-------15-----------|-0------|-0----0-------------------0---|-0------|


E|-----------------------0---|-0------|-0-----------------0---|-0------|-0---------------------0---|
B|-----------------------0---|-0------|-0-----2---2---0---0---|-0------|-0---------2---2---0---0---|
G|-----------------------1---|-1------|-1-----2---2---0---1---|-1------|-1---------2---2---0---1---|
D|-----------------------2---|-2------|-2-----2---2---0---2---|-2------|-2---------2---2---0---2---|
A|-----------------------2---|-2------|-2-----0---0-------2---|-2------|-2----12---0---0-------2---|
E|-0-----0---3---0---3---0---|-0------|-0-----------------0---|-0------|-0----12---------------0---|


E|-0------|-0------------------------------|-0-----------|---------------------------------|
B|-0------|-0------------2---2--2--2---0---|-0-----------|---------------------------------|
G|-1------|-1------------2---2--2--2---0---|-1-----------|---------------------------------|
D|-2------|-2------------2---2--2--2---0---|-2-----------|---------------------------------|
A|-2------|-2----0---0---0---0--0--0-------|-2-----------|---------------------------------|
E|-0------|-0------------------------------|-0-----------|-0---0---0---0---0---0---0---3---|


E|-3-------------------------|------------------------------|----------------|-----------------------|
B|-0-------------------------|------14--14--14--12----------|----------------|-----------14--14--12--|
G|---------------------------|------14--14--14--12------12--|----------------|-----------14--14--12--|
D|---------------------------|----------------------14--14--|-12-14---14-----|-----------------------|
A|---------------------------|------------------------------|----------------|-----------------------|
E|------0----0---0---0---0---|------------------------------|----------------|-----------------------|


E|--------------------|------------------------|-0------|------0-----------------------|
B|--------------------|------------0--0--0--0--|-2------|----------0---3---3---3---0---|
G|-----12-------------|------------0--0--0--0--|-2------|-2------------2---2---2---0---|
D|-14-----------------|------------------------|-2------|------------------------------|
A|--------------------|------------------------|-0------|------------------------------|
E|--------------------|-------15---------------|--------|------------------------------|


E|-0-----0---------------|----------------------|-0------|-0-----------------0---|
B|-0-----0---------------|----------------------|-0------|-0-----3---0---3---0---|
G|-1-----1---1-------1---|--------------1-------|-1------|-1-----1-------2-------|
D|-2-----2---2-------2---|-2-----2---2----------|-2------|-2---------------------|
A|-2-----2---------------|-2-----2---2----------|-2------|-2---------------------|
E|-0-----0---------------|-0-----0---------10---|-0------|-0---------------------|


E|-0---------------|-----------------|-0------|-0-----------------------0---|-------------0---|
B|-0---------------|-----------------|-0------|-0-----0---2---0--0------0---|-0-----0-----0---|
G|-1---------------|-----------------|-1------|-1---------2---0--0------0---|-1-----1---------|
D|-2---------------|------------12---|-2------|-2-------------------2-------|-2-----2---------|
A|-2---------------|------------11---|-2------|-2---------------------------|-2-----2---------|
E|-0---------------|-------16--------|-0------|-0---------------------------|-0-----0---------|


E|-0---------0-------0---|----------0-------------|------------------0-------0---|
B|-0---------3---0---0---|------2---0---------0---|-0----3---3---3-------0---0---|
G|-------2---2---0---1---|--------------1-----0---|-0----2---2---2---------------|
D|-----------------------|-2------------2---------|------------------------------|
A|-----------------------|-2------------2---------|------------------------------|
E|-----------------------|-0------------0---------|------------------------------|


E|--------------------|------------------------------|-----------------------0---|
B|--------------------|---------2----3---0-------0---|-0-------2---0---3-----0---|
G|-1-----0----0---2---|-0---2---2----2---0-------0---|-1-------1---1---1---------|
D|-2------------------|----------------------2-------|-2-------2---2---2---------|
A|-2------------------|------------------------------|-----------------2---------|
E|-0------------------|------------------------------|-----0-----------0---------|


E|-0-------------------------------|---------------------------|-0---0---0---0---0-------------------|
B|-0---0---3---3---3---0---0---0---|-0----2---3---3------------|-0---3---------------3---------------|
G|-------------2---2---0---0---0---|-1----1---1---1------------|-------------2---2---2---0--2--0--2--|
D|---------------------0---0---0---|-2----2---2---2------------|-------------------------------------|
A|---------------------------------|-2-------------------------|-------------------------------------|
E|---------------------------------|-0-----------------0---0---|-------------------------------------|


E|-----0--------------0---|-0----------------------------|-0------0---|-0---0---------------------------|
B|---------3----------0---|-0---2---2---0---2---0----2---|-2------0---|-2---2---------------------------|
G|---------1--------------|-----2---2---0---2---0----2---|-2------2---|-2-----------2-------------------|
D|------------------------|--------------------------2---|-2----------|-------------2-------------------|
A|------------------------|--------------------------0---|-0----------|---------0---0---------------0---|
E|-0------------0---------|------------------------------|------------|-----------------0---0---3-------|


E|-0--------0--------0---0---|-0----0-----------------------|-------0---0-----------0---|
B|-0----2---0--------2---0---|-0----0---0-------3---3---2---|-2-------------3---3---0---|
G|-1----1---1--------1---0---|-0----------------1---1---2---|-2-------------2---2-------|
D|-2----2---2--------2---0---|-0----------------2---2---2---|-2-------------------------|
A|-2-------------------------|--------------------------0---|-0-------------------------|
E|-0------------0------------|--------------0---------------|---------------------------|


E|---------------------------|------0---------0---|-0---------------------|--------------------0---|
B|-------2---3---3---3---3---|------0-----3---0---|-0---------0---0---0---|-2----3---2---------0---|
G|-2-----2---2---2---2---2---|------1-------------|-----------1---1---1---|-2----2---2-------------|
D|-2---------2---2---2---2---|------2-------------|-----------2---2---2---|-2----2---2-------------|
A|-0---------0---0---0---0---|------2-------------|-----------2---2---2---|-0----0---0---0---------|
E|---------------------------|-0----0-------------|-----------0---0---0---|------------------------|


E|-0---0---0---0---0------------|-0------|-0----0---0---0---------|----------0----------------|
B|-0---3---3---3---3------------|-0------|-0--------0---0----2----|-2----3-------2----2---2---|
G|-----2---2---2---2------------|-1------|-1----2---1---1----2----|-2------------2----2---2---|
D|------------------------------|-2------|-2----2---2---2----2----|-2------------2----2---2---|
A|----------------------0-------|-2------|-2----2---2---2---------|-0------------0----0-------|
E|--------------------------0---|-0------|-0----0---0---0---------|---------------------------|


E|-----0---------------------------|------0----0---0-------0---|-----0-----0------------|
B|-----2-------3---3---3---0---0---|------0----0---0-------0---|-----0-----0--------2---|
G|-2---2-------2---2---2---0-------|------1----1---1-------1---|-----1-----1--------2---|
D|-2-------------------------------|------2----2---2-----------|-----2-----2--------2---|
A|-0-------------------------------|------2----2---2-----------|-----------2--------0---|
E|---------------------------------|-0----0----0---0---0-------|-0---------0----0-------|


E|---------------------------------|---------------------------|
B|-2---2---3---3---2---2---3---2---|-2---2-------2---2---------|
G|-2---2---2---2---2---2---2---2---|-2---2-------2---2---------|
D|-2---2-----------2---2-----------|-2---2-------2---2---------|
A|-0---0-----------0---0-----------|-0---0-------0---0---------|
E|---------------------------------|---------------------------|





Track 2: B.B. King - Lead Guitar

E|--------|--------|--------|--------|--------|--------|--------|--------|--------|
B|--------|--------|--------|--------|--------|--------|--------|--------|--------|
G|--------|--------|--------|--------|--------|--------|--------|--------|--------|
D|--------|--------|--------|--------|--------|--------|--------|--------|--------|
A|--------|--------|--------|--------|--------|--------|--------|--------|--------|
E|--------|--------|--------|--------|--------|--------|--------|--------|--------|


E|--------|--------|--------|--------|--------|--------|--------|--------|--------|
B|--------|--------|--------|--------|--------|--------|--------|--------|--------|
G|--------|--------|--------|--------|--------|--------|--------|--------|--------|
D|--------|--------|--------|--------|--------|--------|--------|--------|--------|
A|--------|--------|--------|--------|--------|--------|--------|--------|--------|
E|--------|--------|--------|--------|--------|--------|--------|--------|--------|


E|--------|--------|--------|---------------------|---------------------------|---------------------|
B|--------|--------|--------|------7----7---------|------5---5---5------------|------7----7---------|
G|--------|--------|--------|---------------------|------------------6--------|---------------------|
D|--------|--------|--------|---------------------|---------------------------|---------------------|
A|--------|--------|--------|---------------------|---------------------------|---------------------|
E|--------|--------|--------|---------------------|---------------------------|---------------------|


E|---------------------------|--------|--------|--------|--------|--------|--------|
B|------5---5---5------------|--------|--------|--------|--------|--------|--------|
G|------------------6--------|--------|--------|--------|--------|--------|--------|
D|---------------------------|--------|--------|--------|--------|--------|--------|
A|---------------------------|--------|--------|--------|--------|--------|--------|
E|---------------------------|--------|--------|--------|--------|--------|--------|


E|--------|--------|--------|--------|--------|--------|--------|--------|--------|
B|--------|--------|--------|--------|--------|--------|--------|--------|--------|
G|--------|--------|--------|--------|--------|--------|--------|--------|--------|
D|--------|--------|--------|--------|--------|--------|--------|--------|--------|
A|--------|--------|--------|--------|--------|--------|--------|--------|--------|
E|--------|--------|--------|--------|--------|--------|--------|--------|--------|


E|--------|--------|--------|--------|--------|--------|--------|--------|--------|
B|--------|--------|--------|--------|--------|--------|--------|--------|--------|
G|--------|--------|--------|--------|--------|--------|--------|--------|--------|
D|--------|--------|--------|--------|--------|--------|--------|--------|--------|
A|--------|--------|--------|--------|--------|--------|--------|--------|--------|
E|--------|--------|--------|--------|--------|--------|--------|--------|--------|


E|--------|--------|--------|--------|--------|--------|--------|--------|--------|
B|--------|--------|--------|--------|--------|--------|--------|--------|--------|
G|--------|--------|--------|--------|--------|--------|--------|--------|--------|
D|--------|--------|--------|--------|--------|--------|--------|--------|--------|
A|--------|--------|--------|--------|--------|--------|--------|--------|--------|
E|--------|--------|--------|--------|--------|--------|--------|--------|--------|


E|--------|--------|--------|--------|--------|--------|-------------10-|-10-7--------------------------|
B|--------|--------|--------|--------|--------|--------|----------------|-------10-8--5----5--------5---|
G|--------|--------|--------|--------|--------|--------|----------------|------------------6------------|
D|--------|--------|--------|--------|--------|--------|----------------|-------------------------------|
A|--------|--------|--------|--------|--------|--------|----------------|-------------------------------|
E|--------|--------|--------|--------|--------|--------|----------------|-------------------------------|


E|------------------------------5---|-5----5-----------------|-----------------------------7---|
B|-5----7---7---7---7---5---8-------|-----------5----5-------|-7---7---5---5---5---5---7-------|
G|----------------------------------|----------------6-------|---------------------------------|
D|----------------------------------|------------------------|---------------------------------|
A|----------------------------------|------------------------|---------------------------------|
E|----------------------------------|------------------------|---------------------------------|


E|-7---7---------------------|---------------------------------|-----5---7-------------------------|
B|---------7----7---5---5----|-5---7-------7-----------5-------|-7-----------7---7--7--5------5----|
G|---------------------------|---------------------6-------6---|--------------------------6--------|
D|---------------------------|---------------------------------|-----------------------------------|
A|---------------------------|---------------------------------|-----------------------------------|
E|---------------------------|---------------------------------|-----------------------------------|


E|-------------------------5----|-5----------------------|------------------------------|
B|-5---7-------5---5---7--------|-----------5------------|-----7---5-----------5---5----|
G|---------6--------------------|---------------6--------|-------------6----------------|
D|------------------------------|------------------------|------------------------------|
A|------------------------------|------------------------|------------------------------|
E|------------------------------|------------------------|------------------------------|


E|--------|--------|--------|--------|--------|--------|--------|--------|--------|
B|--------|--------|--------|--------|--------|--------|--------|--------|--------|
G|--------|--------|--------|--------|--------|--------|--------|--------|--------|
D|--------|--------|--------|--------|--------|--------|--------|--------|--------|
A|--------|--------|--------|--------|--------|--------|--------|--------|--------|
E|--------|--------|--------|--------|--------|--------|--------|--------|--------|


E|--------|--------|--------|--------|--------|--------|-----------------|-9----7--------------------|
B|--------|--------|--------|--------|--------|--------|------------7----|-----------8---5-------5---|
G|--------|--------|--------|--------|--------|--------|-----------------|---------------------------|
D|--------|--------|--------|--------|--------|--------|-----------------|---------------------------|
A|--------|--------|--------|--------|--------|--------|-----------------|---------------------------|
E|--------|--------|--------|--------|--------|--------|-----------------|---------------------------|


E|---------------------------|-----5---------------------|------------------5---7-------|
B|-5----5------------7---7---|-7------------5----5---7---|---------5----7-----------7---|
G|------6--------------------|---------------------------|------6-----------------------|
D|---------------------------|---------------------------|------------------------------|
A|---------------------------|---------------------------|------------------------------|
E|---------------------------|---------------------------|------------------------------|


E|---------------------|--------------5---5--------|---------------------------|--------------5---5---5----|
B|-7----5----5-----5---|-----5---7-----------------|----------5---5----5---5---|-----5---7-----------------|
G|-----------------6---|---------------------------|-----------------------6---|---------------------------|
D|---------------------|---------------------------|---------------------------|---------------------------|
A|---------------------|---------------------------|---------------------------|---------------------------|
E|---------------------|---------------------------|---------------------------|---------------------------|


E|------------------------------|-------5---5---5----|------------------------------|
B|-5----------------7---5-------|--------------------|-5----5-----------7---7---5---|
G|------6-------------------7---|-7------------------|------6-----------------------|
D|------------------------------|--------------------|------------------------------|
A|------------------------------|--------------------|------------------------------|
E|------------------------------|--------------------|------------------------------|


E|------------------5-----|-5----------------------|------------------7-----|-7--5--------------------------|
B|-7-------5--------------|-----------7----7-------|-5----------------------|-------8--5--5----5------------|
G|-----7------------------|--------------------6---|------6-----------------|------------------6------------|
D|------------------------|------------------------|------------------------|-------------------------------|
A|------------------------|------------------------|------------------------|-------------------------------|
E|------------------------|------------------------|------------------------|-------------------------------|


E|-----------5----5---|------------------------|------------------------|-----5---------------------|
B|--------------------|-8----8---5-------------|------------------------|-------------------5---5---|
G|--------------------|----------------7-------|------------------------|---------------------------|
D|--------------------|------------------------|-7---7----5---5---------|---------------------------|
A|--------------------|------------------------|------------------------|---------------------------|
E|--------------------|------------------------|------------------------|---------------------------|


E|------------------7-----|-7--7--5----------------|-------------------------5----|
B|-5----------------------|----------8--5-----7----|-7-----------5---5---7--------|
G|-----6------------------|------------------------|-----6------------------------|
D|------------------------|------------------------|------------------------------|
A|------------------------|------------------------|------------------------------|
E|------------------------|------------------------|------------------------------|


E|-5---------5----5--------|-------------------------5---5---|-5----5-----------------|
B|--------------------8----|-7---5---5---5---5---8-----------|--------------------7---|
G|-------------------------|---------------------------------|------------------------|
D|-------------------------|---------------------------------|------------------------|
A|-------------------------|---------------------------------|------------------------|
E|-------------------------|---------------------------------|------------------------|


E|-----------------------------|-----7-----7--7--5----------|------------------------------|
B|-7----7--5--5---5----5-------|--------------------8--5----|-------------7---7----7---7---|
G|---------------------6-------|----------------------------|-6----------------------------|
D|-----------------------------|----------------------------|------------------------------|
A|-----------------------------|----------------------------|------------------------------|
E|-----------------------------|----------------------------|------------------------------|


E|---------------------------|-------------------5----|-5------------------12--|-12------------------------|
B|-7---7---5----5------------|-----5-----5---7--------|------------------------|------7---7---5----5-------|
G|-------------------6-------|------------------------|------------------------|-------------------6-------|
D|---------------------------|------------------------|------------------------|---------------------------|
A|---------------------------|------------------------|------------------------|---------------------------|
E|---------------------------|------------------------|------------------------|---------------------------|





Track 3: Bass

G|-----------------|---------------------------------|------------------------------|
D|-----------------|---------------------------------|------------------------------|
A|------------7----|---------5---7-----------5---7---|---------5---7-----------7----|
E|-----------------|-0---0-----------0---0-----------|-0---0-----------0---0--------|


G|---------------------------------|------------------------------|---------------------------------|
D|---------------------------------|------------------------------|---------------------------------|
A|---------5---7-----------5---7---|---------5---7-----------7----|---------5---7-----------5---7---|
E|-0---0-----------0---0-----------|-0---0-----------0---0--------|-0---0-----------0---0-----------|


G|------------------------------|---------------------------------|------------------------------|
D|------------------------------|---------------------------------|------------------------------|
A|---------5---7-----------7----|---------5---7-----------5---7---|---------5---7-----------7----|
E|-0---0-----------0---0--------|-0---0-----------0---0-----------|-0---0-----------0---0--------|


G|---------------------------------|------------------------------|-----------------|
D|---------------------------------|------------------------------|-----------------|
A|---------5---7-----------5---7---|---------5---7-----------7----|-7---------------|
E|-0---0-----------0---0-----------|-0---0-----------0---0--------|-----------------|


G|-----------------|---------------------------------|---------------------------------|
D|-----------------|---------------------------------|---------------------------------|
A|------------7----|---------5---7-----------5---7---|---------5---7-----------5---7---|
E|-----------------|-0---0-----------0---0-----------|-0---0-----------0---0-----------|


G|---------------------------------|------------------------------|--------|--------|
D|---------------------------------|------------------------------|--------|--------|
A|---------5---7-----------5---7---|---------5---7-----------7----|--------|--------|
E|-0---0-----------0---0-----------|-0---0-----------0---0--------|-0------|-0------|


G|-----------------|-----------------|---------------------------------|------------------------------|
D|-----------------|-----------------|---------------------------------|------------------------------|
A|-7---------------|------------7----|---------5---7-----------5---7---|---------5---7-----------7----|
E|-----------------|-----------------|-0---0-----------0---0-----------|-0---0-----------0---0--------|


G|---------------------------------|------------------------------|---------------------------------|
D|---------------------------------|------------------------------|---------------------------------|
A|---------5---7-----------5---7---|---------5---7-----------7----|---------5---7-----------5---7---|
E|-0---0-----------0---0-----------|-0---0-----------0---0--------|-0---0-----------0---0-----------|


G|------------------------------|---------------------------------|------------------------------|
D|------------------------------|---------------------------------|------------------------------|
A|---------5---7-----------7----|---------5---7-----------5---7---|---------5---7-----------7----|
E|-0---0-----------0---0--------|-0---0-----------0---0-----------|-0---0-----------0---0--------|


G|---------------------------------|------------------------------|-----------------|
D|---------------------------------|------------------------------|-----------------|
A|---------5---7-----------5---7---|---------5---7-----------7----|-----------------|
E|-0---0-----------0---0-----------|-0---0-----------0---0--------|-0---------------|


G|-----------------|---------------------------------|------------------------------|
D|-----------------|---------------------------------|------------------------------|
A|------------7----|---------5---7-----------5---7---|---------5---7-----------7----|
E|-----------------|-0---0-----------0---0-----------|-0---0-----------0---0--------|


G|---------------------------------|------------------------------|-----------------|
D|---------------------------------|------------------------------|-----------------|
A|---------5---7-----------5---7---|---------5---7-----------7----|-----------------|
E|-0---0-----------0---0-----------|-0---0-----------0---0--------|-0---------------|


G|--------|-----------------|-----------------|---------------------------------|------------------------------|
D|--------|-----------------|-----------------|---------------------------------|------------------------------|
A|--------|-----------------|------------7----|---------5---7-----------5---7---|---------5---7-----------7----|
E|--------|-0---------------|-----------------|-0---0-----------0---0-----------|-0---0-----------0---0--------|


G|---------------------------------|------------------------------|------------------------|
D|---------------------------------|------------------------------|------------------------|
A|---------5---7-----------5---7---|---------5---7-----------7----|------5---7-------------|
E|-0---0-----------0---0-----------|-0---0-----------0---0--------|-0------------0---------|


G|--------|-----------------|-----------------|---------------------------------|------------------------------|
D|--------|-----------------|-----------------|---------------------------------|------------------------------|
A|--------|-7---------------|------------7----|---------5---7-----------5---7---|---------5---7-----------7----|
E|--------|-----------------|-----------------|-0---0-----------0---0-----------|-0---0-----------0---0--------|


G|---------------------------------|------------------------------|---------------------------------|
D|---------------------------------|------------------------------|---------------------------------|
A|---------5---7-----------5---7---|---------5---7-----------7----|---------5---7-----------5---7---|
E|-0---0-----------0---0-----------|-0---0-----------0---0--------|-0---0-----------0---0-----------|


G|------------------------------|---------------------------------|------------------------------|
D|------------------------------|---------------------------------|------------------------------|
A|---------5---7-----------7----|---------5---7-----------5---7---|---------5---7-----------7----|
E|-0---0-----------0---0--------|-0---0-----------0---0-----------|-0---0-----------0---0--------|


G|------------------------------|------------------------------|---------------------------------|
D|------------------------------|------------------------------|---------------------------------|
A|--------------5---7-----------|---------5---7-----------7----|---------5---7-----------5---7---|
E|-0----0---0-----------0---0---|-0---0-----------0---0--------|-0---0-----------0---0-----------|


G|------------------------------|-----------------------|--------|-----------------|
D|------------------------------|-----------------------|--------|-----------------|
A|---------5---7-----------7----|---------5---7---------|--------|-----------------|
E|-0---0-----------0---0--------|-0---0-----------------|--------|-0---------------|


G|-----------------|---------------------------------|------------------------------|
D|-----------------|---------------------------------|------------------------------|
A|------------7----|---------5---7-----------5---7---|---------5---7-----------7----|
E|-----------------|-0---0-----------0---0-----------|-0---0-----------0---0--------|


G|---------------------------------|------------------------------|---------------------------------|
D|---------------------------------|------------------------------|---------------------------------|
A|---------5---7-----------5---7---|---------5---7-----------7----|---------5---7-----------5---7---|
E|-0---0-----------0---0-----------|-0---0-----------0---0--------|-0---0-----------0---0-----------|


G|------------------------------|---------------------------------|------------------------------|
D|------------------------------|---------------------------------|------------------------------|
A|---------5---7-----------7----|---------5---7-----------5---7---|---------5---7-----------7----|
E|-0---0-----------0---0--------|-0---0-----------0---0-----------|-0---0-----------0---0--------|


G|---------------------------------|------------------------------|---------------------------------|
D|---------------------------------|------------------------------|---------------------------------|
A|---------5---7-----------5---7---|---------5---7-----------7----|---------5---7-----------5---7---|
E|-0---0-----------0---0-----------|-0---0-----------0---0--------|-0---0-----------0---0-----------|


G|------------------------------|---------------------------------|------------------------------|
D|------------------------------|---------------------------------|------------------------------|
A|---------5---7-----------7----|---------5---7-----------5---7---|---------5---7-----------7----|
E|-0---0-----------0---0--------|-0---0-----------0---0-----------|-0---0-----------0---0--------|


G|---------------------------------|------------------------------|--------|-----------------|
D|---------------------------------|------------------------------|--------|-----------------|
A|---------5---7-----------5---7---|---------5---7-----------7----|--------|------------7----|
E|-0---0-----------0---0-----------|-0---0-----------0---0--------|--------|-----------------|


G|---------------------------------|------------------------------|---------------------------------|
D|---------------------------------|------------------------------|---------------------------------|
A|---------5---7-----------5---7---|---------5---7-----------7----|---------5---7-----------5---7---|
E|-0---0-----------0---0-----------|-0---0-----------0---0--------|-0---0-----------0---0-----------|


G|------------------------------|--------------------|--------|-----------------|-----------------|
D|------------------------------|--------------------|--------|-----------------|-----------------|
A|---------5---7-----------7----|------5---7---------|--------|-7---------------|------------7----|
E|-0---0-----------0---0--------|-0------------------|--------|-----------------|-----------------|


G|---------------------------------|------------------------------|---------------------------------|
D|---------------------------------|------------------------------|---------------------------------|
A|---------5---7-----------5---7---|---------5---7-----------7----|---------5---7-----------5---7---|
E|-0---0-----------0---0-----------|-0---0-----------0---0--------|-0---0-----------0---0-----------|


G|------------------------------|---------------------------------|------------------------------|
D|------------------------------|---------------------------------|------------------------------|
A|---------5---7-----------7----|---------5---7-----------5---7---|---------5---7-----------7----|
E|-0---0-----------0---0--------|-0---0-----------0---0-----------|-0---0-----------0---0--------|


G|---------------------------------|------------------------------|---------------------------------|
D|---------------------------------|------------------------------|---------------------------------|
A|---------5---7-----------5---7---|---------5---7-----------7----|---------5---7-----------5---7---|
E|-0---0-----------0---0-----------|-0---0-----------0---0--------|-0---0-----------0---0-----------|


G|------------------------------|---------------------------------|------------------------------|
D|------------------------------|---------------------------------|------------------------------|
A|---------5---7-----------7----|---------5---7-----------5---7---|---------5---7-----------7----|
E|-0---0-----------0---0--------|-0---0-----------0---0-----------|-0---0-----------0---0--------|


G|---------------------------------|------------------------------|---------------------------------|
D|---------------------------------|------------------------------|-----7---5---7-------7---5---7---|
A|---------5---7-----------5---7---|---------5---7-----------7----|-0---------------0---------------|
E|-0---0-----------0---0-----------|-0---0-----------0---0--------|---------------------------------|


G|---------------------------------|---------------------------------|---------------------------------|
D|---------5---7-----------5---7---|---------------------------------|---------------------------------|
A|-0---0-----------0---0-----------|---------5---7-----------5---7---|---------5---7-----------5---7---|
E|---------------------------------|-0---0-----------0---0-----------|-0---0-----------0---0-----------|


G|---------------------------------|---------------------------------|---------------------------------|
D|---------5---7-----------5---7---|---------5---7-----------5---7---|---------------------------------|
A|-0---0-----------0---0-----------|-0---0-----------0---0-----------|---------5---7-----------5---7---|
E|---------------------------------|---------------------------------|-0---0-----------0---0-----------|


G|---------------------------------|------------------------------|---------------------------------|
D|---------------------------------|---------5---7--------7---7---|-----7---7---7---7---7---7---7---|
A|---------5---7-----------5---7---|-0---0------------------------|---------------------------------|
E|-0---0-----------0---0-----------|------------------------------|---------------------------------|


G|------------------------------|---------------------------------|---------------------------------|
D|------------------------------|---------------------------------|---------5---7-----------5---7---|
A|---------5---7--------5---7---|---------5---7-----------5---7---|-0---0-----------0---0-----------|
E|-0---0------------------------|-0---0-----------0---0-----------|---------------------------------|


G|---------------------------------|---------------------------------|---------------------------------|
D|---------5---7-----------5---7---|---------------------------------|---------------------------------|
A|-0---0-----------0---0-----------|---------5---7-----------5---7---|---------5---7-----------5---7---|
E|---------------------------------|-0---0-----------0---0-----------|-0---0-----------0---0-----------|


G|---------------------------------|---------------------------------|
D|---------5---7-----------5---7---|---------5---7-----------5---7---|
A|-0---0-----------0---0-----------|-0---0-----------0---0-----------|
E|---------------------------------|---------------------------------|