Menu:

 

Search:

 

u2 - wake up dead man:

 



Title: Wake Up Dead Man
Artist: 
Album: Pop
Author: U2


Track 1: Ac. Guitar (Nylon)  

E|-------------------------------|-------------------------------|-------------------------------|
B|------4--------------4---------|------4--------------4---------|------4--------------4---------|
G|-1----4--------------4---------|------4--------------4---------|------4--------------4---------|
D|----------6-----6--------6-----|-6--------6-----6--------6-----|-6--------6-----6--------6-----|
A|-------------------------------|-------------------------------|-------------------------------|
E|-------------------------------|-------------------------------|-------------------------------|


E|--------------------------|-------------------------------|--------------------------|
B|------4--------------4----|------2--------------2---------|------2--------------2----|
G|------4--------------4----|------3--------------3---------|------3--------------3----|
D|-6--------6-----6---------|-4--------4-----4--------4-----|-4--------4-----4---------|
A|--------------------------|-------------------------------|--------------------------|
E|--------------------------|-------------------------------|--------------------------|


E|------0----------------------|-----------------------------|-------------------------------|
B|------0----------------------|------5----------------------|------4--------------4---------|
G|------1----------------------|-----------------------------|------4--------------4---------|
D|-2--------2-----2----2---1---|------6----------------------|------4--------------4---------|
A|-----------------------------|-4----7---4-----4----4-------|-2----6---2-----2----6---------|
E|-----------------------------|-------------------------2---|-------------------------2-----|


E|------2--------------2----|-------------------------------|--------------------------|
B|------2--------------2----|------4--------------4---------|------4--------------4----|
G|------3--------------3----|------4--------------4---------|------4--------------4----|
D|------4--------------4----|-6--------6-----6--------6-----|-6--------6-----6---------|
A|--------------------------|-------------------------------|--------------------------|
E|-2--------2-----2---------|-------------------------------|--------------------------|


E|-------------------------------|--------------------------|------0----------------------|
B|------2--------------2---------|------2--------------2----|------0----------------------|
G|------3--------------3---------|------3--------------3----|------1----------------------|
D|-4--------4-----4--------4-----|-4--------4-----4---------|-2--------2-----2----2---1---|
A|-------------------------------|--------------------------|-----------------------------|
E|-------------------------------|--------------------------|-----------------------------|


E|-----------------------------|-------------------------------|------2--------------2----|
B|------5----------------------|------4--------------4---------|------2--------------2----|
G|-----------------------------|------4--------------4---------|------3--------------3----|
D|------6----------------------|------4--------------4---------|------4--------------4----|
A|-4----7---4-----4----4-------|-2----6---2-----2----6---------|--------------------------|
E|-------------------------2---|-------------------------2-----|-2--------2-----2---------|


E|-----------------------------|---------------------|-----------------------------|
B|------4----4-------4-----4---|-4----4---------4----|------2----------------------|
G|------4----4-------4-----4---|-4----4---------4----|------3----------------------|
D|------6----6-------6-----6---|-6----6---------6----|------4--------------2---1---|
A|------6----6-------6-----6---|-6----6---------6----|-----------------------------|
E|-4-------------4-------------|-----------4---------|-2--------2-----2------------|


E|-0----0----0---0---0-------|-----------------------------|---------------------|
B|-2----2----2---2---2-------|------4----4-------4-----4---|-4----4---------4----|
G|-1----1----1---1---1-------|------4----4-------4-----4---|-4----4---------4----|
D|-2----2----2---2---2-------|------6----6-------6-----6---|-6----6---------6----|
A|-4-------------------------|------6----6-------6-----6---|-6----6---------6----|
E|-----------------------2---|-4-------------4-------------|-----------4---------|


E|-----------------------------|-0----0----0---0---0-------|-------------------------------|
B|------2----------------------|-2----2----2---2---2-------|------4--------------4---------|
G|------3----------------------|-1----1----1---1---1-------|-1----4--------------4---------|
D|------4--------------2---1---|-2----2----2---2---2-------|----------6-----6--------6-----|
A|-----------------------------|-4-------------------------|-------------------------------|
E|-2--------2-----2------------|-----------------------2---|-------------------------------|


E|--------------------------|-------------------------------|--------------------------|
B|------4--------------4----|------2--------------2---------|------2--------------2----|
G|------4--------------4----|------3--------------3---------|------3--------------3----|
D|-6--------6-----6---------|-4--------4-----4--------4-----|-4--------4-----4---------|
A|--------------------------|-------------------------------|--------------------------|
E|--------------------------|-------------------------------|--------------------------|


E|------0----------------------|-----------------------------|-------------------------------|
B|------0----------------------|------5----------------------|------4--------------4---------|
G|------1----------------------|-----------------------------|------4--------------4---------|
D|-2--------2-----2----2---1---|------6----------------------|------4--------------4---------|
A|-----------------------------|-4----7---4-----4----4-------|-2----6---2-----2----6---------|
E|-----------------------------|-------------------------2---|-------------------------2-----|


E|------2--------------2----|-------------------------------|--------------------------|
B|------2--------------2----|------4--------------4---------|------4--------------4----|
G|------3--------------3----|-1----4--------------4---------|------4--------------4----|
D|------4--------------4----|----------6-----6--------6-----|-6--------6-----6---------|
A|--------------------------|-------------------------------|--------------------------|
E|-2--------2-----2---------|-------------------------------|--------------------------|


E|-------------------------------|--------------------------|------0----------------------|
B|------2--------------2---------|------2--------------2----|------0----------------------|
G|------3--------------3---------|------3--------------3----|------1----------------------|
D|-4--------4-----4--------4-----|-4--------4-----4---------|-2--------2-----2----2---1---|
A|-------------------------------|--------------------------|-----------------------------|
E|-------------------------------|--------------------------|-----------------------------|


E|-----------------------------|-------------------------------|------2--------------2---------|
B|------5----------------------|------4--------------4---------|------2--------------2---------|
G|-----------------------------|------4--------------4---------|------3--------------3---------|
D|------6----------------------|------4--------------4---------|------4--------------4---------|
A|-4----7---4-----4----4-------|-2----6---2-----2----6---------|-------------------------------|
E|-------------------------2---|-------------------------2-----|-2--------2-----2--------2-----|


E|-----------------------------|---------------------|-----------------------------|
B|------4----4-------4-----4---|-4----4---------4----|------2----------------------|
G|------4----4-------4-----4---|-4----4---------4----|------3----------------------|
D|------6----6-------6-----6---|-6----6---------6----|------4--------------2---1---|
A|------6----6-------6-----6---|-6----6---------6----|-----------------------------|
E|-4-------------4-------------|-----------4---------|-2--------2-----2------------|


E|-0----0----0---0---0-------|-----------------------------|---------------------|
B|-2----2----2---2---2-------|------4----4-------4-----4---|-4----4---------4----|
G|-1----1----1---1---1-------|------4----4-------4-----4---|-4----4---------4----|
D|-2----2----2---2---2-------|------6----6-------6-----6---|-6----6---------6----|
A|-4-------------------------|------6----6-------6-----6---|-6----6---------6----|
E|-----------------------2---|-4-------------4-------------|-----------4---------|


E|-----------------------------|-0----0----0---0---0-------|-------------------------------|
B|------2----------------------|-2----2----2---2---2-------|------4--------------4---------|
G|------3----------------------|-1----1----1---1---1-------|-1----4--------------4---------|
D|------4--------------2---1---|-2----2----2---2---2-------|----------6-----6--------6-----|
A|-----------------------------|-4-------------------------|-------------------------------|
E|-2--------2-----2------------|-----------------------2---|-------------------------------|


E|--------------------------|-------------------------------|--------------------------|
B|------4--------------4----|------2--------------2---------|------2--------------2----|
G|------4--------------4----|------3--------------3---------|------3--------------3----|
D|-6--------6-----6---------|-4--------4-----4--------4-----|-4--------4-----4---------|
A|--------------------------|-------------------------------|--------------------------|
E|--------------------------|-------------------------------|--------------------------|


E|------0----------------------|-----------------------------|-------------------------------|
B|------0----------------------|------5----------------------|------4--------------4---------|
G|------1----------------------|-----------------------------|------4--------------4---------|
D|-2--------2-----2----2---1---|------6----------------------|------4--------------4---------|
A|-----------------------------|-4----7---4-----4----4-------|-2----6---2-----2----6---------|
E|-----------------------------|-------------------------2---|-------------------------2-----|


E|------2--------------2----|-------------------------------|--------------------------|
B|------2--------------2----|------4--------------4---------|------4--------------4----|
G|------3--------------3----|-1----4--------------4---------|------4--------------4----|
D|------4--------------4----|----------6-----6--------6-----|-6--------6-----6---------|
A|--------------------------|-------------------------------|--------------------------|
E|-2--------2-----2---------|-------------------------------|--------------------------|


E|-------------------------------|--------------------------|------0----------------------|
B|------2--------------2---------|------2--------------2----|------0----------------------|
G|------3--------------3---------|------3--------------3----|------1----------------------|
D|-4--------4-----4--------4-----|-4--------4-----4---------|-2--------2-----2----2---1---|
A|-------------------------------|--------------------------|-----------------------------|
E|-------------------------------|--------------------------|-----------------------------|


E|-----------------------------|-------------------------------|------2--------------2---------|
B|------5----------------------|------4--------------4---------|------2--------------2---------|
G|-----------------------------|------4--------------4---------|------3--------------3---------|
D|------6----------------------|------4--------------4---------|------4--------------4---------|
A|-4----7---4-----4----4-------|-2----6---2-----2----6---------|-------------------------------|
E|-------------------------2---|-------------------------2-----|-2--------2-----2--------2-----|


E|-----------------------------|---------------------|-----------------------------|
B|------4----4-------4-----4---|-4----4---------4----|------2----------------------|
G|------4----4-------4-----4---|-4----4---------4----|------3----------------------|
D|------6----6-------6-----6---|-6----6---------6----|------4--------------2---1---|
A|------6----6-------6-----6---|-6----6---------6----|-----------------------------|
E|-4-------------4-------------|-----------4---------|-2--------2-----2------------|


E|-0----0----0---0---0-------|-----------------------------|---------------------|
B|-2----2----2---2---2-------|------4----4-------4-----4---|-4----4---------4----|
G|-1----1----1---1---1-------|------4----4-------4-----4---|-4----4---------4----|
D|-2----2----2---2---2-------|------6----6-------6-----6---|-6----6---------6----|
A|-4-------------------------|------6----6-------6-----6---|-6----6---------6----|
E|-----------------------2---|-4-------------4-------------|-----------4---------|


E|-----------------------------|-0----0----0---0---0-------|-------------------------------|
B|------2----------------------|-2----2----2---2---2-------|------4--------------4---------|
G|------3----------------------|-1----1----1---1---1-------|-1----4--------------4---------|
D|------4--------------2---1---|-2----2----2---2---2-------|----------6-----6--------6-----|
A|-----------------------------|-4-------------------------|-------------------------------|
E|-2--------2-----2------------|-----------------------2---|-------------------------------|


E|--------------------------|-------------------------------|--------------------------|
B|------4--------------4----|------2--------------2---------|------2--------------2----|
G|------4--------------4----|------3--------------3---------|------3--------------3----|
D|-6--------6-----6---------|-4--------4-----4--------4-----|-4--------4-----4---------|
A|--------------------------|-------------------------------|--------------------------|
E|--------------------------|-------------------------------|--------------------------|


E|------0----------------------|-----------------------------|-------------------------------|
B|------0----------------------|------5----------------------|------4--------------4---------|
G|------1----------------------|-----------------------------|------4--------------4---------|
D|-2--------2-----2----2---1---|------6----------------------|------4--------------4---------|
A|-----------------------------|-4----7---4-----4----4-------|-2----6---2-----2----6---------|
E|-----------------------------|-------------------------2---|-------------------------2-----|


E|------2--------------2---------|-------------------------------|--------------------------|
B|------2--------------2---------|------4--------------4---------|------4--------------4----|
G|------3--------------3---------|-1----4--------------4---------|------4--------------4----|
D|------4--------------4---------|----------6-----6--------6-----|-6--------6-----6---------|
A|-------------------------------|-------------------------------|--------------------------|
E|-2--------2-----2--------2-----|-------------------------------|--------------------------|


E|-------------------------------|--------------------------|------0----------------------|
B|------2--------------2---------|------2--------------2----|------0----------------------|
G|------3--------------3---------|------3--------------3----|------1----------------------|
D|-4--------4-----4--------4-----|-4--------4-----4---------|-2--------2-----2----2---1---|
A|-------------------------------|--------------------------|-----------------------------|
E|-------------------------------|--------------------------|-----------------------------|


E|-----------------------------|-------------------------------|------2--------------2---------|
B|------5----------------------|------4--------------4---------|------2--------------2---------|
G|-----------------------------|------4--------------4---------|------3--------------3---------|
D|------6----------------------|------4--------------4---------|------4--------------4---------|
A|-4----7---4-----4----4-------|-2----6---2-----2----6---------|-------------------------------|
E|-------------------------2---|-------------------------2-----|-2--------2-----2--------2-----|


E|-----------------------------|---------------------|-----------------------------|
B|------4----4-------4-----4---|-4----4---------4----|------2----------------------|
G|------4----4-------4-----4---|-4----4---------4----|------3----------------------|
D|------6----6-------6-----6---|-6----6---------6----|------4--------------2---1---|
A|------6----6-------6-----6---|-6----6---------6----|-----------------------------|
E|-4-------------4-------------|-----------4---------|-2--------2-----2------------|


E|-0----0----0---0---0-------|-----------------------------|---------------------|
B|-2----2----2---2---2-------|------4----4-------4-----4---|-4----4---------4----|
G|-1----1----1---1---1-------|------4----4-------4-----4---|-4----4---------4----|
D|-2----2----2---2---2-------|------6----6-------6-----6---|-6----6---------6----|
A|-4-------------------------|------6----6-------6-----6---|-6----6---------6----|
E|-----------------------2---|-4-------------4-------------|-----------4---------|


E|-----------------------------|-0----0----0---0---0-------|-----------------------------|
B|------2----------------------|-2----2----2---2---2-------|------4----4-------4-----4---|
G|------3----------------------|-1----1----1---1---1-------|------4----4-------4-----4---|
D|------4--------------2---1---|-2----2----2---2---2-------|------6----6-------6-----6---|
A|-----------------------------|-4-------------------------|------6----6-------6-----6---|
E|-2--------2-----2------------|-----------------------2---|-4-------------4-------------|


E|---------------------|-----------------------------|-0----0----0---0---0-------|
B|-4----4---------4----|------2----------------------|-2----2----2---2---2-------|
G|-4----4---------4----|------3----------------------|-1----1----1---1---1-------|
D|-6----6---------6----|------4--------------2---1---|-2----2----2---2---2-------|
A|-6----6---------6----|-----------------------------|-4-------------------------|
E|-----------4---------|-2--------2-----2------------|-----------------------2---|


E|-----------------------------|---------------------------------|---------------------------------------|
B|------4----4-------4-----4---|-4-------4---------------4-------|---------2-----------------------------|
G|------4----4-------4-----4---|-4-------4---------------4-------|---------3-----------------------------|
D|------6----6-------6-----6---|-6-------6---------------6-------|------4-------------------2--2--1---2--|
A|------6----6-------6-----6---|-6----6---------------6----------|------------------------------------4--|
E|-4-------------4-------------|--------------4--4------------2--|-2----------2-----2--2-----------------|


E|-0----0-------------0--0------------|----------------------------------|---------------------------------|
B|-2-------2----2-----2--2------------|---------4----4---------4-----4---|-4-------4---------------4-------|
G|-1-------1----1-----1-----1---------|---------4----4---------4-----4---|-4-------4---------------4-------|
D|---------2----2--2--------2---------|------6--------------6-----6------|------6---------------6----------|
A|------------------------------------|------6--------------6-----6------|------6---------------6----------|
E|-----------------------------2---4--|-4---------------4----------------|--------------4--4------------2--|


E|---------------------------------------|-0----0-------------0--0------------|----------------------------------|
B|---------2-----------------------------|-2----2-------------2--2------------|---------4----4---------4-----4---|
G|------3-----------------------------1--|---------1----1--1--------1---------|---------4----4---------4--4------|
D|------4-------------------2--2--1---2--|---------2----2--2--------2---------|------6--------------6-----6------|
A|------------------------------------4--|------------------------------------|------6--------------6-----6------|
E|-2----------2-----2--2-----------------|-----------------------------2---4--|-4---------------4----------------|


E|---------------------------------|---------------------------------------|-0----0--0----0--0---0--0---------|
B|-4-------4---------------4-------|------2--2--------------------------2--|------2--2----2--2---2--2---------|
G|------4---------------4----------|------3--3--------------------------1--|------1--1----1--1---1--1---------|
D|------6---------------6----------|------4--4----------------2--2--1---2--|------2--2----2--2---2--2---------|
A|------6---------------6----------|------------------------------------4--|----------------------------------|
E|--------------4--4------------2--|-2----------2-----2--2-----------------|---------------------------2------|


E|--------|--------|--------|
B|--------|--------|--------|
G|--------|--------|--------|
D|--------|--------|--------|
A|--------|--------|--------|
E|--------|--------|--------|





Track 2: String Ensemble 1   

E|-11-----|-11-----|-11-----|-11-----|-9------|-9------|-7------|-9------|-11-----|
B|-12-----|-12-----|-12-----|-12-----|-11-----|-11-----|-9------|-9------|-12-----|
G|-13-----|-13-----|-13-----|-13-----|-11-----|-11-----|-9------|-9------|-11-----|
D|--------|--------|--------|--------|--------|--------|--------|--------|--------|
A|--------|--------|--------|--------|--------|--------|--------|--------|--------|
E|--------|--------|--------|--------|--------|--------|--------|--------|--------|


E|-9------|-11-----|-11-----|-9------|-9------|-7------|-9------|-11-----|-9------|
B|-11-----|-12-----|-12-----|-11-----|-11-----|-9------|-9------|-12-----|-11-----|
G|-11-----|-13-----|-13-----|-11-----|-11-----|-9------|-9------|-11-----|-11-----|
D|--------|--------|--------|--------|--------|--------|--------|--------|--------|
A|--------|--------|--------|--------|--------|--------|--------|--------|--------|
E|--------|--------|--------|--------|--------|--------|--------|--------|--------|


E|-11-----|-11-----|-9------|-9------|-11-----|-11-----|-9------|-9------|-11-----|
B|-12-----|-12-----|-11-----|-9------|-12-----|-12-----|-11-----|-9------|-12-----|
G|-13-----|-13-----|-11-----|-10-----|-13-----|-13-----|-11-----|-10-----|-13-----|
D|--------|--------|--------|--------|--------|--------|--------|--------|--------|
A|--------|--------|--------|--------|--------|--------|--------|--------|--------|
E|--------|--------|--------|--------|--------|--------|--------|--------|--------|


E|-11-----|-9------|-9------|-7------|-9------|-11-----|-9------|-11-----|-11-----|
B|-12-----|-11-----|-11-----|-9------|-9------|-12-----|-11-----|-12-----|-12-----|
G|-13-----|-11-----|-11-----|-9------|-9------|-11-----|-11-----|-13-----|-13-----|
D|--------|--------|--------|--------|--------|--------|--------|--------|--------|
A|--------|--------|--------|--------|--------|--------|--------|--------|--------|
E|--------|--------|--------|--------|--------|--------|--------|--------|--------|


E|-9------|-9------|-7------|-9------|-11-----|-9------|-11-----|-11-----|-9------|
B|-11-----|-11-----|-9------|-9------|-12-----|-11-----|-12-----|-12-----|-11-----|
G|-11-----|-11-----|-9------|-9------|-11-----|-11-----|-13-----|-13-----|-11-----|
D|--------|--------|--------|--------|--------|--------|--------|--------|--------|
A|--------|--------|--------|--------|--------|--------|--------|--------|--------|
E|--------|--------|--------|--------|--------|--------|--------|--------|--------|


E|-9------|-11-----|-11-----|-9------|-9------|-11-----|-11-----|-9------|-9------|
B|-9------|-12-----|-12-----|-11-----|-9------|-12-----|-12-----|-11-----|-11-----|
G|-10-----|-13-----|-13-----|-11-----|-10-----|-13-----|-13-----|-11-----|-11-----|
D|--------|--------|--------|--------|--------|--------|--------|--------|--------|
A|--------|--------|--------|--------|--------|--------|--------|--------|--------|
E|--------|--------|--------|--------|--------|--------|--------|--------|--------|


E|-7------|-9------|-11-----|-9------|-11-----|-11-----|-9------|-9------|-7------|
B|-9------|-9------|-12-----|-11-----|-12-----|-12-----|-11-----|-11-----|-9------|
G|-9------|-9------|-11-----|-11-----|-13-----|-13-----|-11-----|-11-----|-9------|
D|--------|--------|--------|--------|--------|--------|--------|--------|--------|
A|--------|--------|--------|--------|--------|--------|--------|--------|--------|
E|--------|--------|--------|--------|--------|--------|--------|--------|--------|


E|-9------|-11-----|-9------|-11-----|-11-----|-9------|-9------|-11-----|-11-----|
B|-9------|-12-----|-11-----|-12-----|-12-----|-11-----|-9------|-12-----|-12-----|
G|-9------|-11-----|-11-----|-13-----|-13-----|-11-----|-10-----|-13-----|-13-----|
D|--------|--------|--------|--------|--------|--------|--------|--------|--------|
A|--------|--------|--------|--------|--------|--------|--------|--------|--------|
E|--------|--------|--------|--------|--------|--------|--------|--------|--------|


E|-9------|-9------|-11-----|-11-----|-9------|-9------|-7------|-9------|-11-----|
B|-11-----|-9------|-12-----|-12-----|-11-----|-11-----|-9------|-9------|-12-----|
G|-11-----|-10-----|-13-----|-13-----|-11-----|-11-----|-9------|-9------|-11-----|
D|--------|--------|--------|--------|--------|--------|--------|--------|--------|
A|--------|--------|--------|--------|--------|--------|--------|--------|--------|
E|--------|--------|--------|--------|--------|--------|--------|--------|--------|


E|-9------|-11-----|-11-----|-9------|-9------|-7------|-9------|-11-----|-9------|
B|-11-----|-12-----|-12-----|-11-----|-11-----|-9------|-9------|-12-----|-11-----|
G|-11-----|-13-----|-13-----|-11-----|-11-----|-9------|-9------|-11-----|-11-----|
D|--------|--------|--------|--------|--------|--------|--------|--------|--------|
A|--------|--------|--------|--------|--------|--------|--------|--------|--------|
E|--------|--------|--------|--------|--------|--------|--------|--------|--------|


E|-11-----|-11-----|-9------|-9------|-11-----|-11-----|-9------|-9------|-11-----|
B|-12-----|-12-----|-11-----|-9------|-12-----|-12-----|-11-----|-9------|-12-----|
G|-13-----|-13-----|-11-----|-10-----|-13-----|-13-----|-11-----|-10-----|-13-----|
D|--------|--------|--------|--------|--------|--------|--------|--------|--------|
A|--------|--------|--------|--------|--------|--------|--------|--------|--------|
E|--------|--------|--------|--------|--------|--------|--------|--------|--------|


E|-11-----|-9------|-9------|-11-----|-11-----|-9------|-9------|-11-----|-11-----|
B|-12-----|-11-----|-9------|-12-----|-12-----|-11-----|-9------|-12-----|-12-----|
G|-13-----|-11-----|-10-----|-13-----|-13-----|-11-----|-10-----|-13-----|-13-----|
D|--------|--------|--------|--------|--------|--------|--------|--------|--------|
A|--------|--------|--------|--------|--------|--------|--------|--------|--------|
E|--------|--------|--------|--------|--------|--------|--------|--------|--------|


E|-9------|-9------|-11-----|-11-----|-9------|-9------|--------|--------|--------|
B|-11-----|-9------|-12-----|-12-----|-11-----|-9------|--------|--------|--------|
G|-11-----|-10-----|-13-----|-13-----|-11-----|-10-----|--------|--------|--------|
D|--------|--------|--------|--------|--------|--------|--------|--------|--------|
A|--------|--------|--------|--------|--------|--------|--------|--------|--------|
E|--------|--------|--------|--------|--------|--------|--------|--------|--------|





Track 3: Distortion Guitar   

E|--------|--------|--------|--------|--------|--------|--------|--------|--------|
B|--------|--------|--------|--------|--------|--------|--------|--------|--------|
G|--------|--------|--------|--------|--------|--------|--------|--------|--------|
D|--------|--------|--------|--------|--------|--------|--------|--------|--------|
A|--------|--------|--------|--------|--------|--------|--------|--------|--------|
E|--------|--------|--------|--------|--------|--------|--------|--------|--------|


E|--------|--------|--------|--------|--------|--------|--------|--------|--------|
B|--------|--------|--------|--------|--------|--------|--------|--------|--------|
G|--------|--------|--------|--------|--------|--------|--------|--------|--------|
D|--------|--------|--------|--------|--------|--------|--------|--------|--------|
A|--------|--------|--------|--------|--------|--------|--------|--------|--------|
E|--------|--------|--------|--------|--------|--------|--------|--------|--------|


E|--------------------|--------|-----------------|--------|--------------------|--------|
B|------------4---4---|-4------|-4---------------|--------|------------4---4---|-4------|
G|------------4---4---|-4------|-4---------------|--------|------------4---4---|-4------|
D|------------6---6---|-6------|-6---------------|--------|------------6---6---|-6------|
A|------------6---6---|-6------|-6---------------|--------|------------6---6---|-6------|
E|--------------------|--------|-----------------|--------|--------------------|--------|


E|-----------------|--------|--------|--------|--------|--------|--------|--------|
B|-4---------------|--------|--------|--------|--------|--------|--------|--------|
G|-4---------------|--------|--------|--------|--------|--------|--------|--------|
D|-6---------------|--------|--------|--------|--------|--------|--------|--------|
A|-6---------------|--------|--------|--------|--------|--------|--------|--------|
E|-----------------|--------|--------|--------|--------|--------|--------|--------|


E|--------|--------|--------|--------|--------|--------|--------|--------|--------|
B|--------|--------|--------|--------|--------|--------|--------|--------|--------|
G|--------|--------|--------|--------|--------|--------|--------|--------|--------|
D|--------|--------|--------|--------|--------|--------|--------|--------|--------|
A|--------|--------|--------|--------|--------|--------|--------|--------|--------|
E|--------|--------|--------|--------|--------|--------|--------|--------|--------|


E|--------|--------------------|--------|------------------------|--------|--------------------|
B|--------|------------4---4---|-4------|-4----------------------|--------|------------4---4---|
G|--------|------------4---4---|-4------|-4--------------4---3---|--------|------------4---4---|
D|--------|------------6---6---|-6------|-6----------------------|--------|------------6---6---|
A|--------|------------6---6---|-6------|-6----------------------|-4------|------------6---6---|
E|--------|--------------------|--------|------------------------|--------|--------------------|


E|--------|------------------------|--------|--------|--------|--------|--------|--------|
B|-4------|-4----------------------|--------|--------|--------|--------|--------|--------|
G|-4------|-4--------------4---3---|--------|--------|--------|--------|--------|--------|
D|-6------|-6----------------------|--------|--------|--------|--------|--------|--------|
A|-6------|-6----------------------|-4------|--------|--------|--------|--------|--------|
E|--------|------------------------|--------|--------|--------|--------|--------|--------|


E|--------|--------|--------|--------|--------|--------|--------|--------|--------|
B|--------|--------|--------|--------|--------|--------|--------|--------|--------|
G|--------|--------|--------|--------|--------|--------|--------|--------|--------|
D|--------|--------|--------|--------|--------|--------|--------|--------|--------|
A|--------|--------|--------|--------|--------|--------|--------|--------|--------|
E|--------|--------|--------|--------|--------|--------|--------|--------|--------|


E|--------|--------|--------------------|--------|------------------------|--------|
B|--------|--------|------------4---4---|-4------|-4----------------------|--------|
G|--------|--------|------------4---4---|-4------|-4--------------4---3---|--------|
D|--------|--------|------------6---6---|-6------|-6----------------------|--------|
A|--------|--------|------------6---6---|-6------|-6----------------------|-4------|
E|--------|--------|--------------------|--------|------------------------|--------|


E|--------------------|--------|------------------------|--------|--------|--------|
B|------------4---4---|-4------|-4----------------------|--------|--------|--------|
G|------------4---4---|-4------|-4--------------4---3---|--------|--------|--------|
D|------------6---6---|-6------|-6----------------------|--------|--------|--------|
A|------------6---6---|-6------|-6----------------------|-4------|--------|--------|
E|--------------------|--------|------------------------|--------|--------|--------|


E|--------|--------|--------|--------|--------|--------|--------|--------|--------|
B|--------|--------|--------|--------|--------|--------|--------|--------|--------|
G|--------|--------|--------|--------|--------|--------|--------|--------|--------|
D|--------|--------|--------|--------|--------|--------|--------|--------|--------|
A|--------|--------|--------|--------|--------|--------|--------|--------|--------|
E|--------|--------|--------|--------|--------|--------|--------|--------|--------|


E|--------|--------|--------|--------|--------|--------------------|--------|------------------------|
B|--------|--------|--------|--------|--------|------------4---4---|-4------|-4----------------------|
G|--------|--------|--------|--------|--------|------------4---4---|-4------|-4--------------4---3---|
D|--------|--------|--------|--------|--------|------------6---6---|-6------|-6----------------------|
A|--------|--------|--------|--------|--------|------------6---6---|-6------|-6----------------------|
E|--------|--------|--------|--------|--------|--------------------|--------|------------------------|


E|--------|--------------------|--------|------------------------|--------|--------------------|
B|--------|------------4---4---|-4------|-4----------------------|--------|------------4---4---|
G|--------|------------4---4---|-4------|-4--------------4---3---|--------|------------4---4---|
D|--------|------------6---6---|-6------|-6----------------------|--------|------------6---6---|
A|-4------|------------6---6---|-6------|-6----------------------|-4------|------------6---6---|
E|--------|--------------------|--------|------------------------|--------|--------------------|


E|--------|------------------------|--------|--------------------|--------|------------------------|
B|-4------|-4----------------------|--------|------------4---4---|-4------|-4----------------------|
G|-4------|-4--------------4---3---|--------|------------4---4---|-4------|-4--------------4---3---|
D|-6------|-6----------------------|--------|------------6---6---|-6------|-6----------------------|
A|-6------|-6----------------------|-4------|------------6---6---|-6------|-6----------------------|
E|--------|------------------------|--------|--------------------|--------|------------------------|


E|--------|--------------------|--------|------------------------|--------|------------------------|
B|--------|------------4---4---|-4------|-4--------------2---2---|-2------|-2--------------4---4---|
G|--------|--------------------|--------|------------------------|--------|------------------------|
D|--------|--------------------|--------|------------------------|--------|------------------------|
A|-4------|--------------------|--------|------------------------|--------|------------------------|
E|--------|--------------------|--------|------------------------|--------|------------------------|


E|--------|------------------------|--------|--------|--------|--------|
B|-4------|-4--------------2---2---|-2------|-2------|-2------|--------|
G|--------|------------------------|--------|--------|--------|--------|
D|--------|------------------------|--------|--------|--------|--------|
A|--------|------------------------|--------|--------|--------|--------|
E|--------|------------------------|--------|--------|--------|--------|





Track 4: El. Guitar (Muted)  

E|--------|--------|--------|--------|--------|--------|--------|--------|--------|
B|--------|--------|--------|--------|--------|--------|--------|--------|--------|
G|--------|--------|--------|--------|--------|--------|--------|--------|--------|
D|--------|--------|--------|--------|--------|--------|--------|--------|--------|
A|--------|--------|--------|--------|--------|--------|--------|--------|--------|
E|--------|--------|--------|--------|--------|--------|--------|--------|--------|


E|--------|--------|--------|--------|--------|--------|--------|--------|--------|
B|--------|--------|--------|--------|--------|--------|--------|--------|--------|
G|--------|--------|--------|--------|--------|--------|--------|--------|--------|
D|--------|--------|--------|--------|--------|--------|--------|--------|--------|
A|--------|--------|--------|--------|--------|--------|--------|--------|--------|
E|--------|--------|--------|--------|--------|--------|--------|--------|--------|


E|--------|--------|--------|--------|--------|--------|--------|--------|--------|
B|--------|--------|--------|--------|--------|--------|--------|--------|--------|
G|--------|--------|--------|--------|--------|--------|--------|--------|--------|
D|--------|--------|--------|--------|--------|--------|--------|--------|--------|
A|--------|--------|--------|--------|--------|--------|--------|--------|--------|
E|--------|--------|--------|--------|--------|--------|--------|--------|--------|


E|--------|--------|--------|--------|--------|--------|--------|-----------------------------|
B|--------|--------|--------|--------|--------|--------|--------|------2----------------------|
G|--------|--------|--------|--------|--------|--------|--------|----------------1------------|
D|--------|--------|--------|--------|--------|--------|--------|-----------------------------|
A|--------|--------|--------|--------|--------|--------|--------|-----------------------------|
E|--------|--------|--------|--------|--------|--------|--------|-----------------------------|


E|----------------------------------|--------------------------------|----------------------------------|
B|---------2------------------------|---------2----------------------|---------2------------------------|
G|-----1-------------1--------------|-----1-------------1------------|-----1-------------1--------------|
D|----------------------------------|--------------------------------|----------------------------------|
A|----------------------------------|--------------------------------|----------------------------------|
E|----------------------------------|--------------------------------|----------------------------------|


E|--------------------------------|----------------------------------|--------------------------------|
B|---------2----------------------|---------2------------------------|---------2----------------------|
G|-----1-------------1------------|-----1-------------1--------------|-----1-------------1------------|
D|--------------------------------|----------------------------------|--------------------------------|
A|--------------------------------|----------------------------------|--------------------------------|
E|--------------------------------|----------------------------------|--------------------------------|


E|----------------------------------|--------|--------|--------|--------|--------|
B|---------2------------------------|--------|--------|--------|--------|--------|
G|-----1-------------1--------------|--------|--------|--------|--------|--------|
D|----------------------------------|--------|--------|--------|--------|--------|
A|----------------------------------|--------|--------|--------|--------|--------|
E|----------------------------------|--------|--------|--------|--------|--------|


E|--------|--------|--------|--------|--------|--------|--------|--------|--------|
B|--------|--------|--------|--------|--------|--------|--------|--------|--------|
G|--------|--------|--------|--------|--------|--------|--------|--------|--------|
D|--------|--------|--------|--------|--------|--------|--------|--------|--------|
A|--------|--------|--------|--------|--------|--------|--------|--------|--------|
E|--------|--------|--------|--------|--------|--------|--------|--------|--------|


E|--------|--------|-----------------------------|----------------------------------|
B|--------|--------|------2----------------------|---------2------------------------|
G|--------|--------|----------------1------------|-----1-------------1--------------|
D|--------|--------|-----------------------------|----------------------------------|
A|--------|--------|-----------------------------|----------------------------------|
E|--------|--------|-----------------------------|----------------------------------|


E|--------------------------------|----------------------------------|--------------------------------|
B|---------2----------------------|---------2------------------------|---------2----------------------|
G|-----1-------------1------------|-----1-------------1--------------|-----1-------------1------------|
D|--------------------------------|----------------------------------|--------------------------------|
A|--------------------------------|----------------------------------|--------------------------------|
E|--------------------------------|----------------------------------|--------------------------------|


E|----------------------------------|--------------------------------|----------------------------------|
B|---------2------------------------|---------2----------------------|---------2------------------------|
G|-----1-------------1--------------|-----1-------------1------------|-----1-------------1--------------|
D|----------------------------------|--------------------------------|----------------------------------|
A|----------------------------------|--------------------------------|----------------------------------|
E|----------------------------------|--------------------------------|----------------------------------|


E|--------|--------|--------|--------|--------|--------|--------|--------|--------|
B|--------|--------|--------|--------|--------|--------|--------|--------|--------|
G|--------|--------|--------|--------|--------|--------|--------|--------|--------|
D|--------|--------|--------|--------|--------|--------|--------|--------|--------|
A|--------|--------|--------|--------|--------|--------|--------|--------|--------|
E|--------|--------|--------|--------|--------|--------|--------|--------|--------|


E|--------|--------|--------|--------|--------|--------|--------|--------|--------|
B|--------|--------|--------|--------|--------|--------|--------|--------|--------|
G|--------|--------|--------|--------|--------|--------|--------|--------|--------|
D|--------|--------|--------|--------|--------|--------|--------|--------|--------|
A|--------|--------|--------|--------|--------|--------|--------|--------|--------|
E|--------|--------|--------|--------|--------|--------|--------|--------|--------|


E|--------|--------|--------|--------|--------|--------|--------|--------|--------|
B|--------|--------|--------|--------|--------|--------|--------|--------|--------|
G|--------|--------|--------|--------|--------|--------|--------|--------|--------|
D|--------|--------|--------|--------|--------|--------|--------|--------|--------|
A|--------|--------|--------|--------|--------|--------|--------|--------|--------|
E|--------|--------|--------|--------|--------|--------|--------|--------|--------|


E|--------|--------|--------|--------|--------|--------|--------|--------|--------|
B|--------|--------|--------|--------|--------|--------|--------|--------|--------|
G|--------|--------|--------|--------|--------|--------|--------|--------|--------|
D|--------|--------|--------|--------|--------|--------|--------|--------|--------|
A|--------|--------|--------|--------|--------|--------|--------|--------|--------|
E|--------|--------|--------|--------|--------|--------|--------|--------|--------|


E|--------|--------|--------|--------|--------|--------|--------|--------|--------|
B|--------|--------|--------|--------|--------|--------|--------|--------|--------|
G|--------|--------|--------|--------|--------|--------|--------|--------|--------|
D|--------|--------|--------|--------|--------|--------|--------|--------|--------|
A|--------|--------|--------|--------|--------|--------|--------|--------|--------|
E|--------|--------|--------|--------|--------|--------|--------|--------|--------|


E|--------|--------|--------|--------|--------|--------|
B|--------|--------|--------|--------|--------|--------|
G|--------|--------|--------|--------|--------|--------|
D|--------|--------|--------|--------|--------|--------|
A|--------|--------|--------|--------|--------|--------|
E|--------|--------|--------|--------|--------|--------|





Track 5: Celesta             

E|--------|--------|--------|--------|--------|--------|--------|--------|--------|
B|--------|--------|--------|--------|--------|--------|--------|--------|--------|
G|--------|--------|--------|--------|--------|--------|--------|--------|--------|
D|--------|--------|--------|--------|--------|--------|--------|--------|--------|
A|--------|--------|--------|--------|--------|--------|--------|--------|--------|
E|--------|--------|--------|--------|--------|--------|--------|--------|--------|


E|--------|--------|--------|--------|--------|--------|--------|--------|--------|
B|--------|--------|--------|--------|--------|--------|--------|--------|--------|
G|--------|--------|--------|--------|--------|--------|--------|--------|--------|
D|--------|--------|--------|--------|--------|--------|--------|--------|--------|
A|--------|--------|--------|--------|--------|--------|--------|--------|--------|
E|--------|--------|--------|--------|--------|--------|--------|--------|--------|


E|--------|--------|--------|--------|--------|--------|--------|--------|--------|
B|--------|--------|--------|--------|--------|--------|--------|--------|--------|
G|--------|--------|--------|--------|--------|--------|--------|--------|--------|
D|--------|--------|--------|--------|--------|--------|--------|--------|--------|
A|--------|--------|--------|--------|--------|--------|--------|--------|--------|
E|--------|--------|--------|--------|--------|--------|--------|--------|--------|


E|--------|--------|--------|--------|--------|--------|--------|--------|--------|
B|--------|--------|--------|--------|--------|--------|--------|--------|--------|
G|--------|--------|--------|--------|--------|--------|--------|--------|--------|
D|--------|--------|--------|--------|--------|--------|--------|--------|--------|
A|--------|--------|--------|--------|--------|--------|--------|--------|--------|
E|--------|--------|--------|--------|--------|--------|--------|--------|--------|


E|--------|--------|--------|--------|--------|--------|--------|--------|--------|
B|--------|--------|--------|--------|--------|--------|--------|--------|--------|
G|--------|--------|--------|--------|--------|--------|--------|--------|--------|
D|--------|--------|--------|--------|--------|--------|--------|--------|--------|
A|--------|--------|--------|--------|--------|--------|--------|--------|--------|
E|--------|--------|--------|--------|--------|--------|--------|--------|--------|


E|--------|--------|--------|--------|--------|----------16--16--14--14---|-14----23--23----|
B|--------|--------|--------|--------|--------|---------------------------|-----------------|
G|--------|--------|--------|--------|--------|---------------------------|-----------------|
D|--------|--------|--------|--------|--------|---------------------------|-----------------|
A|--------|--------|--------|--------|--------|---------------------------|-----------------|
E|--------|--------|--------|--------|--------|---------------------------|-----------------|


E|-23------------------|-----------23--23---|-23---------------------|-------23--23----|
B|-------23--23--------|--------------------|-------21--21--19--19---|-19--------------|
G|----------------23---|-23----23-----------|------------------------|-----------------|
D|---------------------|--------------------|------------------------|-----------------|
A|---------------------|--------------------|------------------------|-----------------|
E|---------------------|--------------------|------------------------|-----------------|


E|-23------------------|--------|--------|--------|--------|--------|--------|--------|
B|-------23--23--------|--------|--------|--------|--------|--------|--------|--------|
G|----------------23---|--------|--------|--------|--------|--------|--------|--------|
D|---------------------|--------|--------|--------|--------|--------|--------|--------|
A|---------------------|--------|--------|--------|--------|--------|--------|--------|
E|---------------------|--------|--------|--------|--------|--------|--------|--------|


E|--------|--------|--------|--------|--------|--------|--------|--------|--------|
B|--------|--------|--------|--------|--------|--------|--------|--------|--------|
G|--------|--------|--------|--------|--------|--------|--------|--------|--------|
D|--------|--------|--------|--------|--------|--------|--------|--------|--------|
A|--------|--------|--------|--------|--------|--------|--------|--------|--------|
E|--------|--------|--------|--------|--------|--------|--------|--------|--------|


E|--------|--------|--------|--------|--------|--------|--------|--------|--------|
B|--------|--------|--------|--------|--------|--------|--------|--------|--------|
G|--------|--------|--------|--------|--------|--------|--------|--------|--------|
D|--------|--------|--------|--------|--------|--------|--------|--------|--------|
A|--------|--------|--------|--------|--------|--------|--------|--------|--------|
E|--------|--------|--------|--------|--------|--------|--------|--------|--------|


E|--------|--------|--------|--------|--------|--------|--------|--------|--------|
B|--------|--------|--------|--------|--------|--------|--------|--------|--------|
G|--------|--------|--------|--------|--------|--------|--------|--------|--------|
D|--------|--------|--------|--------|--------|--------|--------|--------|--------|
A|--------|--------|--------|--------|--------|--------|--------|--------|--------|
E|--------|--------|--------|--------|--------|--------|--------|--------|--------|


E|--------|--------|--------|--------|--------|--------|--------|--------|--------|
B|--------|--------|--------|--------|--------|--------|--------|--------|--------|
G|--------|--------|--------|--------|--------|--------|--------|--------|--------|
D|--------|--------|--------|--------|--------|--------|--------|--------|--------|
A|--------|--------|--------|--------|--------|--------|--------|--------|--------|
E|--------|--------|--------|--------|--------|--------|--------|--------|--------|


E|--------|--------|--------|--------|--------|--------|--------|--------|--------|
B|--------|--------|--------|--------|--------|--------|--------|--------|--------|
G|--------|--------|--------|--------|--------|--------|--------|--------|--------|
D|--------|--------|--------|--------|--------|--------|--------|--------|--------|
A|--------|--------|--------|--------|--------|--------|--------|--------|--------|
E|--------|--------|--------|--------|--------|--------|--------|--------|--------|


E|--------|--------|--------|--------|--------|--------|--------|--------|
B|--------|--------|--------|--------|--------|--------|--------|--------|
G|--------|--------|--------|--------|--------|--------|--------|--------|
D|--------|--------|--------|--------|--------|--------|--------|--------|
A|--------|--------|--------|--------|--------|--------|--------|--------|
E|--------|--------|--------|--------|--------|--------|--------|--------|





Track 6: El. Bass (Finger)   

G|--------|--------|--------|--------|--------|--------|--------|--------|--------|
D|--------|--------|--------|--------|--------|--------|--------|--------|--------|
A|--------|--------|--------|--------|--------|--------|--------|--------|--------|
E|--------|--------|--------|--------|--------|--------|--------|--------|--------|


G|--------|--------|--------|--------|--------|--------|--------|--------|--------|
D|--------|--------|--------|--------|--------|--------|--------|--------|--------|
A|--------|--------|--------|--------|--------|--------|--------|--------|--------|
E|--------|--------|--------|--------|--------|--------|--------|--------|--------|


G|--------|--------|--------|--------|--------|--------|--------|--------|------------------------------|
D|--------|--------|--------|--------|--------|--------|--------|--------|-4---6---6----------------6---|
A|--------|--------|--------|--------|--------|--------|--------|--------|------------------------------|
E|--------|--------|--------|--------|--------|--------|--------|--------|------------------------------|


G|-----------------------|------------------------------|-----------------------|------------------------------|
D|-4---6-------------6---|-4---6---6----------------6---|-4---6-------------6---|-4---6---6----------------6---|
A|---------6-------------|------------------------------|---------4-------------|------------------------------|
E|-----------------------|------------------------------|-----------------------|------------------------------|


G|-----------------------|-----------------------|-----------------------|------------------------------|
D|-4---6-------------6---|-4---6---4---------6---|-4---6---4---------6---|-4---6---6----------------6---|
A|---------4-------------|-----------------------|-----------------------|------------------------------|
E|-----------------------|-----------------------|-----------------------|------------------------------|


G|-----------------------|------------------------------|-----------------------|------------------------------|
D|-4---6-------------6---|-4---6---6----------------6---|-4---6-------------6---|-4---6---6----------------6---|
A|---------6-------------|------------------------------|---------4-------------|------------------------------|
E|-----------------------|------------------------------|-----------------------|------------------------------|


G|-----------------------|-----------------------|-----------------------|---------------------------------|
D|-4---6-------------6---|-4---6---4---------6---|-4---6---4---------6---|-4---6---6-----------4---4---6---|
A|---------4-------------|-----------------------|-----------------------|-------------6---6---------------|
E|-----------------------|-----------------------|-----------------------|---------------------------------|


G|---------------------------------|----------------4----|-6-------------4---6-------|
D|-4---6---------------4---4---6---|-4-----6---6---------|-------6---6---------------|
A|---------4---6---6---------------|---------------------|-----------------------6---|
E|---------------------------------|---------------------|---------------------------|


G|---------------------------------|---------------------------------|----------------4----|
D|-4---6---6-----------4---4---6---|-4---6---------------4---4---6---|-4-----6---6---------|
A|-------------6---6---------------|---------4---6---6---------------|---------------------|
E|---------------------------------|---------------------------------|---------------------|


G|-6-------------4---6-------|------------------------------|-----------------------|
D|-------6---6---------------|-4---6---6----------------6---|-4---6-------------6---|
A|-----------------------6---|------------------------------|---------6-------------|
E|---------------------------|------------------------------|-----------------------|


G|------------------------------|-----------------------|------------------------------|
D|-4---6---6----------------6---|-4---6-------------6---|-4---6---6----------------6---|
A|------------------------------|---------4-------------|------------------------------|
E|------------------------------|-----------------------|------------------------------|


G|-----------------------|-----------------------|-----------------------|------------------------------|
D|-4---6-------------6---|-4---6---4---------6---|-4---6---4---------6---|-4---6---6----------------6---|
A|---------4-------------|-----------------------|-----------------------|------------------------------|
E|-----------------------|-----------------------|-----------------------|------------------------------|


G|-----------------------|------------------------------|-----------------------|------------------------------|
D|-4---6-------------6---|-4---6---6----------------6---|-4---6-------------6---|-4---6---6----------------6---|
A|---------6-------------|------------------------------|---------4-------------|------------------------------|
E|-----------------------|------------------------------|-----------------------|------------------------------|


G|-----------------------|-----------------------|-----------------------|---------------------------------|
D|-4---6-------------6---|-4---6---4---------6---|-4---6---4---------6---|-4---6---6-----------4---4---6---|
A|---------4-------------|-----------------------|-----------------------|-------------6---6---------------|
E|-----------------------|-----------------------|-----------------------|---------------------------------|


G|---------------------------------|----------------4----|-6-------------4---6-------|
D|-4---6---------------4---4---6---|-4-----6---6---------|-------6---6---------------|
A|---------4---6---6---------------|---------------------|-----------------------6---|
E|---------------------------------|---------------------|---------------------------|


G|---------------------------------|---------------------------------|----------------4----|
D|-4---6---6-----------4---4---6---|-4---6---------------4---4---6---|-4-----6---6---------|
A|-------------6---6---------------|---------4---6---6---------------|---------------------|
E|---------------------------------|---------------------------------|---------------------|


G|-6-------------4---6-------|------------------------------|-----------------------|
D|-------6---6---------------|-4---6---6----------------6---|-4---6-------------6---|
A|-----------------------6---|------------------------------|---------6-------------|
E|---------------------------|------------------------------|-----------------------|


G|------------------------------|-----------------------|------------------------------|
D|-4---6---6----------------6---|-4---6-------------6---|-4---6---6----------------6---|
A|------------------------------|---------4-------------|------------------------------|
E|------------------------------|-----------------------|------------------------------|


G|-----------------------|-----------------------|-----------------------|------------------------------|
D|-4---6-------------6---|-4---6---4---------6---|-4---6---4---------6---|-4---6---6----------------6---|
A|---------4-------------|-----------------------|-----------------------|------------------------------|
E|-----------------------|-----------------------|-----------------------|------------------------------|


G|-----------------------|------------------------------|-----------------------|------------------------------|
D|-4---6-------------6---|-4---6---6----------------6---|-4---6-------------6---|-4---6---6----------------6---|
A|---------6-------------|------------------------------|---------4-------------|------------------------------|
E|-----------------------|------------------------------|-----------------------|------------------------------|


G|-----------------------|-----------------------|-----------------------|---------------------------------|
D|-4---6-------------6---|-4---6---4---------6---|-4---6---4---------6---|-4---6---6-----------4---4---6---|
A|---------4-------------|-----------------------|-----------------------|-------------6---6---------------|
E|-----------------------|-----------------------|-----------------------|---------------------------------|


G|---------------------------------|----------------4----|-6-------------4---6-------|
D|-4---6---------------4---4---6---|-4-----6---6---------|-------6---6---------------|
A|---------4---6---6---------------|---------------------|-----------------------6---|
E|---------------------------------|---------------------|---------------------------|


G|---------------------------------|---------------------------------|----------------4----|
D|-4---6---6-----------4---4---6---|-4---6---------------4---4---6---|-4-----6---6---------|
A|-------------6---6---------------|---------4---6---6---------------|---------------------|
E|---------------------------------|---------------------------------|---------------------|


G|-6-------------4---6-------|---------------------------------|---------------------------------|
D|-------6---6---------------|-4---6---6-----------4---4---6---|-4---6---------------4---4---6---|
A|-----------------------6---|-------------6---6---------------|---------4---6---6---------------|
E|---------------------------|---------------------------------|---------------------------------|


G|----------------4----|-6-------------4---6-------|---------------------------------|
D|-4-----6---6---------|-------6---6---------------|-4---6---6-----------4---4---6---|
A|---------------------|-----------------------6---|-------------6---6---------------|
E|---------------------|---------------------------|---------------------------------|


G|---------------------------------|----------------4----|-6-------------4---6-------|
D|-4---6---------------4---4---6---|-4-----6---6---------|-------6---6---------------|
A|---------4---6---6---------------|---------------------|-----------------------6---|
E|---------------------------------|---------------------|---------------------------|


G|---------------------------------|---------------------------------|----------------4----|
D|-4---6---6-----------4---4---6---|-4---6---------------4---4---6---|-4-----6---6---------|
A|-------------6---6---------------|---------4---6---6---------------|---------------------|
E|---------------------------------|---------------------------------|---------------------|


G|-6-------------4---6-------|---------------------------------|---------------------------------|
D|-------6---6---------------|-4---6---6-----------4---4---6---|-4---6---------------4---4---6---|
A|-----------------------6---|-------------6---6---------------|---------4---6---6---------------|
E|---------------------------|---------------------------------|---------------------------------|


G|----------------4----|-6-------------4---6-------|------------------------------|
D|-4-----6---6---------|-------6---6---------------|-4---6---6-----------4---6----|
A|---------------------|-----------------------6---|-------------6---6------------|
E|---------------------|---------------------------|------------------------------|


G|--------|--------|
D|-6------|-6------|
A|--------|--------|
E|--------|--------|