Menu:

 

Search:

 

u2 - pride in the name of love:

 



Title: Pride (in the name of love)
Artist: 
Album: The Unforgettable Fire
Author: Bono and The Edge


Track 1: Gtr3 (slight dirty elec. w/reverb and delay)

E|----------------12--|-12------------------|--------12--|-12------------------|--------|
B|----------------12--|-12------------------|--------12--|-12------------------|--------|
G|--------------------|-----------------7---|-7----------|-----------------7---|-7------|
D|--------------------|-------7---7-----7---|-7----------|-------7---7-----7---|-7------|
A|--------------------|-------7---7---------|------------|-------7---7---------|--------|
E|--------------------|---------------------|------------|---------------------|--------|


E|--------|--------|--------|--------|--------|--------|--------|--------|--------|
B|--------|--------|--------|--------|--------|--------|--------|--------|--------|
G|--------|--------|--------|--------|--------|--------|--------|--------|--------|
D|--------|--------|--------|--------|--------|--------|--------|--------|--------|
A|--------|--------|--------|--------|--------|--------|--------|--------|--------|
E|--------|--------|--------|--------|--------|--------|--------|--------|--------|


E|--------|--------|--------|--------|--------|--------|--------|--------|--------|
B|--------|--------|--------|--------|--------|--------|--------|--------|--------|
G|--------|--------|--------|--------|--------|--------|--------|--------|--------|
D|--------|--------|--------|--------|--------|--------|--------|--------|--------|
A|--------|--------|--------|--------|--------|--------|--------|--------|--------|
E|--------|--------|--------|--------|--------|--------|--------|--------|--------|


E|--------|--------|--------|--------|--------|--------|--------|--------|--------|
B|--------|--------|--------|--------|--------|--------|--------|--------|--------|
G|--------|--------|--------|--------|--------|--------|--------|--------|--------|
D|--------|--------|--------|--------|--------|--------|--------|--------|--------|
A|--------|--------|--------|--------|--------|--------|--------|--------|--------|
E|--------|--------|--------|--------|--------|--------|--------|--------|--------|


E|--------|--------|--------|--------|--------|--------|--------|--------|--------|
B|--------|--------|--------|--------|--------|--------|--------|--------|--------|
G|--------|--------|--------|--------|--------|--------|--------|--------|--------|
D|--------|--------|--------|--------|--------|--------|--------|--------|--------|
A|--------|--------|--------|--------|--------|--------|--------|--------|--------|
E|--------|--------|--------|--------|--------|--------|--------|--------|--------|


E|--------|--------|--------|--------|-11-12-14-11-12-14-11-12-14-11-12-14-0--0--0--0--|
B|--------|--------|--------|--------|-------------------------------------0--0--0--0--|
G|--------|--------|--------|--------|-------------------------------------------------|
D|--------|--------|--------|--------|-------------------------------------------------|
A|--------|--------|--------|--------|-------------------------------------------------|
E|--------|--------|--------|--------|-------------------------------------------------|


E|-11-12-14-11-12-14-11-12-14-11-12-14-0--0--0--0--|-11-12-14-11-12-14-11-12-14-11-12-14-0--0--0--0--|
B|-------------------------------------0--0--0--0--|-------------------------------------0--0--0--0--|
G|-------------------------------------------------|-------------------------------------------------|
D|-------------------------------------------------|-------------------------------------------------|
A|-------------------------------------------------|-------------------------------------------------|
E|-------------------------------------------------|-------------------------------------------------|


E|-11-12-14-11-12-14-11-12-14-11-12-14-0--0--0--0--|-11-12-14-11-12-14-11-12-14-11-12-14-0--0--0--0--|
B|-------------------------------------0--0--0--0--|-------------------------------------0--0--0--0--|
G|-------------------------------------------------|-------------------------------------------------|
D|-------------------------------------------------|-------------------------------------------------|
A|-------------------------------------------------|-------------------------------------------------|
E|-------------------------------------------------|-------------------------------------------------|


E|-11-12-14-11-12-14-11-12-14-11-12-14-0--0--0--0--|-11-12-14-11-12-14-11-12-14-11-12-14-0--0--0--0--|
B|-------------------------------------0--0--0--0--|-------------------------------------0--0--0--0--|
G|-------------------------------------------------|-------------------------------------------------|
D|-------------------------------------------------|-------------------------------------------------|
A|-------------------------------------------------|-------------------------------------------------|
E|-------------------------------------------------|-------------------------------------------------|


E|-11-12-14-11-12-14-11-12-14-11-12-14-0--0--0--0--|-----2---2--0------2----0------2---|
B|-------------------------------------0--0--0--0--|-0-------------0-----------0-------|
G|-------------------------------------------------|-----------------------------------|
D|-------------------------------------------------|-----------------------------------|
A|-------------------------------------------------|-----------------------------------|
E|-------------------------------------------------|-----------------------------------|


E|-2--0------2----0------2--------|---------------------------|---------------------------------|
B|-------0-----------0--------0---|-0---2----0---2----0---2---|-2---0---2---0---5---0---2---0---|
G|--------------------------------|---------------------------|---------------------------------|
D|--------------------------------|---------------------------|---------------------------------|
A|--------------------------------|---------------------------|---------------------------------|
E|--------------------------------|---------------------------|---------------------------------|


E|-----14--14-14-----14-14----14-----14--|----14-----14-14----14-------14-------14-----|
B|-12------------12--------12----12------|-12----12--------12----12-12----12-12----12--|
G|---------------------------------------|---------------------------------------------|
D|---------------------------------------|---------------------------------------------|
A|---------------------------------------|---------------------------------------------|
E|---------------------------------------|---------------------------------------------|


E|-----------------------------------|-----------------------------|-----2--------2--------2---|
B|-12--14--14-14-12--14---14-12--14--|-14-14-12--14---14-12--14----|-0--------0--------0-------|
G|-----------------------------------|-----------------------------|---------------------------|
D|-----------------------------------|-----------------------------|---------------------------|
A|-----------------------------------|-----------------------------|---------------------------|
E|-----------------------------------|-----------------------------|---------------------------|


E|-2------|--------|--------|----------------|--------|--------|--------|--------|
B|--------|--------|--------|----------------|--------|--------|--------|--------|
G|--------|--------|--------|----------------|--------|--------|--------|--------|
D|--------|--------|--------|----------------|--------|--------|--------|--------|
A|--------|--------|--------|----------------|--------|--------|--------|--------|
E|--------|--------|--------|-7--------------|--------|--------|--------|--------|


E|--------|--------|--------|-----2---2--0------2----0------2---|-2--2------2----0------2--------|
B|--------|--------|--------|-0-------------0-----------0-------|-------0-----------0--------0---|
G|--------|--------|--------|-----------------------------------|--------------------------------|
D|--------|--------|--------|-----------------------------------|--------------------------------|
A|--------|--------|--------|-----------------------------------|--------------------------------|
E|--------|--------|--------|-----------------------------------|--------------------------------|


E|---------------------------|---------------------------------|-----14--14-14-----14-----14-----14----|
B|-0---2----0---2----0---2---|-2---0---2---0---5---0---2---0---|-12------------12------12----12-----12-|
G|---------------------------|---------------------------------|---------------------------------------|
D|---------------------------|---------------------------------|---------------------------------------|
A|---------------------------|---------------------------------|---------------------------------------|
E|---------------------------|---------------------------------|---------------------------------------|


E|----14-----14-------14-------14-------14-----|-----------------------------------|
B|-12----12-----12-12----12-12----12-12----12--|-12--14--14-14-12--14---14-12--14--|
G|---------------------------------------------|-----------------------------------|
D|---------------------------------------------|-----------------------------------|
A|---------------------------------------------|-----------------------------------|
E|---------------------------------------------|-----------------------------------|


E|--------------------------------|-----2---2--0------2----0------2---|-2--2------2----0------2--------|
B|-14-14-12--14--12--17---16--0---|-0-------------0-----------0-------|-------0-----------0--------0---|
G|--------------------------------|-----------------------------------|--------------------------------|
D|--------------------------------|-----------------------------------|--------------------------------|
A|--------------------------------|-----------------------------------|--------------------------------|
E|--------------------------------|-----------------------------------|--------------------------------|


E|---------------------------|---------------------------------|-----14--14-14-----14-----14-----14----|
B|-0---2----0---2----0---2---|-2---0---2---0---5---0---2---0---|-12------------12------12----12-----12-|
G|---------------------------|---------------------------------|---------------------------------------|
D|---------------------------|---------------------------------|---------------------------------------|
A|---------------------------|---------------------------------|---------------------------------------|
E|---------------------------|---------------------------------|---------------------------------------|


E|----14-----14-------14-------14-------14-----|-----------------------------------|
B|-12----12-----12-12----12-12----12-12----12--|-12--14--14-14-12--14---14-12--14--|
G|---------------------------------------------|-----------------------------------|
D|---------------------------------------------|-----------------------------------|
A|---------------------------------------------|-----------------------------------|
E|---------------------------------------------|-----------------------------------|


E|-------------------------------------|-----2---2--0------2----2------2---|-2--2------2----2------2--------|
B|-14-14-12--14-12--14-12--14--12--0---|-0-------------0-----------0-------|-------0-----------0--------0---|
G|-------------------------------------|-----------------------------------|--------------------------------|
D|-------------------------------------|-----------------------------------|--------------------------------|
A|-------------------------------------|-----------------------------------|--------------------------------|
E|-------------------------------------|-----------------------------------|--------------------------------|


E|---------------------------|---------------------------------|-----2---2--0------2----2------2---|
B|-0---2----0---2----0---2---|-2---0---2---0---5---0---4---0---|-0-------------0-----------0-------|
G|---------------------------|---------------------------------|-----------------------------------|
D|---------------------------|---------------------------------|-----------------------------------|
A|---------------------------|---------------------------------|-----------------------------------|
E|---------------------------|---------------------------------|-----------------------------------|


E|-2--2------2----2------2--------|---------------------------|---------------------------------|
B|-------0-----------0--------0---|-0---2----0---2----0---2---|-2---0---2---0---5---0---4---0---|
G|--------------------------------|---------------------------|---------------------------------|
D|--------------------------------|---------------------------|---------------------------------|
A|--------------------------------|---------------------------|---------------------------------|
E|--------------------------------|---------------------------|---------------------------------|


E|-----2---2--0------2----2------2---|-2--2------2----2------2--------|---------------------------|
B|-0-------------0-----------0-------|-------0-----------0--------0---|-0---2----0---2----0---2---|
G|-----------------------------------|--------------------------------|---------------------------|
D|-----------------------------------|--------------------------------|---------------------------|
A|-----------------------------------|--------------------------------|---------------------------|
E|-----------------------------------|--------------------------------|---------------------------|


E|---------------------------------|-----2---2--0------2----2------2---|-2--2------2----2------2--------|
B|-2---0---2---0---5---0---4---0---|-0-------------0-----------0-------|-------0-----------0--------0---|
G|---------------------------------|-----------------------------------|--------------------------------|
D|---------------------------------|-----------------------------------|--------------------------------|
A|---------------------------------|-----------------------------------|--------------------------------|
E|---------------------------------|-----------------------------------|--------------------------------|


E|---------------------------|---------------------------------|
B|-0---2----0---2----0---2---|-2---0---2---0---5---0---4---0---|
G|---------------------------|---------------------------------|
D|---------------------------|---------------------------------|
A|---------------------------|---------------------------------|
E|---------------------------|---------------------------------|





Track 2: Gtr1 (slight dirty elec. w/reverb and delay)

E|--------|-0--0--0--0--12-12-0--12-0--0--0--0--0--0--0--0--|-7--7--0--7--0--0--0--0--------------------------|
B|--------|-0--0--0--0--12-12-0--12-0--0--0--0--0--0--0--0--|-7--7--0--7--0--0--0--0--7--7--0--7--0--0--0--0--|
G|--------|-0--0--0--0--12-12-0--12-0--0--0--0--0--0--0--0--|-------0-----0--0--0--0--7--7--0--7--0--0--0--0--|
D|--------|-------------------------------------------------|-------------------------------------------------|
A|--------|-------------------------------------------------|-------------------------------------------------|
E|--------|-------------------------------------------------|-------------------------------------------------|


E|-7--7--0--7--0--0--0--0--0--0--0--0--0--0--0--0--|-0--0--7--0--0--0--0--0--0--0--0--0--0--0--0--0--|
B|-7--7--0--7--0--0--0--0--0--0--0--0--0--0--0--0--|-0--0-----0--0--0--0--0--0--0--0--0--0--0--0--0--|
G|-7--7--0--7--0--0--0--0--0--0--0--0--0--0--0--0--|-------------------------------------------------|
D|-------------------------------------------------|-------------------------------------------------|
A|-------------------------------------------------|-------------------------------------------------|
E|-------------------------------------------------|-------------------------------------------------|


E|-------------------------------------------------|-------------------------------------------------|
B|-12-12-12-12-12-12-12-12-12-12-12-12-12-12-12-12-|-12-12-12-12-12-12-12-12-12-12-12-12-12-12-12-12-|
G|-11-11-11-11-11-9--9--9--11-9--9--9--11-9--9--9--|-11-11-11-11-11-9--9--9--11-9--9--9--11-9--9--9--|
D|-------------------------------------------------|-------------------------------------------------|
A|-------------------------------------------------|-------------------------------------------------|
E|-------------------------------------------------|-------------------------------------------------|


E|-9--9--9--9--9--9--9--9--9--9--9--9--9--9--9--9--|-9--9--9--9--9--9--9--9--9--9--9--9--9--9--9--9--|
B|-10-10-10-10-10-9--9--9--10-9--9--9--10-9--9--9--|-10-10-10-10-10-9--9--9--10-9--9--9--10-9--9--9--|
G|-9--9--9--9--9--9--9--9--9--9--9--9--9--9--9--9--|-11-11-11-11-11-11-11-11-11-11-11-11-11-11-11-11-|
D|-------------------------------------------------|-------------------------------------------------|
A|-------------------------------------------------|-------------------------------------------------|
E|-------------------------------------------------|-------------------------------------------------|


E|-------------------------------------------------|-------------------------------------------------|
B|-12-12-12-12-12-12-12-12-12-12-12-12-12-12-12-12-|-12-12-12-12-12-12-12-12-12-12-12-12-12-12-12-12-|
G|-11-11-11-11-11-9--9--9--11-9--9--9--11-9--9--9--|-11-11-11-11-11-9--9--9--11-9--9--9--11-9--9--9--|
D|-------------------------------------------------|-------------------------------------------------|
A|-------------------------------------------------|-------------------------------------------------|
E|-------------------------------------------------|-------------------------------------------------|


E|-9--9--9--9--9--9--9--9--9--9--9--9--9--9--9--9--|-9--9--9--9--9--9--9--9--9--9--9--9--9--9--9--9--|
B|-10-10-10-10-10-9--9--9--10-9--9--9--10-9--9--9--|-10-10-10-10-10-9--9--9--10-9--9--9--10-9--9--9--|
G|-9--9--9--9--9--9--9--9--9--9--9--9--9--9--9--9--|-11-11-11-11-11-11-11-11-11-11-11-11-11-11-11-11-|
D|-------------------------------------------------|-------------------------------------------------|
A|-------------------------------------------------|-------------------------------------------------|
E|-------------------------------------------------|-------------------------------------------------|


E|-------------------------------------------------|-------------------------------------------------|
B|-12-12-12-12-12-12-12-12-12-12-12-12-12-12-12-12-|-12-12-12-12-12-12-12-12-12-12-12-12-12-12-12-12-|
G|-11-11-11-11-11-9--9--9--11-9--9--9--11-9--9--9--|-11-11-11-11-11-9--9--9--11-9--9--9--11-9--9--9--|
D|-------------------------------------------------|-------------------------------------------------|
A|-------------------------------------------------|-------------------------------------------------|
E|-------------------------------------------------|-------------------------------------------------|


E|-9--9--9--9--9--9--9--9--9--9--9--9--9--9--9--9--|-9--9--9--9--9--9--9--9--9--9--9--9--9--9--9--9--|
B|-10-10-10-10-10-9--9--9--10-9--9--9--10-9--9--9--|-10-10-10-10-10-9--9--9--10-9--9--9--10-9--9--9--|
G|-9--9--9--9--9--9--9--9--9--9--9--9--9--9--9--9--|-11-11-11-11-11-11-11-11-11-11-11-11-11-11-11-11-|
D|-------------------------------------------------|-------------------------------------------------|
A|-------------------------------------------------|-------------------------------------------------|
E|-------------------------------------------------|-------------------------------------------------|


E|-------------------------------------------------|-------------------------------------------------|
B|-12-12-12-12-12-12-12-12-12-12-12-12-12-12-12-12-|-12-12-12-12-12-12-12-12-12-12-12-12-12-12-12-12-|
G|-11-11-11-11-11-9--9--9--11-9--9--9--11-9--9--9--|-11-11-11-11-11-9--9--9--11-9--9--9--11-9--9--9--|
D|-------------------------------------------------|-------------------------------------------------|
A|-------------------------------------------------|-------------------------------------------------|
E|-------------------------------------------------|-------------------------------------------------|


E|-9--9--9--9--9--9--9--9--9--9--9--9--9--9--9--9--|-9--9--9--9--9--9--9--9--9--9--9--9--9--9--9--9--|
B|-10-10-10-10-10-9--9--9--10-9--9--9--10-9--9--9--|-10-10-10-10-10-9--9--9--10-9--9--9--10-9--9--9--|
G|-9--9--9--9--9--9--9--9--9--9--9--9--9--9--9--9--|-11-11-11-11-11-11-11-11-11-11-11-11-11-11-11-11-|
D|-------------------------------------------------|-------------------------------------------------|
A|-------------------------------------------------|-------------------------------------------------|
E|-------------------------------------------------|-------------------------------------------------|


E|-------------------------------------------------|-------------------------------------------------|
B|-12-12-12-12-12-12-12-12-12-12-12-12-12-12-12-12-|-12-12-12-12-12-12-12-12-12-12-12-12-12-12-12-12-|
G|-11-11-11-11-11-9--9--9--11-9--9--9--11-9--9--9--|-11-11-11-11-11-9--9--9--11-9--9--9--11-9--9--9--|
D|-------------------------------------------------|-------------------------------------------------|
A|-------------------------------------------------|-------------------------------------------------|
E|-------------------------------------------------|-------------------------------------------------|


E|-9--9--9--9--9--9--9--9--9--9--9--9--9--9--9--9--|-9--9--9--9--9--9--9--9--9--9--9--9--9--9--9--9--|
B|-10-10-10-10-10-9--9--9--10-9--9--9--10-9--9--9--|-10-10-10-10-10-9--9--9--10-9--9--9--10-9--9--9--|
G|-9--9--9--9--9--9--9--9--9--9--9--9--9--9--9--9--|-11-11-11-11-11-11-11-11-11-11-11-11-11-11-11-11-|
D|-------------------------------------------------|-------------------------------------------------|
A|-------------------------------------------------|-------------------------------------------------|
E|-------------------------------------------------|-------------------------------------------------|


E|-------------------------------------------------|-------------------------------------------------|
B|-12-12-12-12-12-12-12-12-12-12-12-12-12-12-12-12-|-12-12-12-12-12-12-12-12-12-12-12-12-12-12-12-12-|
G|-11-11-11-11-11-9--9--9--11-9--9--9--11-9--9--9--|-11-11-11-11-11-9--9--9--11-9--9--9--11-9--9--9--|
D|-------------------------------------------------|-------------------------------------------------|
A|-------------------------------------------------|-------------------------------------------------|
E|-------------------------------------------------|-------------------------------------------------|


E|-9--9--9--9--9--9--9--9--9--9--9--9--9--9--9--9--|-9--9--9--9--9--9--9--9--9--9--9--9--9--9--9--9--|
B|-10-10-10-10-10-9--9--9--10-9--9--9--10-9--9--9--|-10-10-10-10-10-9--9--9--10-9--9--9--10-9--9--9--|
G|-9--9--9--9--9--9--9--9--9--9--9--9--9--9--9--9--|-11-11-11-11-11-11-11-11-11-11-11-11-11-11-11-11-|
D|-------------------------------------------------|-------------------------------------------------|
A|-------------------------------------------------|-------------------------------------------------|
E|-------------------------------------------------|-------------------------------------------------|


E|---------0--------------------|--------|---------0--------------------|--------|
B|-------------0----------------|--------|-------------0----------------|--------|
G|-----------------8------------|--------|-----------------6------------|--------|
D|-----9---------------9--------|--------|-----7---------------7--------|--------|
A|-------------------------9----|-9------|-------------------------7----|-7------|
E|-7----------------------------|--------|-5----------------------------|--------|


E|---------0--------------------|--------|---------0--------------------|-------0--0--0--0--0--0--0--0--|
B|-------------0----------------|--------|-------------0----------------|-------0--0--0--0--0--0--0--0--|
G|-----------------8------------|--------|-----------------6------------|-------------------------------|
D|-----9---------------9--------|--------|-----7---------------7--------|-------------------------------|
A|-------------------------9----|-9------|-------------------------7----|-7-----------------------------|
E|-7----------------------------|--------|-5----------------------------|-------------------------------|


E|-------------------------------------------------|-------------------------------------------------|
B|-12-12-12-12-12-12-12-12-12-12-12-12-12-12-12-12-|-12-12-12-12-12-12-12-12-12-12-12-12-12-12-12-12-|
G|-11-11-11-11-11-9--9--9--11-9--9--9--11-9--9--9--|-11-11-11-11-11-9--9--9--11-9--9--9--11-9--9--9--|
D|-------------------------------------------------|-------------------------------------------------|
A|-------------------------------------------------|-------------------------------------------------|
E|-------------------------------------------------|-------------------------------------------------|


E|-9--9--9--9--9--9--9--9--9--9--9--9--9--9--9--9--|-9--9--9--9--9--9--9--9--9--9--9--9--9--9--9--9--|
B|-10-10-10-10-10-9--9--9--10-9--9--9--10-9--9--9--|-10-10-10-10-10-9--9--9--10-9--9--9--10-9--9--9--|
G|-9--9--9--9--9--9--9--9--9--9--9--9--9--9--9--9--|-11-11-11-11-11-11-11-11-11-11-11-11-11-11-11-11-|
D|-------------------------------------------------|-------------------------------------------------|
A|-------------------------------------------------|-------------------------------------------------|
E|-------------------------------------------------|-------------------------------------------------|


E|-------------------------------------------------|-------------------------------------------------|
B|-12-12-12-12-12-12-12-12-12-12-12-12-12-12-12-12-|-12-12-12-12-12-12-12-12-12-12-12-12-12-12-12-12-|
G|-11-11-11-11-11-9--9--9--11-9--9--9--11-9--9--9--|-11-11-11-11-11-9--9--9--11-9--9--9--11-9--9--9--|
D|-------------------------------------------------|-------------------------------------------------|
A|-------------------------------------------------|-------------------------------------------------|
E|-------------------------------------------------|-------------------------------------------------|


E|-9--9--9--9--9--9--9--9--9--9--9--9--9--9--9--9--|-9--9--9--9--9--9--9--9--9--9--9--9--9--9--9--9--|
B|-10-10-10-10-10-9--9--9--10-9--9--9--10-9--9--9--|-10-10-10-10-10-9--9--9--10-9--9--9--10-9--9--9--|
G|-9--9--9--9--9--9--9--9--9--9--9--9--9--9--9--9--|-11-11-11-11-11-11-11-11-11-11-11-11-11-11-11-11-|
D|-------------------------------------------------|-------------------------------------------------|
A|-------------------------------------------------|-------------------------------------------------|
E|-------------------------------------------------|-------------------------------------------------|


E|-------------------------------------------|-------------------------------------------|
B|-0--0--0--0--0--0--0--0--0---12--12-12-12--|-0--0--0--0--0--0--0--0--0---12--12-12-12--|
G|-------------------------------------------|-------------------------------------------|
D|-------------------------------------------|-------------------------------------------|
A|-------------------------------------------|-------------------------------------------|
E|-------------------------------------------|-------------------------------------------|


E|-------------------------------------------|-------------------------------------------|
B|-0--0--0--0--0--0--0--0--0---12--12-12-12--|-0--0--0--0--0--0--0--0--0---12--12-12-12--|
G|-------------------------------------------|-------------------------------------------|
D|-------------------------------------------|-------------------------------------------|
A|-------------------------------------------|-------------------------------------------|
E|-------------------------------------------|-------------------------------------------|


E|-------------------------------------------|-------------------------------------------|
B|-0--0--0--0--0--0--0--0--0---12--12-12-12--|-0--0--0--0--0--0--0--0--0---12--12-12-12--|
G|-------------------------------------------|-------------------------------------------|
D|-------------------------------------------|-------------------------------------------|
A|-------------------------------------------|-------------------------------------------|
E|-------------------------------------------|-------------------------------------------|


E|-------------------------------------------|-------------------------------------------|
B|-0--0--0--0--0--0--0--0--0---12--12-12-12--|-0--0--0--0--0--0--0--0--0---12--12-12-12--|
G|-------------------------------------------|-------------------------------------------|
D|-------------------------------------------|-------------------------------------------|
A|-------------------------------------------|-------------------------------------------|
E|-------------------------------------------|-------------------------------------------|


E|-------------------------------------------------|-------------------------------------------------|
B|-12-12-12-12-12-12-12-12-12-12-12-12-12-12-12-12-|-12-12-12-12-12-12-12-12-12-12-12-12-12-12-12-12-|
G|-11-11-11-11-11-9--9--9--11-9--9--9--11-9--9--9--|-11-11-11-11-11-9--9--9--11-9--9--9--11-9--9--9--|
D|-------------------------------------------------|-------------------------------------------------|
A|-------------------------------------------------|-------------------------------------------------|
E|-------------------------------------------------|-------------------------------------------------|


E|-9--9--9--9--9--9--9--9--9--9--9--9--9--9--9--9--|-9--9--9--9--9--9--9--9--9--9--9--9--9--9--9--9--|
B|-10-10-10-10-10-9--9--9--10-9--9--9--10-9--9--9--|-10-10-10-10-10-9--9--9--10-9--9--9--10-9--9--9--|
G|-9--9--9--9--9--9--9--9--9--9--9--9--9--9--9--9--|-11-11-11-11-11-11-11-11-11-11-11-11-11-11-11-11-|
D|-------------------------------------------------|-------------------------------------------------|
A|-------------------------------------------------|-------------------------------------------------|
E|-------------------------------------------------|-------------------------------------------------|


E|-------------------------------------------------|-------------------------------------------------|
B|-12-12-12-12-12-12-12-12-12-12-12-12-12-12-12-12-|-12-12-12-12-12-12-12-12-12-12-12-12-12-12-12-12-|
G|-11-11-11-11-11-9--9--9--11-9--9--9--11-9--9--9--|-11-11-11-11-11-9--9--9--11-9--9--9--11-9--9--9--|
D|-------------------------------------------------|-------------------------------------------------|
A|-------------------------------------------------|-------------------------------------------------|
E|-------------------------------------------------|-------------------------------------------------|


E|-9--9--9--9--9--9--9--9--9--9--9--9--9--9--9--9--|-9--9--9--9--9--9--9--9--9--9--9--9--9--9--9--9--|
B|-10-10-10-10-10-9--9--9--10-9--9--9--10-9--9--9--|-10-10-10-10-10-9--9--9--10-9--9--9--10-9--9--9--|
G|-9--9--9--9--9--9--9--9--9--9--9--9--9--9--9--9--|-11-11-11-11-11-11-11-11-11-11-11-11-11-11-11-11-|
D|-------------------------------------------------|-------------------------------------------------|
A|-------------------------------------------------|-------------------------------------------------|
E|-------------------------------------------------|-------------------------------------------------|


E|---------0-----------------|--------|---------0-----------------|--------|---------0-----------------|
B|-------------0-------------|--------|-------------0-------------|--------|-------------0-------------|
G|-----------------8---------|--------|-----------------6---------|--------|-2---2-----------8---------|
D|-----9---------------9-----|-9------|-----7---------------7-----|-7------|-----9---------------9-----|
A|---------------------------|--------|---------------------------|--------|---------------------------|
E|-7-------------------------|--------|-5-------------------------|--------|---------------------------|


E|--------|---------0--------------------|--------|---------0--------------------|
B|--------|-------------0----------------|--------|-------------0----------------|
G|--------|-----------------6------------|--------|-----------------8------------|
D|-9------|-----7---------------7--------|--------|-----9---------------9--------|
A|--------|--------------------------7---|-7------|--------------------------9---|
E|--------|-5----------------------------|--------|-7----------------------------|


E|--------|---------0--------------------|-----------------------------|-------------------------------------------------|
B|--------|-------------0----------------|-----------12-12-12-12-0--0--|-12-12-12-12-12-12-12-12-12-12-12-12-12-12-12-12-|
G|--------|-----------------6------------|-----------11-11-11-11-0--0--|-11-11-11-11-11-9--9--9--11-9--9--9--11-9--9--9--|
D|--------|-----7---------------7--------|-----------------------------|-------------------------------------------------|
A|-9------|--------------------------7---|-7-----7---------------------|-------------------------------------------------|
E|--------|-5----------------------------|-----------------------------|-------------------------------------------------|


E|-------------------------------------------------|-9--9--9--9--9--9--9--9--9--9--9--9--9--9--9--9--|
B|-12-12-12-12-12-12-12-12-12-12-12-12-12-12-12-12-|-10-10-10-10-10-9--9--9--10-9--9--9--10-9--9--9--|
G|-11-11-11-11-11-9--9--9--11-9--9--9--11-9--9--9--|-9--9--9--9--9--9--9--9--9--9--9--9--9--9--9--9--|
D|-------------------------------------------------|-------------------------------------------------|
A|-------------------------------------------------|-------------------------------------------------|
E|-------------------------------------------------|-------------------------------------------------|


E|-9--9--9--9--9--9--9--9--9--9--9--9--9--9--9--9--|-------------------------------------------------|
B|-10-10-10-10-10-9--9--9--10-9--9--9--10-9--9--9--|-12-12-12-12-12-12-12-12-12-12-12-12-12-12-12-12-|
G|-11-11-11-11-11-11-11-11-11-11-11-11-11-11-11-11-|-11-11-11-11-11-9--9--9--11-9--9--9--11-9--9--9--|
D|-------------------------------------------------|-------------------------------------------------|
A|-------------------------------------------------|-------------------------------------------------|
E|-------------------------------------------------|-------------------------------------------------|


E|-------------------------------------------------|-9--9--9--9--9--9--9--9--9--9--9--9--9--9--9--9--|
B|-12-12-12-12-12-12-12-12-12-12-12-12-12-12-12-12-|-10-10-10-10-10-9--9--9--10-9--9--9--10-9--9--9--|
G|-11-11-11-11-11-9--9--9--11-9--9--9--11-9--9--9--|-9--9--9--9--9--9--9--9--9--9--9--9--9--9--9--9--|
D|-------------------------------------------------|-------------------------------------------------|
A|-------------------------------------------------|-------------------------------------------------|
E|-------------------------------------------------|-------------------------------------------------|


E|-9--9--9--9--9--9--9--9--9--9--9--9--9--9--9--9--|-------------------------------------------------|
B|-10-10-10-10-10-9--9--9--10-9--9--9--10-9--9--9--|-12-12-12-12-12-12-12-12-12-12-12-12-12-12-12-12-|
G|-11-11-11-11-11-11-11-11-11-11-11-11-11-11-11-11-|-11-11-11-11-11-9--9--9--11-9--9--9--11-9--9--9--|
D|-------------------------------------------------|-------------------------------------------------|
A|-------------------------------------------------|-------------------------------------------------|
E|-------------------------------------------------|-------------------------------------------------|


E|-------------------------------------------------|-9--9--9--9--9--9--9--9--9--9--9--9--9--9--9--9--|
B|-12-12-12-12-12-12-12-12-12-12-12-12-12-12-12-12-|-10-10-10-10-10-9--9--9--10-9--9--9--10-9--9--9--|
G|-11-11-11-11-11-9--9--9--11-9--9--9--11-9--9--9--|-9--9--9--9--9--9--9--9--9--9--9--9--9--9--9--9--|
D|-------------------------------------------------|-------------------------------------------------|
A|-------------------------------------------------|-------------------------------------------------|
E|-------------------------------------------------|-------------------------------------------------|


E|-9--9--9--9--9--9--9--9--9--9--9--9--9--9--9--9--|-------------------------------------------------|
B|-10-10-10-10-10-9--9--9--10-9--9--9--10-9--9--9--|-12-12-12-12-12-12-12-12-12-12-12-12-12-12-12-12-|
G|-11-11-11-11-11-11-11-11-11-11-11-11-11-11-11-11-|-11-11-11-11-11-9--9--9--11-9--9--9--11-9--9--9--|
D|-------------------------------------------------|-------------------------------------------------|
A|-------------------------------------------------|-------------------------------------------------|
E|-------------------------------------------------|-------------------------------------------------|


E|-------------------------------------------------|-9--9--9--9--9--9--9--9--9--9--9--9--9--9--9--9--|
B|-12-12-12-12-12-12-12-12-12-12-12-12-12-12-12-12-|-10-10-10-10-10-9--9--9--10-9--9--9--10-9--9--9--|
G|-11-11-11-11-11-9--9--9--11-9--9--9--11-9--9--9--|-9--9--9--9--9--9--9--9--9--9--9--9--9--9--9--9--|
D|-------------------------------------------------|-------------------------------------------------|
A|-------------------------------------------------|-------------------------------------------------|
E|-------------------------------------------------|-------------------------------------------------|


E|-9--9--9--9--9--9--9--9--9--9--9--9--9--9--9--9--|-------------------------------------------------|
B|-10-10-10-10-10-9--9--9--10-9--9--9--10-9--9--9--|-12-12-12-12-12-12-12-12-12-12-12-12-12-12-12-12-|
G|-11-11-11-11-11-11-11-11-11-11-11-11-11-11-11-11-|-11-11-11-11-11-9--9--9--11-9--9--9--11-9--9--9--|
D|-------------------------------------------------|-------------------------------------------------|
A|-------------------------------------------------|-------------------------------------------------|
E|-------------------------------------------------|-------------------------------------------------|


E|-------------------------------------------------|-9--9--9--9--9--9--9--9--9--9--9--9--9--9--9--9--|
B|-12-12-12-12-12-12-12-12-12-12-12-12-12-12-12-12-|-10-10-10-10-10-9--9--9--10-9--9--9--10-9--9--9--|
G|-11-11-11-11-11-9--9--9--11-9--9--9--11-9--9--9--|-9--9--9--9--9--9--9--9--9--9--9--9--9--9--9--9--|
D|-------------------------------------------------|-------------------------------------------------|
A|-------------------------------------------------|-------------------------------------------------|
E|-------------------------------------------------|-------------------------------------------------|


E|-9--9--9--9--9--9--9--9--9--9--9--9--9--9--9--9--|-------------------------------------------------|
B|-10-10-10-10-10-9--9--9--10-9--9--9--10-9--9--9--|-12-12-12-12-12-12-12-12-12-12-12-12-12-12-12-12-|
G|-11-11-11-11-11-11-11-11-11-11-11-11-11-11-11-11-|-11-11-11-11-11-9--9--9--11-9--9--9--11-9--9--9--|
D|-------------------------------------------------|-------------------------------------------------|
A|-------------------------------------------------|-------------------------------------------------|
E|-------------------------------------------------|-------------------------------------------------|


E|-------------------------------------------------|-9--9--9--9--9--9--9--9--9--9--9--9--9--9--9--9--|
B|-12-12-12-12-12-12-12-12-12-12-12-12-12-12-12-12-|-10-10-10-10-10-9--9--9--10-9--9--9--10-9--9--9--|
G|-11-11-11-11-11-9--9--9--11-9--9--9--11-9--9--9--|-9--9--9--9--9--9--9--9--9--9--9--9--9--9--9--9--|
D|-------------------------------------------------|-------------------------------------------------|
A|-------------------------------------------------|-------------------------------------------------|
E|-------------------------------------------------|-------------------------------------------------|


E|-9--9--9--9--9--9--9--9--9--9--9--9--9--9--9--9--|-------------------------------------------------|
B|-10-10-10-10-10-9--9--9--10-9--9--9--10-9--9--9--|-12-12-12-12-12-12-12-12-12-12-12-12-12-12-12-12-|
G|-11-11-11-11-11-11-11-11-11-11-11-11-11-11-11-11-|-11-11-11-11-11-9--9--9--11-9--9--9--11-9--9--9--|
D|-------------------------------------------------|-------------------------------------------------|
A|-------------------------------------------------|-------------------------------------------------|
E|-------------------------------------------------|-------------------------------------------------|


E|-------------------------------------------------|-9--9--9--9--9--9--9--9--9--9--9--9--9--9--9--9--|
B|-12-12-12-12-12-12-12-12-12-12-12-12-12-12-12-12-|-10-10-10-10-10-9--9--9--10-9--9--9--10-9--9--9--|
G|-11-11-11-11-11-9--9--9--11-9--9--9--11-9--9--9--|-9--9--9--9--9--9--9--9--9--9--9--9--9--9--9--9--|
D|-------------------------------------------------|-------------------------------------------------|
A|-------------------------------------------------|-------------------------------------------------|
E|-------------------------------------------------|-------------------------------------------------|


E|-9--9--9--9--9--9--9--9--9--9--9--9--9--9--9--9--|-------------------------------------------------|
B|-10-10-10-10-10-9--9--9--10-9--9--9--10-9--9--9--|-12-12-12-12-12-12-12-12-12-12-12-12-12-12-12-12-|
G|-11-11-11-11-11-11-11-11-11-11-11-11-11-11-11-11-|-11-11-11-11-11-9--9--9--11-9--9--9--11-9--9--9--|
D|-------------------------------------------------|-------------------------------------------------|
A|-------------------------------------------------|-------------------------------------------------|
E|-------------------------------------------------|-------------------------------------------------|


E|-------------------------------------------------|-9--9--9--9--9--9--9--9--9--9--9--9--9--9--9--9--|
B|-12-12-12-12-12-12-12-12-12-12-12-12-12-12-12-12-|-10-10-10-10-10-9--9--9--10-9--9--9--10-9--9--9--|
G|-11-11-11-11-11-9--9--9--11-9--9--9--11-9--9--9--|-9--9--9--9--9--9--9--9--9--9--9--9--9--9--9--9--|
D|-------------------------------------------------|-------------------------------------------------|
A|-------------------------------------------------|-------------------------------------------------|
E|-------------------------------------------------|-------------------------------------------------|


E|-9--9--9--9--9--9--9--9--9--9--9--9--9--9--9--9--|
B|-10-10-10-10-10-9--9--9--10-9--9--9--10-9--9--9--|
G|-11-11-11-11-11-11-11-11-11-11-11-11-11-11-11-11-|
D|-------------------------------------------------|
A|-------------------------------------------------|
E|-------------------------------------------------|





Track 3: Bass Guitar w/pick

G|--------|-------------------------------------------------|-------------------------------------------------|
D|--------|-------------------------------------------------|-------------------------------------------------|
A|--------|-0--0--0--0--0--0--0--0--0--0--0--0--0--0--0--0--|-0--0--0--0--0--0--0--0--0--0--0--0--0--0--0--0--|
E|--------|-------------------------------------------------|-------------------------------------------------|


G|-------------------------------------------------|-------------------------------------------------|
D|-------------------------------------------------|-------------------------------------------------|
A|-0--0--0--0--0--0--0--0--0--0--0--0--0--0--0--0--|-0--0--0--0--0--0--0--0--0--0--0--0--0--0--0--0--|
E|-------------------------------------------------|-------------------------------------------------|


G|-------------------------------------|-------------------------------------|-------------------------------------|
D|-------------------------------------|-------------------------------------|-------------------------------------|
A|-2---2---2---2--2--2---2--2--2---2---|-------------------------------------|-0---0---0---0--0--0---0--0--0---0---|
E|-------------------------------------|-0---0---0---0--0--0---0--0--0---0---|-------------------------------------|


G|-------------------------------------|-------------------------------------|-------------------------------------|
D|-------------------------------------|-------------------------------------|-------------------------------------|
A|-------------------------------------|-2---2---2---2--2--2---2--2--2---2---|-------------------------------------|
E|-2---2---2---2--2--2---2--2--2---2---|-------------------------------------|-0---0---0---0--0--0---0--0--0---0---|


G|-------------------------------------|-------------------------------------|-------------------------------------|
D|-------------------------------------|-------------------------------------|-------------------------------------|
A|-0---0---0---0--0--0---0--0--0---0---|-------------------------------------|-2---2---2---2--2--2---2--2--2---2---|
E|-------------------------------------|-2---2---2---2--2--2---2--2--2---2---|-------------------------------------|


G|-------------------------------------|-------------------------------------|-------------------------------------|
D|-------------------------------------|-------------------------------------|-------------------------------------|
A|-------------------------------------|-0---0---0---0--0--0---0--0--0---0---|-------------------------------------|
E|-0---0---0---0--0--0---0--0--0---0---|-------------------------------------|-2---2---2---2--2--2---2--2--2---2---|


G|-------------------------------------|-------------------------------------|-------------------------------------|
D|-------------------------------------|-------------------------------------|-------------------------------------|
A|-2---2---2---2--2--2---2--2--2---2---|-------------------------------------|-0---0---0---0--0--0---0--0--0---0---|
E|-------------------------------------|-0---0---0---0--0--0---0--0--0---0---|-------------------------------------|


G|-------------------------------------|-------------------------------------|-------------------------------------|
D|-------------------------------------|-------------------------------------|-------------------------------------|
A|-------------------------------------|-2---2---2---2--2--2---2--2--2---2---|-------------------------------------|
E|-2---2---2---2--2--2---2--2--2---2---|-------------------------------------|-0---0---0---0--0--0---0--0--0---0---|


G|-------------------------------------|-------------------------------------|-------------------------------------|
D|-------------------------------------|-------------------------------------|-------------------------------------|
A|-0---0---0---0--0--0---0--0--0---0---|-------------------------------------|-2---2---2---2--2--2---2--2--2---2---|
E|-------------------------------------|-2---2---2---2--2--2---2--2--2---2---|-------------------------------------|


G|-------------------------------------|-------------------------------------|-------------------------------------|
D|-------------------------------------|-------------------------------------|-------------------------------------|
A|-------------------------------------|-0---0---0---0--0--0---0--0--0---0---|-------------------------------------|
E|-0---0---0---0--0--0---0--0--0---0---|-------------------------------------|-2---2---2---2--2--2---2--2--2---2---|


G|-------------------------------------|-------------------------------------|-------------------------------------|
D|-------------------------------------|-------------------------------------|-------------------------------------|
A|-2---2---2---2--2--2---2--2--2---2---|-------------------------------------|-0---0---0---0--0--0---0--0--0---0---|
E|-------------------------------------|-0---0---0---0--0--0---0--0--0---0---|-------------------------------------|


G|-------------------------------------|-------------------------------------|-------------------------------------|
D|-------------------------------------|-------------------------------------|-------------------------------------|
A|-------------------------------------|-2---2---2---2--2--2---2--2--2---2---|-------------------------------------|
E|-2---2---2---2--2--2---2--2--2---2---|-------------------------------------|-0---0---0---0--0--0---0--0--0---0---|


G|-------------------------------------|-------------------------------------------------|
D|-------------------------------------|-------------------------------------------------|
A|-0---0---0---0--0--0---0--0--0---0---|-------------------------------------------------|
E|-------------------------------------|-2--2--2--2--2--2--2--2--2--2--2--2--2--2--2--2--|


G|---------4-----------4--4--4-------|---------9-----------9--9--9---9---|---------2-----------2--2--2---2---|
D|-----------------------------------|-----------------------------------|-----------------------------------|
A|-2---2-------2---2-------------2---|-7---7-------7---7-----------------|-0---0-------0---0-----------------|
E|-----------------------------------|-----------------------------------|-----------------------------------|


G|-----------------------------------|---------4-----------4--4--4-------|---------9-----------9--9--9---9---|
D|---------4-----------4--4--4---4---|-----------------------------------|-----------------------------------|
A|-----------------------------------|-2---2-------2---2-------------2---|-7---7-------7---7-----------------|
E|-2---2-------2---2-----------------|-----------------------------------|-----------------------------------|


G|---------2-----------2--2--2---2---|-----------------------------------|---------------------------------|
D|-----------------------------------|---------4-----------4--4--4---4---|---------------------------------|
A|-0---0-------0---0-----------------|-----------------------------------|-2---2---2---0---2---0---2---2---|
E|-----------------------------------|-2---2-------2---2-----------------|---------------------------------|


G|---------------------------------|-----------------------------------|-----------------------------------|
D|---------------------------------|-----------------------------------|-----------------------------------|
A|-5---5---5---3---5---3---5---5---|---------7---5--7--7---5---7---7---|---------7---5--7--7---5---7---0---|
E|---------------------------------|-0---0-----------------------------|-0---0-----------------------------|


G|---------------------------------|---------------------------------|-----------------------------------|
D|---------------------------------|---------------------------------|-----------------------------------|
A|-2---2---2---0---2---0---2---2---|-5---5---5---3---5---3---5---5---|---------7---5--7--7---5---7---7---|
E|---------------------------------|---------------------------------|-0---0-----------------------------|


G|-----------------------------------|---------------------------------------|---------------------------------------|
D|-----------------------------------|---------------------------------------|---------------------------------------|
A|---------7---5--7--7---5---7---0---|-2---2--2--2---0--0--2---0--0--2---2---|---------------------------------------|
E|-0---0-----------------------------|---------------------------------------|-0---0--0--0---0--0--0---0--0--0---0---|


G|---------------------------------------|---------------------------------------|
D|---------------------------------------|---------------------------------------|
A|-0---0--0--0---0--0--0---0--0--0---0---|---------------------------------------|
E|---------------------------------------|-2---2--2--2---2--2--2---2--2--2---2---|


G|---------------------------------------|---------------------------------------|
D|---------------------------------------|---------------------------------------|
A|-2---2--2--2---2--2--2---2--2--2---2---|---------------------------------------|
E|---------------------------------------|-0---0--0--0---0--0--0---0--0--0---0---|


G|---------------------------------------|-------------------------------------|-------------------------------------|
D|---------------------------------------|-----------4-----------------4---4---|-------------------------------------|
A|-0---0--0--0---0--0--0---0--0--0---0---|-------------------------------------|-2---2---2---2--2--2---2--2--2---2---|
E|---------------------------------------|-2---2--2------2---2---2--2----------|-------------------------------------|


G|-----------------------------------|-----------------------------------|-----------------------------------|
D|-----------------------------------|-----------------------------------|-----------------------------------|
A|-----------------------------------|-0---0---0---0---0---0--0--0---0---|-----------------------------------|
E|-0---0---0---0---0---0--0--0---0---|-----------------------------------|-2---2---2---2---2---2--2--2---2---|


G|-------------------------------------|---------------------------------------|---------------------------------------|
D|-------------------------------------|---------------------------------------|---------------------------------------|
A|------2--2---0--0--2---0--0--2---2---|---------------------------------------|-0---0--0--0---0--0--0---0--0--0---0---|
E|-------------------------------------|-0---0--0--0---0--0--0---0--0--0---0---|---------------------------------------|


G|---------------------------------------|---------------------------------------|
D|---------------------------------------|---------------------------------------|
A|---------------------------------------|-2---2--2--2---2--2--2---2--2--2---2---|
E|-2---2--2--2---2--2--2---2--2--2---2---|---------------------------------------|


G|---------------------------------------|-------------------------------------|-------------------------------------------------|
D|---------------------------------------|-----------4-----------------4---4---|-------------------------------------------------|
A|---------------------------------------|-------------------------------------|-------------------------------4--6--7--7--0--0--|
E|-0---0--0--0---0--0--0---0--0--0---0---|-2---2--2------2---2---2--2----------|-2--2--2--2--2--2--2--2--2--2--------------------|


G|---------------------------------------|---------------------------------------|
D|---------------------------------------|---------------------------------------|
A|-2---2--2--2---0--0--2---0--0--2---2---|---------------------------------------|
E|---------------------------------------|-0---0--0--0---0--0--0---0--0--0---0---|


G|---------------------------------------|---------------------------------------|
D|---------------------------------------|---------------------------------------|
A|-0---0--0--0---0--0--0---0--0--0---0---|---------------------------------------|
E|---------------------------------------|-2---2--2--2---2--2--2---2--2--2---2---|


G|---------------------------------------|---------------------------------------|
D|---------------------------------------|---------------------------------------|
A|-2---2--2--2---2--2--2---2--2--2---2---|---------------------------------------|
E|---------------------------------------|-0---0--0--0---0--0--0---0--0--0---0---|


G|---------------------------------------|-------------------------------------|---------------------------------------|
D|---------------------------------------|-----------4-----------------4---4---|---------------------------------------|
A|-0---0--0--0---0--0--0---0--0--0---0---|-------------------------------------|-2---2--2--2---0--0--2---0--0--2---2---|
E|---------------------------------------|-2---2--2------2---2---2--2----------|---------------------------------------|


G|---------------------------------------|---------------------------------------|
D|---------------------------------------|---------------------------------------|
A|---------------------------------------|-0---0--0--0---0--0--0---0--0--0---0---|
E|-0---0--0--0---0--0--0---0--0--0---0---|---------------------------------------|


G|---------------------------------------|---------------------------------------|
D|---------------------------------------|---------------------------------------|
A|---------------------------------------|-2---2--2--2---2--2--2---2--2--2---2---|
E|-2---2--2--2---2--2--2---2--2--2---2---|---------------------------------------|


G|---------------------------------------|---------------------------------------|
D|---------------------------------------|---------------------------------------|
A|---------------------------------------|-0---0--0--0---0--0--0---0--0--0---0---|
E|-0---0--0--0---0--0--0---0--0--0---0---|---------------------------------------|


G|-------------------------------------|-----------4-------------------4-------|-----------9-------------------------|
D|-----------4-----------------4---4---|---------------------------------------|-------------------------------------|
A|-------------------------------------|-2---2--2------2--2--2---2--2------2---|-7---7--7------7---7---7--7--7---7---|
E|-2---2--2------2---2---2--2----------|---------------------------------------|-------------------------------------|


G|-----------2-----------2--2--2---2---|-------------------------------------|-----------4-------------------4-------|
D|-------------------------------------|-----------4-----------4--4--4-------|---------------------------------------|
A|-0---0--0------0---0-----------------|-------------------------------------|-2---2--2------2--2--2---2--2------2---|
E|-------------------------------------|-2---2--2------2---2-------------2---|---------------------------------------|


G|-----------9-------------------------|-----------2-----------2--2--2---2---|-------------------------------------|
D|-------------------------------------|-------------------------------------|-----------4-----------4--4--4-------|
A|-7---7--7------7---7---7--7--7---7---|-0---0--0------0---0-----------------|-------------------------------------|
E|-------------------------------------|-------------------------------------|-2---2--2------2---2-------------2---|


G|-----------4-------------------4-------|-----------9-------------------------|-----------2-----------2--2--2---2---|
D|---------------------------------------|-------------------------------------|-------------------------------------|
A|-2---2--2------2--2--2---2--2------2---|-7---7--7------7---7---7--7--7---7---|-0---0--0------0---0-----------------|
E|---------------------------------------|-------------------------------------|-------------------------------------|


G|-------------------------------------|-----------4-------------------4-------|-----------9-------------------------|
D|-----------4-----------4--4--4-------|---------------------------------------|-------------------------------------|
A|-------------------------------------|-2---2--2------2--2--2---2--2------2---|-7---7--7------7---7---7--7--7---7---|
E|-2---2--2------2---2-------------2---|---------------------------------------|-------------------------------------|


G|-----------2-----------2--2--2---2---|-------------------------------------|
D|-------------------------------------|-----------4-----------4--4--4-------|
A|-0---0--0------0---0-----------------|-------------------------------------|
E|-------------------------------------|-2---2--2------2---2-------------2---|





Track 4: Untitled

G|--------|--------|--------|--------|--------|--------|--------|--------|--------|
D|--------|--------|--------|--------|--------|--------|--------|--------|--------|
A|--------|--------|--------|--------|--------|--------|--------|--------|--------|
E|--------|--------|--------|--------|--------|--------|--------|--------|--------|


G|--------|--------|--------|--------|--------|--------|--------|--------|--------|
D|--------|--------|--------|--------|--------|--------|--------|--------|--------|
A|--------|--------|--------|--------|--------|--------|--------|--------|--------|
E|--------|--------|--------|--------|--------|--------|--------|--------|--------|


G|--------|--------|--------|--------|--------|--------|--------|--------|--------|
D|--------|--------|--------|--------|--------|--------|--------|--------|--------|
A|--------|--------|--------|--------|--------|--------|--------|--------|--------|
E|--------|--------|--------|--------|--------|--------|--------|--------|--------|


G|--------|--------|--------|--------|--------|--------|--------|--------|--------|
D|--------|--------|--------|--------|--------|--------|--------|--------|--------|
A|--------|--------|--------|--------|--------|--------|--------|--------|--------|
E|--------|--------|--------|--------|--------|--------|--------|--------|--------|


G|--------|--------|--------|--------|--------|--------|--------|--------|--------|
D|--------|--------|--------|--------|--------|--------|--------|--------|--------|
A|--------|--------|--------|--------|--------|--------|--------|--------|--------|
E|--------|--------|--------|--------|--------|--------|--------|--------|--------|


G|--------|--------|--------|--------|--------|--------|--------|--------|--------|
D|--------|--------|--------|--------|--------|--------|--------|--------|--------|
A|--------|--------|--------|--------|--------|--------|--------|--------|--------|
E|--------|--------|--------|--------|--------|--------|--------|--------|--------|


G|--------|--------|--------|--------|--------|--------|--------|--------|--------|
D|--------|--------|--------|--------|--------|--------|--------|--------|--------|
A|--------|--------|--------|--------|--------|--------|--------|--------|--------|
E|--------|--------|--------|--------|--------|--------|--------|--------|--------|


G|--------|--------|--------|--------|--------|--------|--------|--------|--------|
D|--------|--------|--------|--------|--------|--------|--------|--------|--------|
A|--------|--------|--------|--------|--------|--------|--------|--------|--------|
E|--------|--------|--------|--------|--------|--------|--------|--------|--------|


G|--------|--------|--------|--------|--------|--------|--------|--------|--------|
D|--------|--------|--------|--------|--------|--------|--------|--------|--------|
A|--------|--------|--------|--------|--------|--------|--------|--------|--------|
E|--------|--------|--------|--------|--------|--------|--------|--------|--------|


G|--------|--------|--------|--------|--------|--------|--------|--------|--------|
D|--------|--------|--------|--------|--------|--------|--------|--------|--------|
A|--------|--------|--------|--------|--------|--------|--------|--------|--------|
E|--------|--------|--------|--------|--------|--------|--------|--------|--------|


G|--------|--------|--------|--------|--------|--------|--------|--------|--------|
D|--------|--------|--------|--------|--------|--------|--------|--------|--------|
A|--------|--------|--------|--------|--------|--------|--------|--------|--------|
E|--------|--------|--------|--------|--------|--------|--------|--------|--------|


G|--------|--------|--------|--------|--------|--------|
D|--------|--------|--------|--------|--------|--------|
A|--------|--------|--------|--------|--------|--------|
E|--------|--------|--------|--------|--------|--------|