Menu:

 

Search:

 

u2 - gloria:

 



Title: Gloria
Artist: 
Album: October
Author: U2


Track 1: Gtr I

D#|-------------0---------------0---|-0------|----------------0--------------|--------|
A#|---------------------------------|--------|---------------------13---10---|-10-----|
F#|---------10------10--------------|--------|-----------10------------------|--------|
C#|-----12--------------12--12------|--------|------12-----------------------|--------|
G#|-12------------------------------|--------|-12----------------------------|--------|
D#|---------------------------------|--------|-------------------------------|--------|


D#|---------------------0---0-------|-----------------------|---------------------0---------|
A#|-------------0---0-----------0---|-0-----------0---0-----|----------------0---------0----|
F#|---------6-----------------------|-----6---6-------------|-----------6-------------------|
C#|---------------------------------|-----------------------|------7------------------------|
G#|-0---7---------------------------|-----------------------|-7-----------------------------|
D#|---------------------------------|-----------------------|-------------------------------|


D#|--------|-------------10--12-----------|-----10--12-------12--10---|-14--14--14--12------10------9---|
A#|-0------|-10--12---------------10--12--|--------------10-----------|---------------------------------|
F#|--------|------------------------------|---------------------------|---------------------------------|
C#|--------|------------------------------|---------------------------|---------------------------------|
G#|--------|------------------------------|---------------------------|---------------------------------|
D#|--------|------------------------------|---------------------------|---------------------------------|


D#|-----10------12---------------|-------------10--12-----------|-----10--12-------12--10---|
A#|---------------------10-------|-10--12---------------10--12--|--------------10-----------|
F#|------------------------------|------------------------------|---------------------------|
C#|------------------------------|------------------------------|---------------------------|
G#|------------------------------|------------------------------|---------------------------|
D#|------------------------------|------------------------------|---------------------------|


D#|-9---9---9-------------------10--|-----9-----------------------0--0--|-0-----0-----0--0--|
A#|-------------10------12----------|-------------10--10--12--12--3--3--|-3-----3-----0--0--|
F#|---------------------------------|-----------------------------2--2--|-2-----2-----2--2--|
C#|---------------------------------|-----------------------------2--2--|-2-----2-----2--2--|
G#|---------------------------------|-----------------------------0-----|-0-----0-----2-----|
D#|---------------------------------|-----------------------------------|-------------------|


D#|-0------|-------------10--12-----------|-----10--12-------12--10---|-14--14--14--12------10------9---|
A#|-0------|-10--12---------------10--12--|--------------10-----------|---------------------------------|
F#|-2------|------------------------------|---------------------------|---------------------------------|
C#|-2------|------------------------------|---------------------------|---------------------------------|
G#|-2------|------------------------------|---------------------------|---------------------------------|
D#|-0------|------------------------------|---------------------------|---------------------------------|


D#|-----12--------------10-------|-------------10--12-----------|-----10--12-------12--10---|
A#|-------------10--12------12---|-10--12---------------10--12--|--------------10-----------|
F#|------------------------------|------------------------------|---------------------------|
C#|------------------------------|------------------------------|---------------------------|
G#|------------------------------|------------------------------|---------------------------|
D#|------------------------------|------------------------------|---------------------------|


D#|-9---9---9-------------------10--|-----9------------------------|-0-----0-----0--0--|
A#|-------------10------12----------|-------------10--10--12--12---|-3-----3-----0--0--|
F#|---------------------------------|------------------------------|-2-----2-----2--2--|
C#|---------------------------------|------------------------------|-2-----2-----2--2--|
G#|---------------------------------|------------------------------|-0-----0-----2-----|
D#|---------------------------------|------------------------------|-------------------|


D#|-0------|-7------|-7------|-------5---5-----|-5------|-5-------------------|--------|
A#|-0------|--------|--------|-5---------------|--------|-------5---5---------|--------|
F#|-2------|--------|--------|-----------------|--------|----------------5----|-5------|
C#|-2------|--------|--------|-----------------|--------|---------------------|--------|
G#|-2------|--------|--------|-----------------|--------|---------------------|--------|
D#|-0------|--------|--------|-----------------|--------|---------------------|--------|


D#|--------|--------|-10-----|-12-----|-7---------------------|-------------5---|-----------------|
A#|--------|--------|-10-----|-10-----|-----7---7-------7-----|-7-----7---------|-5-----5---------|
F#|-5------|--------|-11-----|-9------|-------------7---------|-----------------|-------------5---|
C#|--------|--------|-9------|-9------|-----------------------|-----------------|-----------------|
G#|--------|--------|--------|--------|-----------------------|-----------------|-----------------|
D#|--------|--------|--------|--------|-----------------------|-----------------|-----------------|


D#|--------|--------|--------|-------------10--12-----------|-----10--12-------12--10---|
A#|--------|--------|--------|-10--12---------------10--12--|--------------10-----------|
F#|-7------|--------|--------|------------------------------|---------------------------|
C#|--------|--------|--------|------------------------------|---------------------------|
G#|--------|--------|--------|------------------------------|---------------------------|
D#|--------|--------|--------|------------------------------|---------------------------|


D#|-14--14--14--12------10------9---|-----12--------------10-------|-------------10--12-----------|
A#|---------------------------------|-------------10---------------|-10--12---------------10--12--|
F#|---------------------------------|------------------------------|------------------------------|
C#|---------------------------------|------------------------------|------------------------------|
G#|---------------------------------|------------------------------|------------------------------|
D#|---------------------------------|------------------------------|------------------------------|


D#|-----10--12-------12--10---|-9---9---9-------------------10--|-----9-----------------------0--0--|
A#|--------------10-----------|-------------10------12----------|-------------10--10--12--12--3--3--|
F#|---------------------------|---------------------------------|-----------------------------2--2--|
C#|---------------------------|---------------------------------|-----------------------------2--2--|
G#|---------------------------|---------------------------------|-----------------------------0-----|
D#|---------------------------|---------------------------------|-----------------------------------|


D#|-0-----0-----0--0--|-0------|-------------10--12--------|-12--10--9--------12--10---|
A#|-3-----3-----0--0--|-0------|-10--12---------------10---|--------------10-----------|
F#|-2-----2-----2--2--|-2------|---------------------------|---------------------------|
C#|-2-----2-----2--2--|-2------|---------------------------|---------------------------|
G#|-0-----0-----2-----|-2------|---------------------------|---------------------------|
D#|-------------------|-0------|---------------------------|---------------------------|


D#|-14--14--14--12------10------15--|-15--14--12--14--14--10--10--12--|-------------10--12--------|
A#|---------------------------------|---------------------------------|-10--12---------------10---|
F#|---------------------------------|---------------------------------|---------------------------|
C#|---------------------------------|---------------------------------|---------------------------|
G#|---------------------------------|---------------------------------|---------------------------|
D#|---------------------------------|---------------------------------|---------------------------|


D#|-12--10--9--------12--10---|-9---9---9-------------------10--|-----9------------------------|
A#|--------------10-----------|-------------10------12----------|-------------10--10--12--12---|
F#|---------------------------|---------------------------------|------------------------------|
C#|---------------------------|---------------------------------|------------------------------|
G#|---------------------------|---------------------------------|------------------------------|
D#|---------------------------|---------------------------------|------------------------------|


D#|-0-----0-----0--0--|-0------|-7------|-7------|-------5---5-----|-5------|-5-------------------|
A#|-3-----3-----0--0--|-0------|--------|--------|-5---------------|--------|-------5---5---------|
F#|-2-----2-----2--2--|-2------|--------|--------|-----------------|--------|----------------5----|
C#|-2-----2-----2--2--|-2------|--------|--------|-----------------|--------|---------------------|
G#|-0-----0-----2-----|-2------|--------|--------|-----------------|--------|---------------------|
D#|-------------------|-0------|--------|--------|-----------------|--------|---------------------|


D#|--------|--------|--------|-10-----|-12-----|-7---------------------|-------------5---|
A#|--------|--------|--------|-10-----|-10-----|-----7---7-------7-----|-7-----7---------|
F#|-5------|-5------|--------|-11-----|-9------|-------------7---------|-----------------|
C#|--------|--------|--------|-9------|-9------|-----------------------|-----------------|
G#|--------|--------|--------|--------|--------|-----------------------|-----------------|
D#|--------|--------|--------|--------|--------|-----------------------|-----------------|


D#|-----------------|--------|--------|--------|--------|--------|--------|--------|
A#|-5-----5---------|--------|--------|--------|--------|--------|--------|--------|
F#|-------------5---|-7------|--------|--------|--------|--------|--------|--------|
C#|-----------------|--------|--------|--------|--------|--------|--------|--------|
G#|-----------------|--------|--------|--------|--------|--------|--------|--------|
D#|-----------------|--------|--------|--------|--------|--------|--------|--------|


D#|--------|--------|--------|--------|--------|--------|--------|--------|--------|
A#|--------|--------|--------|--------|--------|--------|--------|--------|--------|
F#|--------|--------|--------|--------|--------|--------|--------|--------|--------|
C#|--------|--------|--------|--------|--------|--------|--------|--------|--------|
G#|--------|--------|--------|--------|--------|--------|--------|--------|--------|
D#|--------|--------|--------|--------|--------|--------|--------|--------|--------|


D#|--------|--------|--------|--------|--------|--------|--------|--------|--------|
A#|--------|--------|--------|--------|--------|--------|--------|--------|--------|
F#|--------|--------|--------|--------|--------|--------|--------|--------|--------|
C#|--------|--------|--------|--------|--------|--------|--------|--------|--------|
G#|--------|--------|--------|--------|--------|--------|--------|--------|--------|
D#|--------|--------|--------|--------|--------|--------|--------|--------|--------|


D#|--------|--------|--------|--------|--------|--------|--------|--------|--------|
A#|--------|--------|--------|--------|--------|--------|--------|--------|--------|
F#|--------|--------|--------|--------|--------|--------|--------|--------|--------|
C#|--------|--------|--------|--------|--------|--------|--------|--------|--------|
G#|--------|--------|--------|--------|--------|--------|--------|--------|--------|
D#|--------|--------|--------|--------|--------|--------|--------|--------|--------|


D#|--------|--------|--------|--------|--------|---------------------------|---------------------|
A#|--------|--------|--------|--------|--------|-12--12--12--12--12---14---|-14---14---14---14---|
F#|--------|--------|--------|--------|--------|-11--11--11--11--11---13---|-13---13---13---13---|
C#|--------|--------|--------|--------|--------|-9---9---9---9---9----11---|-11---11---11---11---|
G#|--------|--------|--------|--------|--------|---------------------------|---------------------|
D#|--------|--------|--------|--------|--------|---------------------------|---------------------|


D#|---------------------|------------------------|-14---14--14--14--14--16---|-12--12--12--12--12--12--12---|
A#|-14---14---14---14---|-12--12--12---14---17---|-12---12--12--12--12--14---|-10--10--10--10--10--10--10---|
F#|-13---13---13---13---|-11--11--11---13---16---|-11---11--11--11--11--13---|-9---9---9---9---9---9---9----|
C#|-11---11---11---11---|-9---9---9----11---14---|---------------------------|------------------------------|
G#|---------------------|------------------------|---------------------------|------------------------------|
D#|---------------------|------------------------|---------------------------|------------------------------|


D#|-0----0---0---0---0---0----|-14--14--14---------|-14---14--14--14--14--16---|-12--12--12--12--12--12--12---|
A#|-12---12--12--12--12--12---|-12--12--12---------|-12---12--12--12--12--14---|-10--10--10--10--10--10--10---|
F#|-9----9---9---9---9---9----|-11--11--11---------|-11---11--11--11--11--13---|-9---9---9---9---9---9---9----|
C#|---------------------------|--------------------|---------------------------|------------------------------|
G#|---------------------------|--------------------|---------------------------|------------------------------|
D#|---------------------------|--------------------|---------------------------|------------------------------|


D#|-0----0---0---0---0---0----|-14--14--14---------|-14---14--14--14--14--16---|-12--12--12--12--12--12--12---|
A#|-12---12--12--12--12--12---|-12--12--12---------|-12---12--12--12--12--14---|-10--10--10--10--10--10--10---|
F#|-9----9---9---9---9---9----|-11--11--11---------|-11---11--11--11--11--13---|-9---9---9---9---9---9---9----|
C#|---------------------------|--------------------|---------------------------|------------------------------|
G#|---------------------------|--------------------|---------------------------|------------------------------|
D#|---------------------------|--------------------|---------------------------|------------------------------|


D#|-0----0---0---0---0---0----|-14--14--14---------|-14---14--14--14--14--16---|-12--12--12--12--12--12--12---|
A#|-12---12--12--12--12--12---|-12--12--12---------|-12---12--12--12--12--14---|-10--10--10--10--10--10--10---|
F#|-9----9---9---9---9---9----|-11--11--11---------|-11---11--11--11--11--13---|-9---9---9---9---9---9---9----|
C#|---------------------------|--------------------|---------------------------|------------------------------|
G#|---------------------------|--------------------|---------------------------|------------------------------|
D#|---------------------------|--------------------|---------------------------|------------------------------|


D#|-0----0---0---0---0---0----|-14--14--14---------|-14---14--14--14--14--16---|-12--12--12--12--12--12--12---|
A#|-12---12--12--12--12--12---|-12--12--12---------|-12---12--12--12--12--14---|-10--10--10--10--10--10--10---|
F#|-9----9---9---9---9---9----|-11--11--11---------|-11---11--11--11--11--13---|-9---9---9---9---9---9---9----|
C#|---------------------------|--------------------|---------------------------|------------------------------|
G#|---------------------------|--------------------|---------------------------|------------------------------|
D#|---------------------------|--------------------|---------------------------|------------------------------|


D#|-0----0---0---0---0---0----|-14--14--14---------|-14---14--14--14--14--16---|-12--12--12--12--12--12--12---|
A#|-12---12--12--12--12--12---|-12--12--12---------|-12---12--12--12--12--14---|-10--10--10--10--10--10--10---|
F#|-9----9---9---9---9---9----|-11--11--11---------|-11---11--11--11--11--13---|-9---9---9---9---9---9---9----|
C#|---------------------------|--------------------|---------------------------|------------------------------|
G#|---------------------------|--------------------|---------------------------|------------------------------|
D#|---------------------------|--------------------|---------------------------|------------------------------|


D#|-0----0---0---0---0---0----|-14--14--14---------|-14---14--14--14--14--16---|-12--12--12--12--12--12--12---|
A#|-12---12--12--12--12--12---|-12--12--12---------|-12---12--12--12--12--14---|-10--10--10--10--10--10--10---|
F#|-9----9---9---9---9---9----|-11--11--11---------|-11---11--11--11--11--13---|-9---9---9---9---9---9---9----|
C#|---------------------------|--------------------|---------------------------|------------------------------|
G#|---------------------------|--------------------|---------------------------|------------------------------|
D#|---------------------------|--------------------|---------------------------|------------------------------|


D#|-0----0---0---0---0---0----|-14--14--14---------|--------|--------|--------|--------|
A#|-12---12--12--12--12--12---|-12--12--12---------|--------|--------|--------|--------|
F#|-9----9---9---9---9---9----|-11--11--11---------|--------|--------|--------|--------|
C#|---------------------------|--------------------|--------|--------|--------|--------|
G#|---------------------------|--------------------|--------|--------|--------|--------|
D#|---------------------------|--------------------|--------|--------|--------|--------|





Track 2: Gtr II

D#|--------|--------|--------|--------|--------|--------|--------|--------|---------------------------------|
A#|--------|--------|--------|--------|--------|--------|--------|--------|-9-----------9-----------9-------|
F#|--------|--------|--------|--------|--------|--------|--------|--------|-9---9---9---9---9---9---9---9---|
C#|--------|--------|--------|--------|--------|--------|--------|--------|-9---9---9---9---9---9---9---9---|
G#|--------|--------|--------|--------|--------|--------|--------|--------|---------------------------------|
D#|--------|--------|--------|--------|--------|--------|--------|--------|---------------------------------|


D#|---------------------------------|---------------------------------|---------------------------------|
A#|-----9-----------9-------9-------|---------------------9-------9---|-----9-------9-------9-----------|
F#|-9---9---9---9---9---9---9---9---|-9---9---9---9---9---9---9---9---|-9---9---9---9---9---9---9---9---|
C#|-9---9---9---9---9---9---9---9---|-9---9---9---9---9---9---9---9---|-9---9---9---9---9---9---9---9---|
G#|---------------------------------|---------------------------------|---------------------------------|
D#|---------------------------------|---------------------------------|---------------------------------|


D#|---------------------------------|---------------------------------|---------------------------------|
A#|-9-----------9-----------9-------|-----9-----------9-------9-------|-3---3---3---3---3---3---3---3---|
F#|-9---9---9---9---9---9---9---9---|-9---9---9---9---9---9---9---9---|-2---2---2---2---2---2---2---2---|
C#|-9---9---9---9---9---9---9---9---|-9---9---9---9---9---9---9---9---|-----2---2---2---2---2---2---2---|
G#|---------------------------------|---------------------------------|---------------------------------|
D#|---------------------------------|---------------------------------|---------------------------------|


D#|---------------------------------|-0-----0-----0--0--|-0------|---------------------------------|
A#|-3---3---3---3---3---3---3---3---|-3-----3-----0--0--|-0------|-9-----------9-----------9-------|
F#|-2---2---2---2---2---2---2---2---|-2-----2-----2--2--|-2------|-9---9---9---9---9---9---9---9---|
C#|-2---2---2---2---2---2---2---2---|-2-----2-----2--2--|-2------|-9---9---9---9---9---9---9---9---|
G#|---------------------------------|-0-----0-----2-----|-2------|---------------------------------|
D#|---------------------------------|-------------------|-0------|---------------------------------|


D#|---------------------------------|---------------------------------|---------------------------------|
A#|-----9-----------9-------9-------|---------------------9-------9---|-----9-------9-------9-----------|
F#|-9---9---9---9---9---9---9---9---|-9---9---9---9---9---9---9---9---|-9---9---9---9---9---9---9---9---|
C#|-9---9---9---9---9---9---9---9---|-9---9---9---9---9---9---9---9---|-9---9---9---9---9---9---9---9---|
G#|---------------------------------|---------------------------------|---------------------------------|
D#|---------------------------------|---------------------------------|---------------------------------|


D#|---------------------------------|---------------------------------|---------------------------------|
A#|-9-----------9-----------9-------|-----9-----------9-------9-------|-3---3---3---3---3---3---3---3---|
F#|-9---9---9---9---9---9---9---9---|-9---9---9---9---9---9---9---9---|-2---2---2---2---2---2---2---2---|
C#|-9---9---9---9---9---9---9---9---|-9---9---9---9---9---9---9---9---|-----2---2---2---2---2---2---2---|
G#|---------------------------------|---------------------------------|---------------------------------|
D#|---------------------------------|---------------------------------|---------------------------------|


D#|---------------------------------|-0-----0-----0--0--|-0------|-7---------------------|
A#|-3---3---3---3---3---3---3---3---|-3-----3-----0--0--|-0------|-----7---7-------7-----|
F#|-2---2---2---2---2---2---2---2---|-2-----2-----2--2--|-2------|-------------7---------|
C#|-2---2---2---2---2---2---2---2---|-2-----2-----2--2--|-2------|-----------------------|
G#|---------------------------------|-0-----0-----2-----|-2------|-----------------------|
D#|---------------------------------|-------------------|-0------|-----------------------|


D#|--------|------------------------|--------|------7----7-----|-7------|-7------|
A#|-7------|-------5---5------------|--------|-7---------------|--------|--------|
F#|--------|---------------5---5----|-5------|-----------------|--------|--------|
C#|--------|------------------------|--------|-----------------|--------|--------|
G#|--------|-5----------------------|--------|-----------------|--------|--------|
D#|--------|------------------------|--------|-----------------|--------|--------|


D#|--------|-----------------|--------|-5-------------------|--------|--------|--------|
A#|--------|-------7---7-----|-7------|-------5---5----7----|-7------|--------|--------|
F#|--------|-5---------------|--------|---------------------|--------|--------|--------|
C#|--------|-----------------|--------|---------------------|--------|--------|--------|
G#|--------|-----------------|--------|---------------------|--------|--------|--------|
D#|--------|-----------------|--------|---------------------|--------|--------|--------|


D#|--------|--------|---------------------------------|---------------------------------|
A#|--------|--------|-9-----------9-----------9-------|-----9-----------9-------9-------|
F#|--------|--------|-9---9---9---9---9---9---9---9---|-9---9---9---9---9---9---9---9---|
C#|--------|--------|-9---9---9---9---9---9---9---9---|-9---9---9---9---9---9---9---9---|
G#|--------|--------|---------------------------------|---------------------------------|
D#|--------|--------|---------------------------------|---------------------------------|


D#|---------------------------------|---------------------------------|---------------------------------|
A#|---------------------9-------9---|-----9-------9-------9-----------|-9-----------9-----------9-------|
F#|-9---9---9---9---9---9---9---9---|-9---9---9---9---9---9---9---9---|-9---9---9---9---9---9---9---9---|
C#|-9---9---9---9---9---9---9---9---|-9---9---9---9---9---9---9---9---|-9---9---9---9---9---9---9---9---|
G#|---------------------------------|---------------------------------|---------------------------------|
D#|---------------------------------|---------------------------------|---------------------------------|


D#|---------------------------------|---------------------------------|---------------------------------|
A#|-----9-----------9-------9-------|-3---3---3---3---3---3---3---3---|-3---3---3---3---3---3---3---3---|
F#|-9---9---9---9---9---9---9---9---|-2---2---2---2---2---2---2---2---|-2---2---2---2---2---2---2---2---|
C#|-9---9---9---9---9---9---9---9---|-----2---2---2---2---2---2---2---|-2---2---2---2---2---2---2---2---|
G#|---------------------------------|---------------------------------|---------------------------------|
D#|---------------------------------|---------------------------------|---------------------------------|


D#|-0-----0-----0--0--|-0------|---------------------------------|---------------------------------|
A#|-3-----3-----0--0--|-0------|-9-----------9-----------9-------|-----9-----------9-------9-------|
F#|-2-----2-----2--2--|-2------|-9---9---9---9---9---9---9---9---|-9---9---9---9---9---9---9---9---|
C#|-2-----2-----2--2--|-2------|-9---9---9---9---9---9---9---9---|-9---9---9---9---9---9---9---9---|
G#|-0-----0-----2-----|-2------|---------------------------------|---------------------------------|
D#|-------------------|-0------|---------------------------------|---------------------------------|


D#|---------------------------------|---------------------------------|---------------------------------|
A#|---------------------9-------9---|-----9-------9-------9-----------|-9-----------9-----------9-------|
F#|-9---9---9---9---9---9---9---9---|-9---9---9---9---9---9---9---9---|-9---9---9---9---9---9---9---9---|
C#|-9---9---9---9---9---9---9---9---|-9---9---9---9---9---9---9---9---|-9---9---9---9---9---9---9---9---|
G#|---------------------------------|---------------------------------|---------------------------------|
D#|---------------------------------|---------------------------------|---------------------------------|


D#|---------------------------------|---------------------------------|---------------------------------|
A#|-----9-----------9-------9-------|-3---3---3---3---3---3---3---3---|-3---3---3---3---3---3---3---3---|
F#|-9---9---9---9---9---9---9---9---|-2---2---2---2---2---2---2---2---|-2---2---2---2---2---2---2---2---|
C#|-9---9---9---9---9---9---9---9---|-----2---2---2---2---2---2---2---|-2---2---2---2---2---2---2---2---|
G#|---------------------------------|---------------------------------|---------------------------------|
D#|---------------------------------|---------------------------------|---------------------------------|


D#|-0-----0-----0--0--|-0------|-7---------------------|--------|------------------------|
A#|-3-----3-----0--0--|-0------|-----7---7-------7-----|-7------|-------5---5------------|
F#|-2-----2-----2--2--|-2------|-------------7---------|--------|---------------5---5----|
C#|-2-----2-----2--2--|-2------|-----------------------|--------|------------------------|
G#|-0-----0-----2-----|-2------|-----------------------|--------|-5----------------------|
D#|-------------------|-0------|-----------------------|--------|------------------------|


D#|--------|------7----7-----|-7------|-7------|--------|-----------------|--------|
A#|--------|-7---------------|--------|--------|--------|-------7---7-----|-7------|
F#|-5------|-----------------|--------|--------|--------|-5---------------|--------|
C#|--------|-----------------|--------|--------|--------|-----------------|--------|
G#|--------|-----------------|--------|--------|--------|-----------------|--------|
D#|--------|-----------------|--------|--------|--------|-----------------|--------|


D#|-5-------------------|--------|--------|--------|--------|--------|-------------------------------------------------|
A#|-------5---5----7----|-7------|--------|--------|--------|--------|-3--3--3--3--3--3--3--3--3--3--3--3--3--3--3--3--|
F#|---------------------|--------|--------|--------|--------|--------|-------------------------------------------------|
C#|---------------------|--------|--------|--------|--------|--------|-------------------------------------------------|
G#|---------------------|--------|--------|--------|--------|--------|-------------------------------------------------|
D#|---------------------|--------|--------|--------|--------|--------|-------------------------------------------------|


D#|-------------------------------------------------|-------------------------------------------------|
A#|-0--0--3--3--3--3--3--3--3--3--3--3--0--0--0--0--|-0--0--0--0--0--0--------------------0--0--0--0--|
F#|-------------------------------------------------|-------------------2--2--2--2--2--2--------------|
C#|-------------------------------------------------|-------------------------------------------------|
G#|-------------------------------------------------|-------------------------------------------------|
D#|-------------------------------------------------|-------------------------------------------------|


D#|-------------------------------------------------|--------|--------|--------|--------|
A#|-0--0--0--0--0--0--0--0--0--0--0--0--0--0--0--0--|--------|--------|--------|--------|
F#|-------------------------------------------------|--------|--------|--------|--------|
C#|-------------------------------------------------|--------|--------|--------|--------|
G#|-------------------------------------------------|--------|--------|--------|--------|
D#|-------------------------------------------------|--------|--------|--------|--------|


D#|--------|--------|--------|--------|--------|--------|--------|--------|--------|
A#|--------|--------|--------|--------|--------|--------|--------|--------|--------|
F#|--------|--------|--------|--------|--------|--------|--------|--------|--------|
C#|--------|--------|--------|--------|--------|--------|--------|--------|--------|
G#|--------|--------|--------|--------|--------|--------|--------|--------|--------|
D#|--------|--------|--------|--------|--------|--------|--------|--------|--------|


D#|--------|--------|--------|--------|--------|--------|--------|--------|--------|
A#|--------|--------|--------|--------|--------|--------|--------|--------|--------|
F#|--------|--------|--------|--------|--------|--------|--------|--------|--------|
C#|--------|--------|--------|--------|--------|--------|--------|--------|--------|
G#|--------|--------|--------|--------|--------|--------|--------|--------|--------|
D#|--------|--------|--------|--------|--------|--------|--------|--------|--------|


D#|--------|--------|--------|--------|--------|--------|--------|--------|--------|
A#|--------|--------|--------|--------|--------|--------|--------|--------|--------|
F#|--------|--------|--------|--------|--------|--------|--------|--------|--------|
C#|--------|--------|--------|--------|--------|--------|--------|--------|--------|
G#|--------|--------|--------|--------|--------|--------|--------|--------|--------|
D#|--------|--------|--------|--------|--------|--------|--------|--------|--------|


D#|--------|--------|--------|--------|--------|--------|--------|--------|--------|
A#|--------|--------|--------|--------|--------|--------|--------|--------|--------|
F#|--------|--------|--------|--------|--------|--------|--------|--------|--------|
C#|--------|--------|--------|--------|--------|--------|--------|--------|--------|
G#|--------|--------|--------|--------|--------|--------|--------|--------|--------|
D#|--------|--------|--------|--------|--------|--------|--------|--------|--------|


D#|--------|--------|--------|--------|--------|--------|--------|--------|--------|
A#|--------|--------|--------|--------|--------|--------|--------|--------|--------|
F#|--------|--------|--------|--------|--------|--------|--------|--------|--------|
C#|--------|--------|--------|--------|--------|--------|--------|--------|--------|
G#|--------|--------|--------|--------|--------|--------|--------|--------|--------|
D#|--------|--------|--------|--------|--------|--------|--------|--------|--------|


D#|--------|--------|--------|--------|--------|--------|--------|--------|--------|
A#|--------|--------|--------|--------|--------|--------|--------|--------|--------|
F#|--------|--------|--------|--------|--------|--------|--------|--------|--------|
C#|--------|--------|--------|--------|--------|--------|--------|--------|--------|
G#|--------|--------|--------|--------|--------|--------|--------|--------|--------|
D#|--------|--------|--------|--------|--------|--------|--------|--------|--------|


D#|--------|--------|--------|--------|--------|--------|--------|--------|--------|
A#|--------|--------|--------|--------|--------|--------|--------|--------|--------|
F#|--------|--------|--------|--------|--------|--------|--------|--------|--------|
C#|--------|--------|--------|--------|--------|--------|--------|--------|--------|
G#|--------|--------|--------|--------|--------|--------|--------|--------|--------|
D#|--------|--------|--------|--------|--------|--------|--------|--------|--------|


D#|--------|
A#|--------|
F#|--------|
C#|--------|
G#|--------|
D#|--------|





Track 3: P.f

D#|--------|--------|--------|--------|--------|--------|--------|--------|--------|
A#|--------|--------|--------|--------|--------|--------|--------|--------|--------|
F#|--------|--------|--------|--------|--------|--------|--------|--------|--------|
C#|--------|--------|--------|--------|--------|--------|--------|--------|--------|
G#|--------|--------|--------|--------|--------|--------|--------|--------|--------|
D#|--------|--------|--------|--------|--------|--------|--------|--------|--------|


D#|--------|--------|--------|--------|--------|--------|--------|--------|--------|
A#|--------|--------|--------|--------|--------|--------|--------|--------|--------|
F#|--------|--------|--------|--------|--------|--------|--------|--------|--------|
C#|--------|--------|--------|--------|--------|--------|--------|--------|--------|
G#|--------|--------|--------|--------|--------|--------|--------|--------|--------|
D#|--------|--------|--------|--------|--------|--------|--------|--------|--------|


D#|--------|--------|--------|--------|--------|--------|--------|--------|--------|
A#|--------|--------|--------|--------|--------|--------|--------|--------|--------|
F#|--------|--------|--------|--------|--------|--------|--------|--------|--------|
C#|--------|--------|--------|--------|--------|--------|--------|--------|--------|
G#|--------|--------|--------|--------|--------|--------|--------|--------|--------|
D#|--------|--------|--------|--------|--------|--------|--------|--------|--------|


D#|--------|--------|--------|--------|--------|--------|--------|--------|--------|
A#|--------|--------|--------|--------|--------|--------|--------|--------|--------|
F#|--------|--------|--------|--------|--------|--------|--------|--------|--------|
C#|--------|--------|--------|--------|--------|--------|--------|--------|--------|
G#|--------|--------|--------|--------|--------|--------|--------|--------|--------|
D#|--------|--------|--------|--------|--------|--------|--------|--------|--------|


D#|--------|--------|--------|--------|-----------------|------------------------|
A#|--------|--------|--------|--------|-5-----5-----7---|------------------------|
F#|--------|--------|--------|--------|-----------------|-5----3----3---3---3----|
C#|--------|--------|--------|--------|-----------------|------------------------|
G#|--------|--------|--------|--------|-----------------|------------------------|
D#|--------|--------|--------|--------|-----------------|------------------------|


D#|------------------------|--------|--------|--------|--------|--------|--------|
A#|--------------5---------|--------|--------|--------|--------|--------|--------|
F#|------3---3-------------|--------|--------|--------|--------|--------|--------|
C#|-------------------7----|-7------|--------|--------|--------|--------|--------|
G#|------------------------|--------|--------|--------|--------|--------|--------|
D#|-3----------------------|--------|--------|--------|--------|--------|--------|


D#|--------|--------|--------|--------|--------|--------|--------|--------|--------|
A#|--------|--------|--------|--------|--------|--------|--------|--------|--------|
F#|--------|--------|--------|--------|--------|--------|--------|--------|--------|
C#|--------|--------|--------|--------|--------|--------|--------|--------|--------|
G#|--------|--------|--------|--------|--------|--------|--------|--------|--------|
D#|--------|--------|--------|--------|--------|--------|--------|--------|--------|


D#|--------|--------|--------|--------|--------|--------|--------|--------|--------|
A#|--------|--------|--------|--------|--------|--------|--------|--------|--------|
F#|--------|--------|--------|--------|--------|--------|--------|--------|--------|
C#|--------|--------|--------|--------|--------|--------|--------|--------|--------|
G#|--------|--------|--------|--------|--------|--------|--------|--------|--------|
D#|--------|--------|--------|--------|--------|--------|--------|--------|--------|


D#|--------|--------|--------|--------|--------|--------|--------|--------|--------|
A#|--------|--------|--------|--------|--------|--------|--------|--------|--------|
F#|--------|--------|--------|--------|--------|--------|--------|--------|--------|
C#|--------|--------|--------|--------|--------|--------|--------|--------|--------|
G#|--------|--------|--------|--------|--------|--------|--------|--------|--------|
D#|--------|--------|--------|--------|--------|--------|--------|--------|--------|


D#|-----------------|------------------------|------------------------|--------|--------|
A#|-5-----5-----7---|------------------------|--------------5---------|--------|--------|
F#|-----------------|-5----3----3---3---3----|------3---3-------------|--------|--------|
C#|-----------------|------------------------|-------------------7----|-7------|--------|
G#|-----------------|------------------------|------------------------|--------|--------|
D#|-----------------|------------------------|-3----------------------|--------|--------|


D#|--------|--------|--------|--------|--------|--------|--------|--------|--------|
A#|--------|--------|--------|--------|--------|--------|--------|--------|--------|
F#|--------|--------|--------|--------|--------|--------|--------|--------|--------|
C#|--------|--------|--------|--------|--------|--------|--------|--------|--------|
G#|--------|--------|--------|--------|--------|--------|--------|--------|--------|
D#|--------|--------|--------|--------|--------|--------|--------|--------|--------|


D#|--------|--------|--------|--------|--------|--------|--------|--------|--------|
A#|--------|--------|--------|--------|--------|--------|--------|--------|--------|
F#|--------|--------|--------|--------|--------|--------|--------|--------|--------|
C#|--------|--------|--------|--------|--------|--------|--------|--------|--------|
G#|--------|--------|--------|--------|--------|--------|--------|--------|--------|
D#|--------|--------|--------|--------|--------|--------|--------|--------|--------|


D#|--------|--------|--------|--------|--------|--------|--------|--------|--------|
A#|--------|--------|--------|--------|--------|--------|--------|--------|--------|
F#|--------|--------|--------|--------|--------|--------|--------|--------|--------|
C#|--------|--------|--------|--------|--------|--------|--------|--------|--------|
G#|--------|--------|--------|--------|--------|--------|--------|--------|--------|
D#|--------|--------|--------|--------|--------|--------|--------|--------|--------|


D#|--------|--------|--------|--------|--------|--------|--------|--------|--------|
A#|--------|--------|--------|--------|--------|--------|--------|--------|--------|
F#|--------|--------|--------|--------|--------|--------|--------|--------|--------|
C#|--------|--------|--------|--------|--------|--------|--------|--------|--------|
G#|--------|--------|--------|--------|--------|--------|--------|--------|--------|
D#|--------|--------|--------|--------|--------|--------|--------|--------|--------|


D#|--------|--------|--------|--------|--------|--------|--------|--------|--------|
A#|--------|--------|--------|--------|--------|--------|--------|--------|--------|
F#|--------|--------|--------|--------|--------|--------|--------|--------|--------|
C#|--------|--------|--------|--------|--------|--------|--------|--------|--------|
G#|--------|--------|--------|--------|--------|--------|--------|--------|--------|
D#|--------|--------|--------|--------|--------|--------|--------|--------|--------|


D#|--------|--------|--------|--------|--------|--------|--------|--------|--------|
A#|--------|--------|--------|--------|--------|--------|--------|--------|--------|
F#|--------|--------|--------|--------|--------|--------|--------|--------|--------|
C#|--------|--------|--------|--------|--------|--------|--------|--------|--------|
G#|--------|--------|--------|--------|--------|--------|--------|--------|--------|
D#|--------|--------|--------|--------|--------|--------|--------|--------|--------|


D#|--------|--------|--------|--------|--------|--------|--------|--------|--------|
A#|--------|--------|--------|--------|--------|--------|--------|--------|--------|
F#|--------|--------|--------|--------|--------|--------|--------|--------|--------|
C#|--------|--------|--------|--------|--------|--------|--------|--------|--------|
G#|--------|--------|--------|--------|--------|--------|--------|--------|--------|
D#|--------|--------|--------|--------|--------|--------|--------|--------|--------|


D#|--------|--------|--------|--------|--------|--------|--------|--------|
A#|--------|--------|--------|--------|--------|--------|--------|--------|
F#|--------|--------|--------|--------|--------|--------|--------|--------|
C#|--------|--------|--------|--------|--------|--------|--------|--------|
G#|--------|--------|--------|--------|--------|--------|--------|--------|
D#|--------|--------|--------|--------|--------|--------|--------|--------|





Track 4: Solo Guitar

D#|--------|--------|--------|--------|--------|--------|--------|--------|--------|
A#|--------|--------|--------|--------|--------|--------|--------|--------|--------|
F#|--------|--------|--------|--------|--------|--------|--------|--------|--------|
C#|--------|--------|--------|--------|--------|--------|--------|--------|--------|
G#|--------|--------|--------|--------|--------|--------|--------|--------|--------|
D#|--------|--------|--------|--------|--------|--------|--------|--------|--------|


D#|--------|--------|--------|--------|--------|--------|--------|--------|--------|
A#|--------|--------|--------|--------|--------|--------|--------|--------|--------|
F#|--------|--------|--------|--------|--------|--------|--------|--------|--------|
C#|--------|--------|--------|--------|--------|--------|--------|--------|--------|
G#|--------|--------|--------|--------|--------|--------|--------|--------|--------|
D#|--------|--------|--------|--------|--------|--------|--------|--------|--------|


D#|--------|--------|--------|--------|--------|--------|--------|--------|--------|
A#|--------|--------|--------|--------|--------|--------|--------|--------|--------|
F#|--------|--------|--------|--------|--------|--------|--------|--------|--------|
C#|--------|--------|--------|--------|--------|--------|--------|--------|--------|
G#|--------|--------|--------|--------|--------|--------|--------|--------|--------|
D#|--------|--------|--------|--------|--------|--------|--------|--------|--------|


D#|--------|--------|--------|--------|--------|--------|--------|--------|--------|
A#|--------|--------|--------|--------|--------|--------|--------|--------|--------|
F#|--------|--------|--------|--------|--------|--------|--------|--------|--------|
C#|--------|--------|--------|--------|--------|--------|--------|--------|--------|
G#|--------|--------|--------|--------|--------|--------|--------|--------|--------|
D#|--------|--------|--------|--------|--------|--------|--------|--------|--------|


D#|--------|--------|--------|--------|--------|--------|--------|--------|--------|
A#|--------|--------|--------|--------|--------|--------|--------|--------|--------|
F#|--------|--------|--------|--------|--------|--------|--------|--------|--------|
C#|--------|--------|--------|--------|--------|--------|--------|--------|--------|
G#|--------|--------|--------|--------|--------|--------|--------|--------|--------|
D#|--------|--------|--------|--------|--------|--------|--------|--------|--------|


D#|--------|--------|--------|--------|--------|--------|--------|--------|--------|
A#|--------|--------|--------|--------|--------|--------|--------|--------|--------|
F#|--------|--------|--------|--------|--------|--------|--------|--------|--------|
C#|--------|--------|--------|--------|--------|--------|--------|--------|--------|
G#|--------|--------|--------|--------|--------|--------|--------|--------|--------|
D#|--------|--------|--------|--------|--------|--------|--------|--------|--------|


D#|--------|--------|--------|--------|--------|--------|--------|--------|--------|
A#|--------|--------|--------|--------|--------|--------|--------|--------|--------|
F#|--------|--------|--------|--------|--------|--------|--------|--------|--------|
C#|--------|--------|--------|--------|--------|--------|--------|--------|--------|
G#|--------|--------|--------|--------|--------|--------|--------|--------|--------|
D#|--------|--------|--------|--------|--------|--------|--------|--------|--------|


D#|--------|--------|--------|--------|--------|--------|--------|--------|--------|
A#|--------|--------|--------|--------|--------|--------|--------|--------|--------|
F#|--------|--------|--------|--------|--------|--------|--------|--------|--------|
C#|--------|--------|--------|--------|--------|--------|--------|--------|--------|
G#|--------|--------|--------|--------|--------|--------|--------|--------|--------|
D#|--------|--------|--------|--------|--------|--------|--------|--------|--------|


D#|--------|--------|--------|--------|--------|--------|--------|--------|--------|
A#|--------|--------|--------|--------|--------|--------|--------|--------|--------|
F#|--------|--------|--------|--------|--------|--------|--------|--------|--------|
C#|--------|--------|--------|--------|--------|--------|--------|--------|--------|
G#|--------|--------|--------|--------|--------|--------|--------|--------|--------|
D#|--------|--------|--------|--------|--------|--------|--------|--------|--------|


D#|--------|--------|--------|-----------------|--------------------|--------|--------|
A#|--------|--------|--------|------------8----|-8-----8----8---7---|-7------|-7------|
F#|--------|--------|--------|-----------------|--------------------|--------|--------|
C#|--------|--------|--------|-----------------|--------------------|--------|--------|
G#|--------|--------|--------|-----------------|--------------------|--------|--------|
D#|--------|--------|--------|-----------------|--------------------|--------|--------|


D#|--------|-------------|---------------------|--------|---------------------|-----------------|
A#|-17-----|-17----17----|------7----5----5----|-3------|-8----7----7----7----|-7-----7----7----|
F#|--------|-------------|---------------------|--------|---------------------|-----------------|
C#|--------|-------------|---------------------|--------|---------------------|-----------------|
G#|--------|-------------|---------------------|--------|---------------------|-----------------|
D#|--------|-------------|---------------------|--------|---------------------|-----------------|


D#|-----------------|--------|-----------------|-----------------|---------------------|
A#|-7-----7----5----|-5------|-5----5----5-----|-3-----3----3----|-2----2----2---------|
F#|-----------------|--------|-----------------|-----------------|----------------2----|
C#|-----------------|--------|-----------------|-----------------|---------------------|
G#|-----------------|--------|-----------------|-----------------|---------------------|
D#|-----------------|--------|-----------------|-----------------|---------------------|


D#|--------|-12----------|--------|-------------|-------------|-12----------|--------|
A#|--------|-12----------|--------|-14----12----|-12----12----|-12----------|--------|
F#|-4------|-------12----|--------|-------------|-------------|-------------|--------|
C#|--------|-------------|-12-----|-------------|-------------|-------------|--------|
G#|--------|-------------|--------|-------------|-------------|-------------|--------|
D#|--------|-------------|--------|-------------|-------------|-------------|--------|


D#|--------|--------|--------|--------|--------|--------|--------|--------|--------|
A#|--------|--------|--------|--------|--------|--------|--------|--------|--------|
F#|--------|--------|--------|--------|--------|--------|--------|--------|--------|
C#|--------|--------|--------|--------|--------|--------|--------|--------|--------|
G#|--------|--------|--------|--------|--------|--------|--------|--------|--------|
D#|--------|--------|--------|--------|--------|--------|--------|--------|--------|


D#|--------|--------|--------|--------|--------|--------|--------|--------|--------|
A#|--------|--------|--------|--------|--------|--------|--------|--------|--------|
F#|--------|--------|--------|--------|--------|--------|--------|--------|--------|
C#|--------|--------|--------|--------|--------|--------|--------|--------|--------|
G#|--------|--------|--------|--------|--------|--------|--------|--------|--------|
D#|--------|--------|--------|--------|--------|--------|--------|--------|--------|


D#|--------|--------|--------|--------|--------|--------|--------|--------|--------|
A#|--------|--------|--------|--------|--------|--------|--------|--------|--------|
F#|--------|--------|--------|--------|--------|--------|--------|--------|--------|
C#|--------|--------|--------|--------|--------|--------|--------|--------|--------|
G#|--------|--------|--------|--------|--------|--------|--------|--------|--------|
D#|--------|--------|--------|--------|--------|--------|--------|--------|--------|


D#|--------|--------|--------|--------|--------|--------|--------|--------|--------|
A#|--------|--------|--------|--------|--------|--------|--------|--------|--------|
F#|--------|--------|--------|--------|--------|--------|--------|--------|--------|
C#|--------|--------|--------|--------|--------|--------|--------|--------|--------|
G#|--------|--------|--------|--------|--------|--------|--------|--------|--------|
D#|--------|--------|--------|--------|--------|--------|--------|--------|--------|


D#|--------|--------|--------|--------|--------|--------|--------|--------|--------|
A#|--------|--------|--------|--------|--------|--------|--------|--------|--------|
F#|--------|--------|--------|--------|--------|--------|--------|--------|--------|
C#|--------|--------|--------|--------|--------|--------|--------|--------|--------|
G#|--------|--------|--------|--------|--------|--------|--------|--------|--------|
D#|--------|--------|--------|--------|--------|--------|--------|--------|--------|


D#|--------|
A#|--------|
F#|--------|
C#|--------|
G#|--------|
D#|--------|





Track 5: Untitled

F#|------14---14----|-14--12--12--14--14----|------14---14----|-14--12--12--14--14----|
C#|-----------------|-----------------------|-----------------|-----------------------|
G#|-12--------------|-----------------------|-0---------------|-----------------------|
D#|-----------------|-----------------------|-----------------|-----------------------|


F#|------14---14----|-14--12--12--14--14----|------14---14----|-14--12--12--14--14--------|
C#|-----------------|-----------------------|-----------------|---------------------------|
G#|-12--------------|-----------------------|-0---------------|----------------------14---|
D#|-----------------|-----------------------|-----------------|---------------------------|


F#|---------------------------------|---------------------------------|-----------------------------7---|
C#|---------------------------------|---------------------------------|---------------------------------|
G#|-7---7---7---7---7---7---7---7---|-7---7---7---7---7---7---7---0---|-0---0---0---0---0---0---0-------|
D#|---------------------------------|---------------------------------|---------------------------------|


F#|-----7-------6---6---7---6-------|---------------------------------|---------------------------------|
C#|-----------------------------7---|---------------------------------|---------------------------------|
G#|-5-------5-----------------------|-7---7---7---7---7---7---7---7---|-7---7---7---7---7---7---7---0---|
D#|---------------------------------|---------------------------------|---------------------------------|


F#|-----------------------------7---|-----7-------6---6---7---6-------|-----------------|
C#|---------------------------------|-----------------------------7---|-7-----5---5-----|
G#|-0---0---0---0---0---0---0-------|-5-------5-----------------------|-0-----0---0-----|
D#|---------------------------------|---------------------------------|-----------------|


F#|------------------------|---------------------------------|---------------------------------|
C#|-7-----5---5---7---5----|---------------------------------|---------------------------------|
G#|-0-----0---0---0---0----|-7---7---7---7---7---7---7---7---|-7---7---7---7---7---7---7---0---|
D#|------------------------|---------------------------------|---------------------------------|


F#|-----------------------------7---|-----7-------6---6---7---6-------|---------------------------------|
C#|---------------------------------|-----------------------------7---|---------------------------------|
G#|-0---0---0---0---0---0---0-------|-5-------5-----------------------|-7---7---7---7---7---7---7---7---|
D#|---------------------------------|---------------------------------|---------------------------------|


F#|---------------------------------|---------------------------------|------------------------------|
C#|---------------------------------|---------------------------------|------------------------------|
G#|-7---7---7---7---7---7---7---7---|-0---0---0---0---0---0---0---0---|-5---5---5---4---4---5---4----|
D#|---------------------------------|---------------------------------|------------------------------|


F#|-14----12--12----|-14----12--12--14--12------|-----------------|-----------------|
C#|-----------------|-----------------------0---|-----------------|-----------------|
G#|-----------------|-0-----0---0---0---0-------|-14----14---14---|-12----12---12---|
D#|-----------------|---------------------------|-----------------|-----------------|


F#|-----------------|------------------------|---------------------|---------------------|
C#|-----------------|------------------------|---------------------|---------------------|
G#|-7-----7-----7---|-2-----2---2----2---14--|-14---14---14---14---|-12---12---12---12---|
D#|-----------------|------------------------|---------------------|---------------------|


F#|---------------------|--------------------|------16---16--14--16---|------14---14--12--14---|
C#|---------------------|--------------------|------------------------|------------------------|
G#|-7----7----7----7----|---------------2----|-14---------------------|-12---------------------|
D#|---------------------|-7-----7------------|------------------------|------------------------|


F#|------9----9---7---9----|--------|------16----------16--16--16--|------14----------14--14--14--|
C#|------------------------|--------|------------------------------|------------------------------|
G#|-7----------------------|--------|-14-------12--14--------------|-12-------10--12--------------|
D#|------------------------|-7------|------------------------------|------------------------------|


F#|------9---9-------9---9-------|------------------------------|---------------------------------|
C#|------------------------------|------------------9---9---0---|---------------------------------|
G#|-7--------0---7-------7---5---|----------0-------------------|-7---7---7---7---7---7---7---7---|
D#|------------------------------|-7----7-------7---------------|---------------------------------|


F#|---------------------------------|-----------------------------7---|-----7-------6---6---7---6-------|
C#|---------------------------------|---------------------------------|-----------------------------7---|
G#|-7---7---7---7---7---7---7---0---|-0---0---0---0---0---0---0-------|-5-------5-----------------------|
D#|---------------------------------|---------------------------------|---------------------------------|


F#|---------------------------------|---------------------------------|-----------------------------7---|
C#|---------------------------------|---------------------------------|---------------------------------|
G#|-7---7---7---7---7---7---7---7---|-7---7---7---7---7---7---7---0---|-0---0---0---0---0---0---0-------|
D#|---------------------------------|---------------------------------|---------------------------------|


F#|-----7-------6---6---7---6-------|-----------------|------------------------|---------------------------------|
C#|-----------------------------7---|-7-----5---5-----|-7-----5---5---7---5----|---------------------------------|
G#|-5-------5-----------------------|-0-----0---0-----|-0-----0---0---0---0----|-7---7---7---7---7---7---7---7---|
D#|---------------------------------|-----------------|------------------------|---------------------------------|


F#|---------------------------------|-----------------------------7---|-----7-------6---6---7---6-------|
C#|---------------------------------|---------------------------------|-----------------------------7---|
G#|-7---7---7---7---7---7---7---0---|-0---0---0---0---0---0---0-------|-5-------5-----------------------|
D#|---------------------------------|---------------------------------|---------------------------------|


F#|---------------------------------|---------------------------------|---------------------------------|
C#|---------------------------------|---------------------------------|---------------------------------|
G#|-7---7---7---7---7---7---7---7---|-7---7---7---7---7---7---7---7---|-0---0---0---0---0---0---0---0---|
D#|---------------------------------|---------------------------------|---------------------------------|


F#|------------------------------|-14----12--12----|-14----12--12--14--12------|-----------------|
C#|------------------------------|-----------------|-----------------------0---|-----------------|
G#|-5---5---5---4---4---5---4----|-----------------|-0-----0---0---0---0-------|-14----14----14--|
D#|------------------------------|-----------------|---------------------------|-----------------|


F#|-----------------|-----------------|--------|------------------------|--------------------|
C#|-----------------|-----------------|--------|------------------------|--------------------|
G#|-12----12--------|-7-----7----7----|-2------|-14---14---14---14--2---|-12----12--12-------|
D#|-----------------|-----------------|--------|------------------------|--------------------|


F#|--------------------|-----------------|-------16--16--14--16---|-------14--14--12--14---|
C#|--------------------|-----------------|------------------------|------------------------|
G#|-7-----7---7----2---|-2-----2----2----|-14---------------------|-12---------------------|
D#|--------------------|-----------------|------------------------|------------------------|


F#|-------9---9---7---9----|--------------------|-------16--16--14--16---|-------14--14--12--14---|
C#|------------------------|--------------------|------------------------|------------------------|
G#|-7----------------------|-2-----2---2----14--|-14---------------------|-12---------------------|
D#|------------------------|--------------------|------------------------|------------------------|


F#|-------9---9---7---9----|---------------------------|--------------------|-----------------|
C#|------------------------|---------------------------|--------------------|-----------------|
G#|-7----------------------|-------14--14--12--17--14--|-14----14--14--2----|-12----12--------|
D#|------------------------|-7-------------------------|--------------------|-----------------|


F#|-----------------|-----------------|----------16------16----------|------------------------------|
C#|-----------------|-----------------|------------------------------|------------------------------|
G#|-7-----7----7----|-2-----2----2----|-14---14------14------14--14--|-12---12--12--12--12--12--7---|
D#|-----------------|-----------------|------------------------------|------------------------------|


F#|------------------------------|------------------------------|---------------------------------|
C#|------------------------------|------------------------------|---------------------------------|
G#|-7----7---7---7---7---7---2---|-2----2---2---2---2---2---2---|-2---2---2---2---2---2---2---2---|
D#|------------------------------|------------------------------|---------------------------------|


F#|---------------------------------|---------------------------------|---------------------------------|
C#|---------------------------------|---------------------------------|---------------------------------|
G#|-0---0---0---0---0---0---0---0---|-7---7---7---7---7---7---7---14--|-14--14--14--14--14--14--14--14--|
D#|---------------------------------|---------------------------------|---------------------------------|


F#|---------------------------------|---------------------------------|---------------------------------|
C#|---------------------------------|---------------------------------|---------------------------------|
G#|-2---2---2---2---2---2---2---2---|-0---0---0---0---0---0---0---0---|-7---7---7---7---7---7---7---14--|
D#|---------------------------------|---------------------------------|---------------------------------|


F#|---------------------------------|------------------------|---------------------------------|
C#|---------------------------------|------------------------|---------------------------------|
G#|-14--14--14--14--14--14--14--14--|-14----14--14--14--14---|-12--12--12--12--12--12--12--12--|
D#|---------------------------------|------------------------|---------------------------------|


F#|---------------------------------|---------------------------------|---------------------------------|
C#|---------------------------------|---------------------------------|---------------------------------|
G#|-7---7---7---7---7---7---7---7---|---------------------------------|-14--14--14--14--14--14--14--14--|
D#|---------------------------------|-7---7---7---7---7---7---7---7---|---------------------------------|


F#|---------------------------------|---------------------------------|---------------------------------|
C#|---------------------------------|---------------------------------|---------------------------------|
G#|-12--12--12--12--12--12--12--12--|-7---7---7---7---7---7---7---7---|---------------------------------|
D#|---------------------------------|---------------------------------|-7---7---7---7---7---7---7---7---|


F#|-------------16--16--16--16---|-------------14---------------|-------------9---9---9---9----|
C#|-----16-----------------------|-----14--------------14-------|-----9------------------------|
G#|-14---------------------------|-12----------------------12---|-7----------------------------|
D#|------------------------------|------------------------------|------------------------------|


F#|------------------------------|-----------------------|-----------------------|
C#|------------------------------|-------------9---------|-7-----------10--------|
G#|------------------------------|-----------------------|-----------------------|
D#|-7---7---7---7---7---7---7----|-7---7-----------------|-----8---8-------------|


F#|-----9-------9---11--------|------------------------------|---------------------------|
C#|---------------------------|-7---9------------------------|-----9-------11--11--------|
G#|-7-------------------------|------------------------------|---------------------------|
D#|---------------------------|-------------7---7------------|-7-----------9---9---------|


F#|---------------------------|-----9-------7-------9--------|---------------------------|
C#|-----7-------5---5----5----|-------------------------9----|---------------------------|
G#|---------------------------|-7----------------------------|---------------------------|
D#|-5-------------------------|------------------------------|-7---7---7---7---7---------|


F#|-----16------14-------14---|-----14------12--12--------|-----9--------9-------9-------|
C#|---------------------------|---------------------------|------------------------------|
G#|-14------------------------|-12----------12--12--------|-7----------------------------|
D#|---------------------------|---------------------------|------------------------------|


F#|-----------------------|-------------|--------|--------|------------------------|
C#|-----------------------|-------------|--------|--------|------------------------|
G#|-----------------------|-------------|--------|--------|-----------14-14--------|
D#|-7---7---7---7---------|-------------|--------|--------|------------------------|


F#|---------------------------------|---------------------------------|---------------------------------|
C#|---------------------------------|---------------------------------|---------------------------------|
G#|---------------------------------|-0---0---0---0---0---0---0---0---|-7---7---7---7---7---7---7---14--|
D#|-7---7---7---7---7---7---7---7---|---------------------------------|---------------------------------|


F#|---------------------------------|---------------------------------|---------------------------------|
C#|---------------------------------|---------------------------------|---------------------------------|
G#|-14--14--14--14--14--14--14--14--|-14--14--14--14--14--14--14--12--|-12--12--12--12--12--12--12--12--|
D#|---------------------------------|---------------------------------|---------------------------------|


F#|---------------------------------|---------------------------------|---------------------------------|
C#|---------------------------------|---------------------------------|---------------------------------|
G#|-7---7---7---7---7---7---7---7---|-2---2---2---2---2---2---2---2---|-2---2---2---2---2---2---2---2---|
D#|---------------------------------|---------------------------------|---------------------------------|


F#|---------------------------------|---------------------------------|---------------------------------|
C#|---------------------------------|---------------------------------|---------------------------------|
G#|-0---0---0---0---0---0---0---0---|-7---7---7---7---7---7---7---14--|-14--14--14--14--14--14--14--14--|
D#|---------------------------------|---------------------------------|---------------------------------|


F#|---------------------------------|---------------------------------|---------------------------------|
C#|---------------------------------|---------------------------------|---------------------------------|
G#|-14--14--14--14--14--14--14--12--|-12--12--12--12--12--12--12--12--|-7---7---7---7---7---7---7---7---|
D#|---------------------------------|---------------------------------|---------------------------------|


F#|-----------------------------------|---------------------------------|---------------------------------|
C#|-----------------------------------|---------------------------------|---------------------------------|
G#|-------------------------7---14-14-|-14--14--14--14--14--14--14--12--|-12--12--12------12--12--12--7---|
D#|-7---7---7---7---7---7-------------|---------------------------------|-------------12------------------|


F#|-----------------------------------|---------------------------------------|---------------------------------|
C#|-----------------------------------|---------------------------------------|---------------------------------|
G#|-7---7---7---7---7---7---7---7--7--|-----------------------------------0---|-2---2---2---2---2---2---2---2---|
D#|-----------------------------------|-7---7--7--7---7--7--7---7--7--7-------|---------------------------------|


F#|---------------------------------|---------------------------------|---------------------------------|
C#|---------------------------------|---------------------------------|---------16------16--------------|
G#|-0---0---0---0---0---0---0---0---|-7---7---7---7---7---7---7---14--|-14--14------14------14--14--14--|
D#|---------------------------------|---------------------------------|---------------------------------|


F#|------------------------|-------------14------------------|---------------------------------|
C#|------------------------|-----14--------------------------|---------------------------------|
G#|-14---14--14--14---14---|-12------------------12--12--12--|-7---7---7---7---7---7---7---7---|
D#|------------------------|---------------------------------|---------------------------------|


F#|---------------------------------|
C#|---------------------------------|
G#|-2---2---2---2---2---2---2---2---|
D#|---------------------------------|