Menu:

 

Search:

 

u2 - discotheque:

 



Title: Discotheque
Artist: 
Album: Pop
Author: Bono, The Edge, Adam Clayton & Larry Mullen


Track 1: Distortion

E|-------------------------------------|-------------------------------------|-------------------------------------|
B|-------------------------------------|-------------------------------------|-------------------------------------|
G|-------------------------------------|-------------------------------------|-------------------------------------|
D|-------------------------------------|-------------------------------------|-------------------------------------|
A|-------------------------------------|-------------------------------------|-------------------------------------|
E|-7---7---5--7---5--7---7---5--7---5--|-7---7---5--7---5--7---7---5--7---5--|-7---7---5--7---5--7---7---5--7---5--|


E|-------------------------------------|-------------------------------------|-------------------------------------|
B|-------------------------------------|-------------------------------------|-------------------------------------|
G|-------------------------------------|-------------------------------------|-------------------------------------|
D|-------------------------------------|-------------------------------------|-------------------------------------|
A|-------------------------------------|-------------------------------------|-------------------------------------|
E|-7---7---5--7---5--7---7---5--7---5--|-7---7---5--7---5--7---7---5--7---5--|-7---7---5--7---5--7---7---5--7---5--|


E|-------------------------------------|-------------------------------------|-------------------------------------|
B|-------------------------------------|-------------------------------------|-------------------------------------|
G|-------------------------------------|-------------------------------------|-------------------------------------|
D|-------------------------------------|-------------------------------------|-------------------------------------|
A|-------------------------------------|-------------------------------------|-------------------------------------|
E|-7---7---5--7---5--7---7---5--7---5--|-7---7---5--7---5--7---7---5--7---5--|-7---7---5--7---5--7---7---5--7---5--|


E|-------------------------------------|-------------------------------------|-------------------------------------|
B|-------------------------------------|-------------------------------------|-------------------------------------|
G|-------------------------------------|-------------------------------------|-------------------------------------|
D|-------------------------------------|-------------------------------------|-------------------------------------|
A|-------------------------------------|-------------------------------------|-------------------------------------|
E|-7---7---5--7---5--7---7---5--7---5--|-7---7---5--7---5--7---7---5--7---5--|-7---7---5--7---5--7---7---5--7---5--|


E|-------------------------------------|-------------------------------------|-------------------------------------|
B|-------------------------------------|-------------------------------------|-------------------------------------|
G|-------------------------------------|-------------------------------------|-------------------------------------|
D|-------------------------------------|-------------------------------------|-------------------------------------|
A|-------------------------------------|-------------------------------------|-------------------------------------|
E|-7---7---5--7---5--7---7---5--7---5--|-7---7---5--7---5--7---7---5--7---5--|-7---7---5--7---5--7---7---5--7---5--|


E|-------------------------------------|-------------------------------------|-------------------------------------|
B|-------------------------------------|-------------------------------------|-------------------------------------|
G|-------------------------------------|-------------------------------------|-------------------------------------|
D|-------------------------------------|-------------------------------------|-------------------------------------|
A|-------------------------------------|-------------------------------------|-------------------------------------|
E|-7---7---5--7---5--7---7---5--7---5--|-7---7---5--7---5--7---7---5--7---5--|-7---7---5--7---5--7---7---5--7---5--|


E|-------------------------------------|-------------------------------------|-------------------------------------|
B|-------------------------------------|-------------------------------------|-------------------------------------|
G|-------------------------------------|-------------------------------------|-------------------------------------|
D|-------------------------------------|-------------------------------------|-------------------------------------|
A|-------------------------------------|-------------------------------------|-------------------------------------|
E|-7---7---5--7---5--7---7---5--7---5--|-7---7---5--7---5--7---7---5--7---5--|-7---7---5--7---5--7---7---5--7---5--|


E|-------------------------------------|-------------------------------------|-------------------------------------|
B|-------------------------------------|-------------------------------------|-------------------------------------|
G|-------------------------------------|-------------------------------------|-------------------------------------|
D|-------------------------------------|-------------------------------------|-------------------------------------|
A|-------------------------------------|-------------------------------------|-------------------------------------|
E|-7---7---5--7---5--7---7---5--7---5--|-7---7---5--7---5--7---7---5--7---5--|-7---7---5--7---5--7---7---5--7---5--|


E|-12-12-12-12-12-12-12-12-12-12-12-12------|-12-12-12-12-12-12-12-12-12-12-12-12------|
B|-12-12-12-12-12-12-12-12-12-12-12-12------|-12-12-12-12-12-12-12-12-12-12-12-12------|
G|-12-12-12-12-12-12-12-12-12-12-12-12------|-12-12-12-12-12-12-12-12-12-12-12-12------|
D|-12-12-12-12-12-12-12-12-12-12-12-12------|-12-12-12-12-12-12-12-12-12-12-12-12------|
A|-12-12-12-12-12-12-12-12-12-12-12-12------|-12-12-12-12-12-12-12-12-12-12-12-12------|
E|-12-12-12-12-12-12-12-12-12-12-12-12------|-12-12-12-12-12-12-12-12-12-12-12-12------|


E|-12-12-12-12-12-12-12-12-12-12-12-12------|-12-12-12-12-12-12-12-12-12-12-12-12------|
B|-12-12-12-12-12-12-12-12-12-12-12-12------|-12-12-12-12-12-12-12-12-12-12-12-12------|
G|-12-12-12-12-12-12-12-12-12-12-12-12------|-12-12-12-12-12-12-12-12-12-12-12-12------|
D|-12-12-12-12-12-12-12-12-12-12-12-12------|-12-12-12-12-12-12-12-12-12-12-12-12------|
A|-12-12-12-12-12-12-12-12-12-12-12-12------|-12-12-12-12-12-12-12-12-12-12-12-12------|
E|-12-12-12-12-12-12-12-12-12-12-12-12------|-12-12-12-12-12-12-12-12-12-12-12-12------|


E|-12-12-12-12-12-12-12-12-12-12-12-12------|-12-12-12-12-12-12-12-12-12-12-12-12------|
B|-12-12-12-12-12-12-12-12-12-12-12-12------|-12-12-12-12-12-12-12-12-12-12-12-12------|
G|-12-12-12-12-12-12-12-12-12-12-12-12------|-12-12-12-12-12-12-12-12-12-12-12-12------|
D|-12-12-12-12-12-12-12-12-12-12-12-12------|-12-12-12-12-12-12-12-12-12-12-12-12------|
A|-12-12-12-12-12-12-12-12-12-12-12-12------|-12-12-12-12-12-12-12-12-12-12-12-12------|
E|-12-12-12-12-12-12-12-12-12-12-12-12------|-12-12-12-12-12-12-12-12-12-12-12-12------|


E|-12-12-12-12-12-12-12-12-12-12-12-12------|-12-12-12-12-12-12-12-12-12-12-12-12------|
B|-12-12-12-12-12-12-12-12-12-12-12-12------|-12-12-12-12-12-12-12-12-12-12-12-12------|
G|-12-12-12-12-12-12-12-12-12-12-12-12------|-12-12-12-12-12-12-12-12-12-12-12-12------|
D|-12-12-12-12-12-12-12-12-12-12-12-12------|-12-12-12-12-12-12-12-12-12-12-12-12------|
A|-12-12-12-12-12-12-12-12-12-12-12-12------|-12-12-12-12-12-12-12-12-12-12-12-12------|
E|-12-12-12-12-12-12-12-12-12-12-12-12------|-12-12-12-12-12-12-12-12-12-12-12-12------|


E|--------|--------|--------|--------|--------|--------|--------|--------|--------|
B|--------|--------|--------|--------|--------|--------|--------|--------|--------|
G|--------|--------|--------|--------|--------|--------|--------|--------|--------|
D|--------|--------|--------|--------|--------|--------|--------|--------|--------|
A|--------|--------|--------|--------|--------|--------|--------|--------|--------|
E|--------|--------|--------|--------|--------|--------|--------|--------|--------|


E|--------|--------|--------|--------|--------|--------|--------|--------|--------|
B|--------|--------|--------|--------|--------|--------|--------|--------|--------|
G|--------|--------|--------|--------|--------|--------|--------|--------|--------|
D|--------|--------|--------|--------|--------|--------|--------|--------|--------|
A|--------|--------|--------|--------|--------|--------|--------|--------|--------|
E|--------|--------|--------|--------|--------|--------|--------|--------|--------|


E|--------|------------------------------|------------------|------------------------------|
B|--------|------------------------------|------------------|------------------------------|
G|--------|----------9---9---9---9---7---|-7-----6-----6----|----------9---9---9---9---7---|
D|--------|------------------------------|------------------|------------------------------|
A|--------|------------------------------|------------------|------------------------------|
E|--------|------------------------------|------------------|------------------------------|


E|------------------|------------------------------|------------------|------------------------------|
B|------------------|------------------------------|------------------|------------------------------|
G|-7-----6-----6----|----------9---9---9---9---7---|-7-----6-----6----|----------9---9---9---9---7---|
D|------------------|------------------------------|------------------|------------------------------|
A|------------------|------------------------------|------------------|------------------------------|
E|------------------|------------------------------|------------------|------------------------------|


E|------------------|--------|--------|--------|--------|--------|--------|--------|
B|------------------|--------|--------|--------|--------|--------|--------|--------|
G|-7-----6-----6----|--------|--------|--------|--------|--------|--------|--------|
D|------------------|--------|--------|--------|--------|--------|--------|--------|
A|------------------|--------|--------|--------|--------|--------|--------|--------|
E|------------------|--------|--------|--------|--------|--------|--------|--------|


E|---------------------------------|-----------------------------------|---------------------------------|
B|---------------------------------|-----------------------------------|---------------------------------|
G|---------------------------------|-----------------------------------|---------------------------------|
D|---------------------------------|-----------------------------------|---------------------------------|
A|-5---------------7---------------|-5---------------------------------|-5---------------7---------------|
E|-----7---5--7--------7---5--7----|-----7---5--7---7--7---7---5--7----|-----7---5--7--------7---5--7----|


E|-----------------------------------|---------------------------------|-----------------------------------|
B|-----------------------------------|---------------------------------|-----------------------------------|
G|-----------------------------------|---------------------------------|-----------------------------------|
D|-----------------------------------|---------------------------------|-----------------------------------|
A|-5---------------------------------|-5---------------7---------------|-5---------------------------------|
E|-----7---5--7---7--7---7---5--7----|-----7---5--7--------7---5--7----|-----7---5--7---7--7---7---5--7----|


E|---------------------------------|-----------------------------------|--------|--------|
B|---------------------------------|-----------------------------------|--------|--------|
G|---------------------------------|-----------------------------------|--------|--------|
D|---------------------------------|-----------------------------------|--------|--------|
A|-5---------------7---------------|-5---------------------------------|--------|--------|
E|-----7---5--7--------7---5--7----|-----7---5--7---7--7---7---5--7----|--------|--------|


E|--------|--------|--------|--------|--------|--------|--------|--------|--------|
B|--------|--------|--------|--------|--------|--------|--------|--------|--------|
G|--------|--------|--------|--------|--------|--------|--------|--------|--------|
D|--------|--------|--------|--------|--------|--------|--------|--------|--------|
A|--------|--------|--------|--------|--------|--------|--------|--------|--------|
E|--------|--------|--------|--------|--------|--------|--------|--------|--------|


E|--------|--------|--------|--------|--------|--------|--------|--------|--------|
B|--------|--------|--------|--------|--------|--------|--------|--------|--------|
G|--------|--------|--------|--------|--------|--------|--------|--------|--------|
D|--------|--------|--------|--------|--------|--------|--------|--------|--------|
A|--------|--------|--------|--------|--------|--------|--------|--------|--------|
E|--------|--------|--------|--------|--------|--------|--------|--------|--------|


E|--------|--------|--------|--------|--------|--------|--------|------------------------------|
B|--------|--------|--------|--------|--------|--------|--------|------------------------------|
G|--------|--------|--------|--------|--------|--------|--------|----------9---9---9---9---7---|
D|--------|--------|--------|--------|--------|--------|--------|------------------------------|
A|--------|--------|--------|--------|--------|--------|--------|------------------------------|
E|--------|--------|--------|--------|--------|--------|--------|------------------------------|


E|------------------|------------------------------|------------------|------------------------------|
B|------------------|------------------------------|------------------|------------------------------|
G|-7-----6-----6----|----------9---9---9---9---7---|-7-----6-----6----|----------9---9---9---9---7---|
D|------------------|------------------------------|------------------|------------------------------|
A|------------------|------------------------------|------------------|------------------------------|
E|------------------|------------------------------|------------------|------------------------------|


E|------------------|------------------------------|------------------|--------|--------|
B|------------------|------------------------------|------------------|--------|--------|
G|-7-----6-----6----|----------9---9---9---9---7---|-7-----6-----6----|--------|--------|
D|------------------|------------------------------|------------------|--------|--------|
A|------------------|------------------------------|------------------|--------|--------|
E|------------------|------------------------------|------------------|--------|--------|


E|--------|--------|--------|--------|--------|--------|--------|--------|--------|
B|--------|--------|--------|--------|--------|--------|--------|--------|--------|
G|--------|--------|--------|--------|--------|--------|--------|--------|--------|
D|--------|--------|--------|--------|--------|--------|--------|--------|--------|
A|--------|--------|--------|--------|--------|--------|--------|--------|--------|
E|--------|--------|--------|--------|--------|--------|--------|--------|--------|


E|--------|--------|--------|--------|--------|--------|--------|--------|--------|
B|--------|--------|--------|--------|--------|--------|--------|--------|--------|
G|--------|--------|--------|--------|--------|--------|--------|--------|--------|
D|--------|--------|--------|--------|--------|--------|--------|--------|--------|
A|--------|--------|--------|--------|--------|--------|--------|--------|--------|
E|--------|--------|--------|--------|--------|--------|--------|--------|--------|


E|--------|-------------------------------------|-------------------------------------|
B|--------|-------------------------------------|-------------------------------------|
G|--------|-------------------------------------|-------------------------------------|
D|--------|-------------------------------------|-------------------------------------|
A|--------|-9---9---9---9--9---9--9---9--9---9--|-9---9---9---9--9---9--9---9--9---9--|
E|--------|-7---7---7---7--7---7--7---7--7---7--|-7---7---7---7--7---7--7---7--7---7--|


E|-------------------------------------|-------------------------------------|-------------------------------------|
B|-------------------------------------|-------------------------------------|-------------------------------------|
G|-------------------------------------|-------------------------------------|-------------------------------------|
D|-------------------------------------|-------------------------------------|-------------------------------------|
A|-9---9---9---9--9---9--9---9--9---9--|-9---9---9---9--9---9--9---9--9---9--|-------------------------------------|
E|-7---7---7---7--7---7--7---7--7---7--|-7---7---7---7--7---7--7---7--7---7--|-7---7---5--7---5--7---7---5--7---5--|


E|-------------------------------------|-------------------------------------|-------------------------------------|
B|-------------------------------------|-------------------------------------|-------------------------------------|
G|-------------------------------------|-------------------------------------|-------------------------------------|
D|-------------------------------------|-------------------------------------|-------------------------------------|
A|-------------------------------------|-------------------------------------|-------------------------------------|
E|-7---7---5--7---5--7---7---5--7---5--|-7---7---5--7---5--7---7---5--7---5--|-7---7---5--7---5--7---7---5--7---5--|


E|-------------------------------------|-------------------------------------|-------------------------------------|
B|-------------------------------------|-------------------------------------|-------------------------------------|
G|-------------------------------------|-------------------------------------|-------------------------------------|
D|-------------------------------------|-------------------------------------|-------------------------------------|
A|-------------------------------------|-------------------------------------|-------------------------------------|
E|-7---7---5--7---5--7---7---5--7---5--|-7---7---5--7---5--7---7---5--7---5--|-7---7---5--7---5--7---7---5--7---5--|


E|-------------------------------------|-------------------------------------|-------------------------------------|
B|-------------------------------------|-------------------------------------|-------------------------------------|
G|-------------------------------------|-------------------------------------|-------------------------------------|
D|-------------------------------------|-------------------------------------|-------------------------------------|
A|-------------------------------------|-------------------------------------|-------------------------------------|
E|-7---7---5--7---5--7---7---5--7---5--|-7---7---5--7---5--7---7---5--7---5--|-7---7---5--7---5--7---7---5--7---5--|


E|-------------------------------------|-------------------------------------|-------------------------------------|
B|-------------------------------------|-------------------------------------|-------------------------------------|
G|-------------------------------------|-------------------------------------|-------------------------------------|
D|-------------------------------------|-------------------------------------|-------------------------------------|
A|-------------------------------------|-------------------------------------|-------------------------------------|
E|-7---7---5--7---5--7---7---5--7---5--|-7---7---5--7---5--7---7---5--7---5--|-7---7---5--7---5--7---7---5--7---5--|


E|-------------------------------------|-------------------------------------|-------------------------------------|
B|-------------------------------------|-------------------------------------|-------------------------------------|
G|-------------------------------------|-------------------------------------|-------------------------------------|
D|-------------------------------------|-------------------------------------|-------------------------------------|
A|-------------------------------------|-------------------------------------|-------------------------------------|
E|-7---7---5--7---5--7---7---5--7---5--|-7---7---5--7---5--7---7---5--7---5--|-7---7---5--7---5--7---7---5--7---5--|


E|-------------------------------------|-------------------------------------|-------------------------------------|
B|-------------------------------------|-------------------------------------|-------------------------------------|
G|-------------------------------------|-------------------------------------|-------------------------------------|
D|-------------------------------------|-------------------------------------|-------------------------------------|
A|-------------------------------------|-------------------------------------|-------------------------------------|
E|-7---7---5--7---5--7---7---5--7---5--|-7---7---5--7---5--7---7---5--7---5--|-7---7---5--7---5--7---7---5--7---5--|


E|-------------------------------------|
B|-------------------------------------|
G|-------------------------------------|
D|-------------------------------------|
A|-------------------------------------|
E|-7---7---5--7---5--7---7---5--7---5--|





Track 2: Overdrive

E|--------|--------|--------|--------|--------|--------|--------|--------|--------|
B|--------|--------|--------|--------|--------|--------|--------|--------|--------|
G|--------|--------|--------|--------|--------|--------|--------|--------|--------|
D|--------|--------|--------|--------|--------|--------|--------|--------|--------|
A|--------|--------|--------|--------|--------|--------|--------|--------|--------|
E|--------|--------|--------|--------|--------|--------|--------|--------|--------|


E|--------|--------|--------|--------|--------|--------|--------|--------|--------|
B|--------|--------|--------|--------|--------|--------|--------|--------|--------|
G|--------|--------|--------|--------|--------|--------|--------|--------|--------|
D|--------|--------|--------|--------|--------|--------|--------|--------|--------|
A|--------|--------|--------|--------|--------|--------|--------|--------|--------|
E|--------|--------|--------|--------|--------|--------|--------|--------|--------|


E|--------|--------|--------|--------|--------|--------|--------|--------|--------|
B|--------|--------|--------|--------|--------|--------|--------|--------|--------|
G|--------|--------|--------|--------|--------|--------|--------|--------|--------|
D|--------|--------|--------|--------|--------|--------|--------|--------|--------|
A|--------|--------|--------|--------|--------|--------|--------|--------|--------|
E|--------|--------|--------|--------|--------|--------|--------|--------|--------|


E|--------|--------|--------|--------|--------|---------------------------------|-----------------------------------|
B|--------|--------|--------|--------|--------|---------------------------------|-----------------------------------|
G|--------|--------|--------|--------|--------|---------------------------------|-----------------------------------|
D|--------|--------|--------|--------|--------|---------------------------------|-----------------------------------|
A|--------|--------|--------|--------|--------|-5---------------7---------------|-5---------------------------------|
E|--------|--------|--------|--------|--------|-----7---5--7--------7---5--7----|-----7---5--7---7--7---7---5--7----|


E|---------------------------------|-----------------------------------|---------------------------------|
B|---------------------------------|-----------------------------------|---------------------------------|
G|---------------------------------|-----------------------------------|---------------------------------|
D|---------------------------------|-----------------------------------|---------------------------------|
A|-5---------------7---------------|-5---------------------------------|-5---------------7---------------|
E|-----7---5--7--------7---5--7----|-----7---5--7---7--7---7---5--7----|-----7---5--7--------7---5--7----|


E|-----------------------------------|---------------------------------|-----------------------------------|
B|-----------------------------------|---------------------------------|-----------------------------------|
G|-----------------------------------|---------------------------------|-----------------------------------|
D|-----------------------------------|---------------------------------|-----------------------------------|
A|-5---------------------------------|-5---------------7---------------|-5---------------------------------|
E|-----7---5--7---7--7---7---5--7----|-----7---5--7--------7---5--7----|-----7---5--7---7--7---7---5--7----|


E|---------------------------------|-----------------------------------|---------------------------------|
B|---------------------------------|-----------------------------------|---------------------------------|
G|---------------------------------|-----------------------------------|---------------------------------|
D|---------------------------------|-----------------------------------|---------------------------------|
A|-5---------------7---------------|-5---------------------------------|-5---------------7---------------|
E|-----7---5--7--------7---5--7----|-----7---5--7---7--7---7---5--7----|-----7---5--7--------7---5--7----|


E|-----------------------------------|------------------------------------------|------------------------------------------|
B|-----------------------------------|------------------------------------------|------------------------------------------|
G|-----------------------------------|------------------------------------------|------------------------------------------|
D|-----------------------------------|------------------------------------------|------------------------------------------|
A|-5---------------------------------|-9--9--9--9--9--9--9--9--9--9--9----------|-9--9--9--9--9--9--9--9--9--9--9----------|
E|-----7---5--7---7--7---7---5--7----|-7--7--7--7--7--7--7--7--7--7--7----------|-7--7--7--7--7--7--7--7--7--7--7----------|


E|---------------------------------|-----------------------------------|------------------------------------------|
B|---------------------------------|-----------------------------------|------------------------------------------|
G|---------------------------------|-----------------------------------|------------------------------------------|
D|---------------------------------|-----------------------------------|------------------------------------------|
A|-5---------------7---------------|-5---------------------------------|-9--9--9--9--9--9--9--9--9--9--9----------|
E|-----7---5--7--------7---5--7----|-----7---5--7---7--7---7---5--7----|-7--7--7--7--7--7--7--7--7--7--7----------|


E|------------------------------------------|---------------------------------|-----------------------------------|
B|------------------------------------------|---------------------------------|-----------------------------------|
G|------------------------------------------|---------------------------------|-----------------------------------|
D|------------------------------------------|---------------------------------|-----------------------------------|
A|-9--9--9--9--9--9--9--9--9--9--9----------|-5---------------7---------------|-5---------------------------------|
E|-7--7--7--7--7--7--7--7--7--7--7----------|-----7---5--7--------7---5--7----|-----7---5--7---7--7---7---5--7----|


E|--------|--------|--------|--------|--------|--------|--------|--------|--------|
B|-7------|-9------|-7------|-9------|-7------|-9------|-7------|-9------|--------|
G|-7------|-9------|-7------|-9------|-7------|-9------|-7------|-9------|--------|
D|-7------|-9------|-7------|-9------|-7------|-9------|-7------|-9------|--------|
A|-5------|-7------|-5------|-7------|-5------|-7------|-5------|-7------|--------|
E|--------|--------|--------|--------|--------|--------|--------|--------|--------|


E|--------|--------|--------|--------|--------|--------|--------|--------|--------|
B|--------|--------|--------|--------|--------|--------|--------|--------|--------|
G|--------|--------|--------|--------|--------|--------|--------|--------|--------|
D|--------|--------|--------|--------|--------|--------|--------|--------|--------|
A|--------|--------|--------|--------|--------|--------|--------|--------|--------|
E|--------|--------|--------|--------|--------|--------|--------|--------|--------|


E|--------|--------|--------|--------|---------------------------------|-----------------------------------|
B|--------|--------|--------|--------|---------------------------------|-----------------------------------|
G|--------|--------|--------|--------|---------------------------------|-----------------------------------|
D|--------|--------|--------|--------|---------------------------------|-----------------------------------|
A|--------|--------|--------|--------|-5---------------7---------------|-5---------------------------------|
E|--------|--------|--------|--------|-----7---5--7--------7---5--7----|-----7---5--7---7--7---7---5--7----|


E|---------------------------------|-----------------------------------|---------------------------------|
B|---------------------------------|-----------------------------------|---------------------------------|
G|---------------------------------|-----------------------------------|---------------------------------|
D|---------------------------------|-----------------------------------|---------------------------------|
A|-5---------------7---------------|-5---------------------------------|-5---------------7---------------|
E|-----7---5--7--------7---5--7----|-----7---5--7---7--7---7---5--7----|-----7---5--7--------7---5--7----|


E|-----------------------------------|---------------------------------|-----------------------------------|
B|-----------------------------------|---------------------------------|-----------------------------------|
G|-----------------------------------|---------------------------------|-----------------------------------|
D|-----------------------------------|---------------------------------|-----------------------------------|
A|-5---------------------------------|-5---------------7---------------|-5---------------------------------|
E|-----7---5--7---7--7---7---5--7----|-----7---5--7--------7---5--7----|-----7---5--7---7--7---7---5--7----|


E|-12-12-12-12-12-12-12-12-12-12-12-12------|-12-12-12-12-12-12-12-12-12-12-12-12------|
B|-12-12-12-12-12-12-12-12-12-12-12-12------|-12-12-12-12-12-12-12-12-12-12-12-12------|
G|-12-12-12-12-12-12-12-12-12-12-12-12------|-12-12-12-12-12-12-12-12-12-12-12-12------|
D|-12-12-12-12-12-12-12-12-12-12-12-12------|-12-12-12-12-12-12-12-12-12-12-12-12------|
A|-12-12-12-12-12-12-12-12-12-12-12-12------|-12-12-12-12-12-12-12-12-12-12-12-12------|
E|-12-12-12-12-12-12-12-12-12-12-12-12------|-12-12-12-12-12-12-12-12-12-12-12-12------|


E|-12-12-12-12-12-12-12-12-12-12-12-12------|-12-12-12-12-12-12-12-12-12-12-12-12------|
B|-12-12-12-12-12-12-12-12-12-12-12-12------|-12-12-12-12-12-12-12-12-12-12-12-12------|
G|-12-12-12-12-12-12-12-12-12-12-12-12------|-12-12-12-12-12-12-12-12-12-12-12-12------|
D|-12-12-12-12-12-12-12-12-12-12-12-12------|-12-12-12-12-12-12-12-12-12-12-12-12------|
A|-12-12-12-12-12-12-12-12-12-12-12-12------|-12-12-12-12-12-12-12-12-12-12-12-12------|
E|-12-12-12-12-12-12-12-12-12-12-12-12------|-12-12-12-12-12-12-12-12-12-12-12-12------|


E|-12-12-12-12-12-12-12-12-12-12-12-12------|-12-12-12-12-12-12-12-12-12-12-12-12------|
B|-12-12-12-12-12-12-12-12-12-12-12-12------|-12-12-12-12-12-12-12-12-12-12-12-12------|
G|-12-12-12-12-12-12-12-12-12-12-12-12------|-12-12-12-12-12-12-12-12-12-12-12-12------|
D|-12-12-12-12-12-12-12-12-12-12-12-12------|-12-12-12-12-12-12-12-12-12-12-12-12------|
A|-12-12-12-12-12-12-12-12-12-12-12-12------|-12-12-12-12-12-12-12-12-12-12-12-12------|
E|-12-12-12-12-12-12-12-12-12-12-12-12------|-12-12-12-12-12-12-12-12-12-12-12-12------|


E|-12-12-12-12-12-12-12-12-12-12-12-12------|-12-12-12-12-12-12-12-12-12-12-12-12------|
B|-12-12-12-12-12-12-12-12-12-12-12-12------|-12-12-12-12-12-12-12-12-12-12-12-12------|
G|-12-12-12-12-12-12-12-12-12-12-12-12------|-12-12-12-12-12-12-12-12-12-12-12-12------|
D|-12-12-12-12-12-12-12-12-12-12-12-12------|-12-12-12-12-12-12-12-12-12-12-12-12------|
A|-12-12-12-12-12-12-12-12-12-12-12-12------|-12-12-12-12-12-12-12-12-12-12-12-12------|
E|-12-12-12-12-12-12-12-12-12-12-12-12------|-12-12-12-12-12-12-12-12-12-12-12-12------|


E|------------------------------------------|------------------------------------------|
B|------------------------------------------|------------------------------------------|
G|------------------------------------------|------------------------------------------|
D|------------------------------------------|------------------------------------------|
A|-9--9--9--9--9--9--9--9--9--9--9----------|-9--9--9--9--9--9--9--9--9--9--9----------|
E|-7--7--7--7--7--7--7--7--7--7--7----------|-7--7--7--7--7--7--7--7--7--7--7----------|


E|---------------------------------|-----------------------------------|------------------------------------------|
B|---------------------------------|-----------------------------------|------------------------------------------|
G|---------------------------------|-----------------------------------|------------------------------------------|
D|---------------------------------|-----------------------------------|------------------------------------------|
A|-5---------------7---------------|-5---------------------------------|-9--9--9--9--9--9--9--9--9--9--9----------|
E|-----7---5--7--------7---5--7----|-----7---5--7---7--7---7---5--7----|-7--7--7--7--7--7--7--7--7--7--7----------|


E|------------------------------------------|---------------------------------|-----------------------------------|
B|------------------------------------------|---------------------------------|-----------------------------------|
G|------------------------------------------|---------------------------------|-----------------------------------|
D|------------------------------------------|---------------------------------|-----------------------------------|
A|-9--9--9--9--9--9--9--9--9--9--9----------|-5---------------7---------------|-5---------------------------------|
E|-7--7--7--7--7--7--7--7--7--7--7----------|-----7---5--7--------7---5--7----|-----7---5--7---7--7---7---5--7----|


E|---------------------------------|-----------------------------------|---------------------------------|
B|---------------------------------|-----------------------------------|---------------------------------|
G|---------------------------------|-----------------------------------|---------------------------------|
D|---------------------------------|-----------------------------------|---------------------------------|
A|-5---------------7---------------|-5---------------------------------|-5---------------7---------------|
E|-----7---5--7--------7---5--7----|-----7---5--7---7--7---7---5--7----|-----7---5--7--------7---5--7----|


E|-----------------------------------|--------|--------|--------|--------|--------|
B|-----------------------------------|-7------|-9------|-7------|-9------|-7------|
G|-----------------------------------|-7------|-9------|-7------|-9------|-7------|
D|-----------------------------------|-7------|-9------|-7------|-9------|-7------|
A|-5---------------------------------|-5------|-7------|-5------|-7------|-5------|
E|-----7---5--7---7--7---7---5--7----|--------|--------|--------|--------|--------|


E|--------|--------|--------|--------|--------|--------|--------|--------|--------|
B|-9------|-7------|-9------|--------|--------|--------|--------|--------|--------|
G|-9------|-7------|-9------|--------|--------|--------|--------|--------|--------|
D|-9------|-7------|-9------|--------|--------|--------|--------|--------|--------|
A|-7------|-5------|-7------|--------|--------|--------|--------|--------|--------|
E|--------|--------|--------|--------|--------|--------|--------|--------|--------|


E|--------|--------|--------|--------|--------|--------|--------|--------|--------|
B|--------|--------|--------|--------|--------|--------|--------|--------|--------|
G|--------|--------|--------|--------|--------|--------|--------|--------|--------|
D|--------|--------|--------|--------|--------|--------|--------|--------|--------|
A|--------|--------|--------|--------|--------|--------|--------|--------|--------|
E|--------|--------|--------|--------|--------|--------|--------|--------|--------|


E|--------|--------|--------|--------|--------|--------|--------|--------|--------|
B|--------|--------|--------|--------|--------|--------|--------|--------|--------|
G|--------|--------|--------|--------|--------|--------|--------|--------|--------|
D|--------|--------|--------|--------|--------|--------|--------|--------|--------|
A|--------|--------|--------|--------|--------|--------|--------|--------|--------|
E|--------|--------|--------|--------|--------|--------|--------|--------|--------|


E|--------|--------|--------|--------|--------|--------|--------|--------|--------|
B|--------|--------|--------|--------|--------|--------|--------|--------|--------|
G|--------|--------|--------|--------|--------|--------|--------|--------|--------|
D|--------|--------|--------|--------|--------|--------|--------|--------|--------|
A|--------|--------|--------|--------|--------|--------|--------|--------|--------|
E|--------|--------|--------|--------|--------|--------|--------|--------|--------|


E|--------|--------|--------|--------|--------|--------|--------|--------|--------|
B|--------|--------|--------|--------|--------|--------|--------|--------|--------|
G|--------|-9------|--------|-9------|--------|-9------|--------|-9------|--------|
D|--------|--------|--------|--------|--------|--------|--------|--------|--------|
A|--------|--------|--------|--------|--------|--------|--------|--------|--------|
E|--------|--------|--------|--------|--------|--------|--------|--------|--------|


E|--------|--------|
B|--------|--------|
G|-9------|--------|
D|--------|--------|
A|--------|--------|
E|--------|--------|





Track 3: Delay

E|--------|--------|--------|--------|--------|--------|--------|--------|--------|
B|--------|--------|--------|--------|--------|--------|--------|--------|--------|
G|--------|--------|--------|--------|--------|--------|--------|--------|--------|
D|--------|--------|--------|--------|--------|--------|--------|--------|--------|
A|--------|--------|--------|--------|--------|--------|--------|--------|--------|
E|--------|--------|--------|--------|--------|--------|--------|--------|--------|


E|--------|--------|--------|--------|--------|--------|--------|--------|--------|
B|--------|--------|--------|--------|--------|--------|--------|--------|--------|
G|--------|--------|--------|--------|--------|--------|--------|--------|--------|
D|--------|--------|--------|--------|--------|--------|--------|--------|--------|
A|--------|--------|--------|--------|--------|--------|--------|--------|--------|
E|--------|--------|--------|--------|--------|--------|--------|--------|--------|


E|--------|--------|--------|--------|--------|--------|--------|--------|--------|
B|--------|--------|--------|--------|--------|--------|--------|--------|--------|
G|--------|--------|--------|--------|--------|--------|--------|--------|--------|
D|--------|--------|--------|--------|--------|--------|--------|--------|--------|
A|--------|--------|--------|--------|--------|--------|--------|--------|--------|
E|--------|--------|--------|--------|--------|--------|--------|--------|--------|


E|--------|--------|--------|--------|--------|--------|--------|--------|--------|
B|--------|--------|--------|--------|--------|--------|--------|--------|--------|
G|--------|--------|--------|--------|--------|--------|--------|--------|--------|
D|--------|--------|--------|--------|--------|--------|--------|--------|--------|
A|--------|--------|--------|--------|--------|--------|--------|--------|--------|
E|--------|--------|--------|--------|--------|--------|--------|--------|--------|


E|--------|--------|--------|--------|--------|--------|--------|--------|--------|
B|--------|--------|--------|--------|--------|--------|--------|--------|--------|
G|--------|--------|--------|--------|--------|--------|--------|--------|--------|
D|--------|--------|--------|--------|--------|--------|--------|--------|--------|
A|--------|--------|--------|--------|--------|--------|--------|--------|--------|
E|--------|--------|--------|--------|--------|--------|--------|--------|--------|


E|--------|--------|--------|--------|--------|--------|--------|--------|--------|
B|--------|--------|--------|--------|--------|--------|--------|--------|--------|
G|--------|--------|--------|--------|--------|--------|--------|--------|--------|
D|--------|--------|--------|--------|--------|--------|--------|--------|--------|
A|--------|--------|--------|--------|--------|--------|--------|--------|--------|
E|--------|--------|--------|--------|--------|--------|--------|--------|--------|


E|--------|--------|--------|--------|--------|--------|---------------------7--------|
B|--------|--------|--------|--------|--------|--------|---------7-------10------10---|
G|--------|--------|--------|--------|--------|--------|-----7-------7----------------|
D|--------|--------|--------|--------|--------|--------|-9----------------------------|
A|--------|--------|--------|--------|--------|--------|------------------------------|
E|--------|--------|--------|--------|--------|--------|------------------------------|


E|-----7-----------------7--------|---------------------7--------|-----7-----------------7--------|
B|---------7---------10------10---|---------9-------10------10---|---------9-----9---10------10---|
G|------------7--7----------------|-----9-------9----------------|------------9-------------------|
D|--------------------------------|-9----------------------------|--------------------------------|
A|--------------------------------|------------------------------|--------------------------------|
E|--------------------------------|------------------------------|--------------------------------|


E|---------------------7--------|-----7-----------------7--------|--------|--------|
B|---------7-------10------10---|---------7---------10------10---|--------|--------|
G|-----7-------7----------------|------------7--7----------------|--------|--------|
D|-9----------------------------|--------------------------------|--------|--------|
A|------------------------------|--------------------------------|--------|--------|
E|------------------------------|--------------------------------|--------|--------|


E|--------|--------|--------|--------|--------|--------|--------|--------|--------|
B|--------|--------|--------|--------|--------|--------|--------|--------|--------|
G|--------|--------|--------|--------|--------|--------|--------|--------|--------|
D|--------|--------|--------|--------|--------|--------|--------|--------|--------|
A|--------|--------|--------|--------|--------|--------|--------|--------|--------|
E|--------|--------|--------|--------|--------|--------|--------|--------|--------|


E|--------|--------|--------|--------|--------|--------|--------|--------|--------|
B|--------|--------|--------|--------|--------|--------|--------|--------|--------|
G|--------|--------|--------|--------|--------|--------|--------|--------|--------|
D|--------|--------|--------|--------|--------|--------|--------|--------|--------|
A|--------|--------|--------|--------|--------|--------|--------|--------|--------|
E|--------|--------|--------|--------|--------|--------|--------|--------|--------|


E|--------|--------|--------|--------|--------|--------|--------|--------|--------|
B|--------|--------|--------|--------|--------|--------|--------|--------|--------|
G|--------|--------|--------|--------|--------|--------|--------|--------|--------|
D|--------|--------|--------|--------|--------|--------|--------|--------|--------|
A|--------|--------|--------|--------|--------|--------|--------|--------|--------|
E|--------|--------|--------|--------|--------|--------|--------|--------|--------|


E|--------|--------|--------|--------|--------|--------|--------|--------|--------|
B|--------|--------|--------|--------|--------|--------|--------|--------|--------|
G|--------|--------|--------|--------|--------|--------|--------|--------|--------|
D|--------|--------|--------|--------|--------|--------|--------|--------|--------|
A|--------|--------|--------|--------|--------|--------|--------|--------|--------|
E|--------|--------|--------|--------|--------|--------|--------|--------|--------|


E|--------|--------|--------|--------|--------|--------|---------------------7--------|
B|--------|--------|--------|--------|--------|--------|---------7-------10------10---|
G|--------|--------|--------|--------|--------|--------|-----7-------7----------------|
D|--------|--------|--------|--------|--------|--------|-9----------------------------|
A|--------|--------|--------|--------|--------|--------|------------------------------|
E|--------|--------|--------|--------|--------|--------|------------------------------|


E|-----7-----------------7--------|---------------------7--------|-----7-----------------7--------|
B|---------7---------10------10---|---------9-------10------10---|---------9-----9---10------10---|
G|------------7--7----------------|-----9-------9----------------|------------9-------------------|
D|--------------------------------|-9----------------------------|--------------------------------|
A|--------------------------------|------------------------------|--------------------------------|
E|--------------------------------|------------------------------|--------------------------------|


E|---------------------7--------|-----7-----------------7--------|---------------------7--------|
B|---------7-------10------10---|---------7---------10------10---|---------9-------10------10---|
G|-----7-------7----------------|------------7--7----------------|-----9-------9----------------|
D|-9----------------------------|--------------------------------|-9----------------------------|
A|------------------------------|--------------------------------|------------------------------|
E|------------------------------|--------------------------------|------------------------------|


E|-----7-----------------7--------|---------------------7--------|-----7-----------------7--------|
B|---------9-----9---10------10---|---------7-------10------10---|---------7---------10------10---|
G|------------9-------------------|-----7-------7----------------|------------7--7----------------|
D|--------------------------------|-9----------------------------|--------------------------------|
A|--------------------------------|------------------------------|--------------------------------|
E|--------------------------------|------------------------------|--------------------------------|


E|---------------------7--------|-----7-----------------7--------|---------------------7--------|
B|---------9-------10------10---|---------9-----9---10------10---|---------8-------10------10---|
G|-----9-------9----------------|------------9-------------------|-----7-------7----------------|
D|-9----------------------------|--------------------------------|-9----------------------------|
A|------------------------------|--------------------------------|------------------------------|
E|------------------------------|--------------------------------|------------------------------|


E|-----7-----------------7--------|---------------------7--------|-----7-------7-------7-------7---|
B|---------8---------10------10---|---------8-------10------10---|-10------10------10------10------|
G|------------7--7----------------|-----7-------7----------------|---------------------------------|
D|--------------------------------|-9----------------------------|---------------------------------|
A|--------------------------------|------------------------------|---------------------------------|
E|--------------------------------|------------------------------|---------------------------------|


E|-7---------------7---------------|-7---------------7---------------|-7---------------7---------------|
B|-----7---------------7-----------|-----7---------------7-----------|-----7---------------7-----------|
G|---------7---------------7-------|---------7---------------7-------|---------7---------------7-------|
D|-9-----------9---------------9---|-------------9---------------9---|-------------9---------------9---|
A|---------------------------------|---------------------------------|---------------------------------|
E|---------------------------------|---------------------------------|---------------------------------|


E|-7---------------7---------------|-7---------------7---------------|-7---------------7---------------|
B|-----7---------------7-----------|-----7---------------7-----------|-----7---------------7-----------|
G|---------7---------------7-------|---------7---------------7-------|---------7---------------7-------|
D|-------------9---------------9---|-------------9---------------9---|-------------9---------------9---|
A|---------------------------------|---------------------------------|---------------------------------|
E|---------------------------------|---------------------------------|---------------------------------|


E|-7---------------7---------------|-7---------------7---------------|--------|--------|
B|-----7---------------7-----------|-----7---------------7-----------|--------|--------|
G|---------7---------------7-------|---------7---------------7-------|--------|--------|
D|-------------9---------------9---|-------------9---------------9---|--------|--------|
A|---------------------------------|---------------------------------|--------|--------|
E|---------------------------------|---------------------------------|--------|--------|


E|--------|--------|--------|--------|--------|--------|--------|--------|--------|
B|--------|--------|--------|--------|--------|--------|--------|--------|--------|
G|--------|--------|--------|--------|--------|--------|--------|--------|--------|
D|--------|--------|--------|--------|--------|--------|--------|--------|--------|
A|--------|--------|--------|--------|--------|--------|--------|--------|--------|
E|--------|--------|--------|--------|--------|--------|--------|--------|--------|


E|--------|--------|--------|--------|--------|--------|--------|--------|--------|
B|--------|--------|--------|--------|--------|--------|--------|--------|--------|
G|--------|--------|--------|--------|--------|--------|--------|--------|--------|
D|--------|--------|--------|--------|--------|--------|--------|--------|--------|
A|--------|--------|--------|--------|--------|--------|--------|--------|--------|
E|--------|--------|--------|--------|--------|--------|--------|--------|--------|





Track 4: Boom

E|--------|--------|--------|--------|--------|--------|--------|--------|--------|
B|--------|--------|--------|--------|--------|--------|--------|--------|--------|
G|--------|--------|--------|--------|--------|--------|--------|--------|--------|
D|--------|--------|--------|--------|--------|--------|--------|--------|--------|
A|--------|--------|--------|--------|--------|--------|--------|--------|--------|
E|--------|--------|--------|--------|--------|--------|--------|--------|--------|


E|--------|--------|--------|--------|--------|--------|--------|--------|--------|
B|--------|--------|--------|--------|--------|--------|--------|--------|--------|
G|--------|--------|--------|--------|--------|--------|--------|--------|--------|
D|--------|--------|--------|--------|--------|--------|--------|--------|--------|
A|--------|--------|--------|--------|--------|--------|--------|--------|--------|
E|--------|--------|--------|--------|--------|--------|--------|--------|--------|


E|--------|--------|--------|--------|--------|--------|--------|--------|--------|
B|--------|--------|--------|--------|--------|--------|--------|--------|--------|
G|--------|--------|--------|--------|--------|--------|--------|--------|--------|
D|--------|--------|--------|--------|--------|--------|--------|--------|--------|
A|--------|--------|--------|--------|--------|--------|--------|--------|--------|
E|--------|--------|--------|--------|--------|--------|--------|--------|--------|


E|--------|--------|--------|--------|--------|--------|--------|--------|--------|
B|--------|--------|--------|--------|--------|--------|--------|--------|--------|
G|--------|--------|--------|--------|--------|--------|--------|--------|--------|
D|--------|--------|--------|--------|--------|--------|--------|--------|--------|
A|--------|--------|--------|--------|--------|--------|--------|--------|--------|
E|--------|--------|--------|--------|--------|--------|--------|--------|--------|


E|--------|--------|--------|--------|--------|--------|--------|--------|--------|
B|--------|--------|--------|--------|--------|--------|--------|--------|--------|
G|--------|--------|--------|--------|--------|--------|--------|--------|--------|
D|--------|--------|--------|--------|--------|--------|--------|--------|--------|
A|--------|--------|--------|--------|--------|--------|--------|--------|--------|
E|--------|--------|--------|--------|--------|--------|--------|--------|--------|


E|--------|--------|--------|--------|--------|--------|--------|--------|--------|
B|--------|--------|--------|--------|--------|--------|--------|--------|--------|
G|--------|--------|--------|--------|--------|--------|--------|--------|--------|
D|--------|--------|--------|--------|--------|--------|--------|--------|--------|
A|--------|--------|--------|--------|--------|--------|--------|--------|--------|
E|--------|--------|--------|--------|--------|--------|--------|--------|--------|


E|--------|--------|--------|--------|--------|--------|--------|--------|--------|
B|--------|--------|--------|--------|--------|--------|--------|--------|--------|
G|--------|--------|--------|--------|--------|--------|--------|--------|--------|
D|--------|--------|--------|--------|--------|--------|--------|--------|--------|
A|--------|--------|--------|--------|--------|--------|--------|--------|--------|
E|--------|--------|--------|--------|--------|--------|--------|--------|--------|


E|--------|--------|--------|--------|--------|--------|--------|--------|--------|
B|--------|--------|--------|--------|--------|--------|--------|--------|--------|
G|--------|--------|--------|--------|--------|--------|--------|--------|--------|
D|--------|--------|--------|--------|--------|--------|--------|--------|--------|
A|--------|--------|--------|--------|--------|--------|--------|--------|--------|
E|--------|--------|--------|--------|--------|--------|--------|--------|--------|


E|--------|--------|--------|--------|--------|--------|--------|--------|--------|
B|--------|--------|--------|--------|--------|--------|--------|--------|--------|
G|--------|--------|--------|--------|--------|--------|--------|--------|--------|
D|--------|--------|--------|--------|--------|--------|--------|--------|--------|
A|--------|--------|--------|--------|--------|--------|--------|--------|--------|
E|--------|--------|--------|--------|--------|--------|--------|--------|--------|


E|--------|--------|--------|--------|--------|--------|--------|--------|--------|
B|--------|--------|--------|--------|--------|--------|--------|--------|--------|
G|--------|--------|--------|--------|--------|--------|--------|--------|--------|
D|--------|--------|--------|--------|--------|--------|--------|--------|--------|
A|--------|--------|--------|--------|--------|--------|--------|--------|--------|
E|--------|--------|--------|--------|--------|--------|--------|--------|--------|


E|--------|--------|--------|--------|--------|--------|--------|--------|--------|
B|--------|--------|--------|--------|--------|--------|--------|--------|--------|
G|--------|--------|--------|--------|--------|--------|--------|--------|--------|
D|--------|--------|--------|--------|--------|--------|--------|--------|--------|
A|--------|--------|--------|--------|--------|--------|--------|--------|--------|
E|--------|--------|--------|--------|--------|--------|--------|--------|--------|


E|--------|--------|--------|--------|--------|--------|--------|--------|--------|
B|--------|--------|--------|--------|--------|--------|--------|--------|--------|
G|--------|--------|--------|--------|--------|--------|--------|--------|--------|
D|--------|--------|--------|--------|--------|--------|--------|--------|--------|
A|--------|--------|--------|--------|--------|--------|--------|--------|--------|
E|--------|--------|--------|--------|--------|--------|--------|--------|--------|


E|--------|--------|--------|--------|--------|--------|--------|--------|--------|
B|--------|--------|--------|--------|--------|--------|--------|--------|--------|
G|--------|--------|--------|--------|--------|--------|--------|--------|--------|
D|--------|--------|--------|--------|--------|--------|--------|--------|--------|
A|--------|--------|--------|--------|--------|--------|--------|--------|--------|
E|--------|--------|--------|--------|--------|--------|--------|--------|--------|


E|--------|--------|--------|--------|--------|--------|--------|--------|--------|
B|--------|--------|--------|--------|--------|--------|--------|--------|--------|
G|--------|--------|--------|--------|--------|--------|--------|--------|--------|
D|--------|--------|--------|--------|--------|--------|--------|--------|--------|
A|--------|--------|--------|--------|--------|--------|--------|--------|--------|
E|--------|--------|--------|--------|--------|--------|--------|--------|--------|


E|--------|--------|--------|--------|-----------------------|--------|-----------------------|
B|--------|--------|--------|--------|-----------------------|--------|-----------------------|
G|--------|--------|--------|--------|-----------------------|--------|-----------------------|
D|--------|--------|--------|--------|-12--12--------12--12--|--------|-12--12--------12--12--|
A|--------|--------|--------|--------|-12--12--------12--12--|--------|-12--12--------12--12--|
E|--------|--------|--------|--------|-12--12--------12--12--|--------|-12--12--------12--12--|


E|--------|-----------------------|--------|-----------------------|--------|-----------------------|
B|--------|-----------------------|--------|-----------------------|--------|-----------------------|
G|--------|-----------------------|--------|-----------------------|--------|-----------------------|
D|--------|-12--12--------12--12--|--------|-12--12--------12--12--|--------|-12--12--------12--12--|
A|--------|-12--12--------12--12--|--------|-12--12--------12--12--|--------|-12--12--------12--12--|
E|--------|-12--12--------12--12--|--------|-12--12--------12--12--|--------|-12--12--------12--12--|


E|--------|-----------------------|--------|--------|--------|--------|--------|--------|
B|--------|-----------------------|--------|--------|--------|--------|--------|--------|
G|--------|-----------------------|--------|--------|--------|--------|--------|--------|
D|--------|-12--12--------12--12--|--------|--------|--------|--------|--------|--------|
A|--------|-12--12--------12--12--|--------|--------|--------|--------|--------|--------|
E|--------|-12--12--------12--12--|--------|--------|--------|--------|--------|--------|


E|--------|--------|--------|--------|--------|--------|--------|
B|--------|--------|--------|--------|--------|--------|--------|
G|--------|--------|--------|--------|--------|--------|--------|
D|--------|--------|--------|--------|--------|--------|--------|
A|--------|--------|--------|--------|--------|--------|--------|
E|--------|--------|--------|--------|--------|--------|--------|





Track 5: Bass

G|--------|--------|--------|--------|--------|--------|--------|--------|-------------------------------------|
D|--------|--------|--------|--------|--------|--------|--------|--------|-------------------------------------|
A|--------|--------|--------|--------|--------|--------|--------|--------|-------------------------------------|
E|--------|--------|--------|--------|--------|--------|--------|--------|-7---7---5--7---5--7---7---5--7---7--|


G|-------------------------------------|-------------------------------------|-------------------------------------|
D|-------------------------------------|-------------------------------------|-------------------------------------|
A|-------------------------------------|-------------------------------------|-------------------------------------|
E|-3---3---5--3---0--3---3---5--3---0--|-7---7---5--7---5--7---7---5--7---7--|-3---3---5--3---0--3---3---5--3---0--|


G|-------------------------------------|-------------------------------------|-------------------------------------|
D|-------------------------------------|-------------------------------------|-------------------------------------|
A|-------------------------------------|-------------------------------------|-------------------------------------|
E|-7---7---5--7---5--7---7---5--7---7--|-3---3---5--3---0--3---3---5--3---0--|-7---7---5--7---5--7---7---5--7---7--|


G|-------------------------------------|-------------------------------------|-------------------------------------|
D|-------------------------------------|-------------------------------------|-------------------------------------|
A|-------------------------------------|-------------------------------------|-------------------------------------|
E|-3---3---5--3---0--3---3---5--3---0--|-7---7---5--7---5--7---7---5--7---7--|-3---3---5--3---0--3---3---5--3---0--|


G|-------------------------------------|-------------------------------------|-------------------------------------|
D|-------------------------------------|-------------------------------------|-------------------------------------|
A|-------------------------------------|-------------------------------------|-------------------------------------|
E|-7---7---5--7---5--7---7---5--7---7--|-3---3---5--3---0--3---3---5--3---0--|-7---7---5--7---5--7---7---5--7---7--|


G|-------------------------------------|-------------------------------------|-------------------------------------|
D|-------------------------------------|-------------------------------------|-------------------------------------|
A|-------------------------------------|-------------------------------------|-------------------------------------|
E|-3---3---5--3---0--3---3---5--3---0--|-7---7---5--7---5--7---7---5--7---7--|-3---3---5--3---0--3---3---5--3---0--|


G|-------------------------------------|-------------------------------------|-------------------------------------|
D|-------------------------------------|-------------------------------------|-------------------------------------|
A|-------------------------------------|-------------------------------------|-------------------------------------|
E|-7---7---5--7---5--7---7---5--7---7--|-3---3---5--3---0--3---3---5--3---0--|-7---7---5--7---5--7---7---5--7---7--|


G|-------------------------------------|-------------------------------------|-------------------------------------|
D|-------------------------------------|-------------------------------------|-------------------------------------|
A|-------------------------------------|-------------------------------------|-------------------------------------|
E|-3---3---5--3---0--3---3---5--3---0--|-7---7---5--7---5--7---7---5--7---7--|-3---3---5--3---0--3---3---5--3---0--|


G|-------------------------------------|-------------------------------------|--------|
D|-------------------------------------|-------------------------------------|--------|
A|-------------------------------------|-------------------------------------|--------|
E|-7---7---5--7---5--7---7---5--7---7--|-3---3---5--3---0--3---3---5--3---0--|--------|


G|--------|--------|--------|-------------------------------------|-------------------------------------|
D|--------|--------|--------|-------------------------------------|-------------------------------------|
A|--------|--------|--------|-------------------------------------|-------------------------------------|
E|--------|--------|--------|-7---7---5--7---5--7---7---5--7---7--|-3---3---5--3---0--3---3---5--3---0--|


G|-------------------------------------|-------------------------------------|-------------------------------------|
D|-------------------------------------|-------------------------------------|-------------------------------------|
A|-------------------------------------|-------------------------------------|-------------------------------------|
E|-7---7---5--7---5--7---7---5--7---7--|-3---3---5--3---0--3---3---5--3---0--|-7---7---5--7---5--7---7---5--7---7--|


G|-------------------------------------|-------------------------------------|-------------------------------------|
D|-------------------------------------|-------------------------------------|-------------------------------------|
A|-------------------------------------|-------------------------------------|-------------------------------------|
E|-3---3---5--3---0--3---3---5--3---0--|-7---7---5--7---5--7---7---5--7---7--|-3---3---5--3---0--3---3---5--3---0--|


G|-------------------------------------|--------------------|-------------------------------------|
D|-------------------------------------|--------------------|-------------------------------------|
A|-------------------------------------|--------------------|-------------------------------------|
E|-7---7---5--7---5--7---7---5--7---7--|-3---3---3----------|-7---7---5--7---5--7---7---5--7---7--|


G|-------------------------------------|-------------------------------------|--------------------|
D|-------------------------------------|-------------------------------------|--------------------|
A|-------------------------------------|-------------------------------------|--------------------|
E|-3---3---5--3---0--3---3---5--3---0--|-7---7---5--7---5--7---7---5--7---7--|-3---3---3----------|


G|-------------------------------------|-------------------------------------|---------------------------|
D|-------------------------------------|-------------------------------------|---------------------------|
A|-------------------------------------|-------------------------------------|-5---5-------4---5----7----|
E|-7---7---5--7---5--7---7---5--7---7--|-3---3---5--3---0--3---3---5--3---0--|---------------------------|


G|-----------------------|---------------------------|-----------------------|---------------------------|
D|-----------------------|---------------------------|-----------------------|---------------------------|
A|-7---7-------7---7-----|-5---5-------4---5----7----|-7---7-------7---7-----|-5---5-------4---5----7----|
E|-----------------------|---------------------------|-----------------------|---------------------------|


G|-----------------------|---------------------------|-----------------------|--------|
D|-----------------------|---------------------------|-----------------------|--------|
A|-7---7-------7---7-----|-5---5-------4---5----7----|-7---7-------7---7-----|--------|
E|-----------------------|---------------------------|-----------------------|-7------|


G|--------|--------|--------|--------|--------|--------|--------|--------|--------|
D|--------|--------|--------|--------|--------|--------|--------|--------|--------|
A|--------|-7------|-7------|--------|--------|--------|--------|--------|--------|
E|-7------|--------|--------|-7------|-7------|-7------|-7------|--------|--------|


G|--------|--------|--------|--------|-------------------------------------|-------------------------------------|
D|--------|--------|--------|--------|-------------------------------------|-------------------------------------|
A|--------|--------|--------|--------|-------------------------------------|-------------------------------------|
E|--------|--------|--------|--------|-7---7---5--7---5--7---7---5--7---7--|-3---3---5--3---0--3---3---5--3---0--|


G|-------------------------------------|-------------------------------------|-------------------------------------|
D|-------------------------------------|-------------------------------------|-------------------------------------|
A|-------------------------------------|-------------------------------------|-------------------------------------|
E|-7---7---5--7---5--7---7---5--7---7--|-3---3---5--3---0--3---3---5--3---0--|-7---7---5--7---5--7---7---5--7---7--|


G|-------------------------------------|-------------------------------------|-------------------------------------|
D|-------------------------------------|-------------------------------------|-------------------------------------|
A|-------------------------------------|-------------------------------------|-------------------------------------|
E|-3---3---5--3---0--3---3---5--3---0--|-7---7---5--7---5--7---7---5--7---7--|-3---3---5--3---0--3---3---5--3---0--|


G|-------------------------------------|-------------------------------------|-------------------------------------|
D|-------------------------------------|-------------------------------------|-------------------------------------|
A|-------------------------------------|-------------------------------------|-------------------------------------|
E|-7---7---5--7---5--7---7---5--7---7--|-3---3---5--3---0--3---3---5--3---0--|-7---7---5--7---5--7---7---5--7---7--|


G|-------------------------------------|-------------------------------------|-------------------------------------|
D|-------------------------------------|-------------------------------------|-------------------------------------|
A|-------------------------------------|-------------------------------------|-------------------------------------|
E|-3---3---5--3---0--3---3---5--3---0--|-7---7---5--7---5--7---7---5--7---7--|-3---3---5--3---0--3---3---5--3---0--|


G|-------------------------------------|-------------------------------------|-------------------------------------|
D|-------------------------------------|-------------------------------------|-------------------------------------|
A|-------------------------------------|-------------------------------------|-------------------------------------|
E|-7---7---5--7---5--7---7---5--7---7--|-3---3---5--3---0--3---3---5--3---0--|-7---7---5--7---5--7---7---5--7---7--|


G|--------------------|-------------------------------------|-------------------------------------|
D|--------------------|-------------------------------------|-------------------------------------|
A|--------------------|-------------------------------------|-------------------------------------|
E|-3---3---3----------|-7---7---5--7---5--7---7---5--7---7--|-3---3---5--3---0--3---3---5--3---0--|


G|-------------------------------------|--------------------|-------------------------------------|
D|-------------------------------------|--------------------|-------------------------------------|
A|-------------------------------------|--------------------|-------------------------------------|
E|-7---7---5--7---5--7---7---5--7---7--|-3---3---3----------|-7---7---5--7---5--7---7---5--7---7--|


G|-------------------------------------|-------------------------------------|-------------------------------------|
D|-------------------------------------|-------------------------------------|-------------------------------------|
A|-------------------------------------|-------------------------------------|-------------------------------------|
E|-3---3---5--3---0--3---3---5--3---0--|-7---7---5--7---5--7---7---5--7---7--|-3---3---5--3---0--3---3---5--3---0--|


G|-------------------------------------|-------------------------------------|---------------------------|
D|-------------------------------------|-------------------------------------|---------------------------|
A|-------------------------------------|-------------------------------------|-5---5-------4---5----7----|
E|-7---7---5--7---5--7---7---5--7---7--|-3---3---5--3---0--3---3---5--3---0--|---------------------------|


G|-----------------------|---------------------------|-----------------------|---------------------------|
D|-----------------------|---------------------------|-----------------------|---------------------------|
A|-7---7-------7---7-----|-5---5-------4---5----7----|-7---7-------7---7-----|-5---5-------4---5----7----|
E|-----------------------|---------------------------|-----------------------|---------------------------|


G|-----------------------|---------------------------|-----------------------|-----------------|
D|-----------------------|---------------------------|-----------------------|-----------------|
A|-7---7-------7---7-----|-5---5-------4---5----7----|-7---7-------7---7-----|-----------------|
E|-----------------------|---------------------------|-----------------------|-7-----7----5----|


G|--------|-----------------|--------|-----------------|--------|-----------------|
D|--------|-----------------|--------|-----------------|--------|-----------------|
A|--------|-7-----7----5----|--------|-----------------|--------|-7-----7----5----|
E|-7------|-----------------|-0------|-7-----7----5----|-7------|-----------------|


G|--------|-----------------|--------|-----------------|--------|-----------------|
D|--------|-----------------|--------|-----------------|--------|-----------------|
A|--------|-----------------|--------|-7-----7----5----|--------|-----------------|
E|-0------|-7-----7----5----|-7------|-----------------|-0------|-7-----7----5----|


G|--------|-----------------|--------|--------|--------|--------|--------|-----------------------|
D|--------|-----------------|--------|--------|--------|--------|--------|-----------------------|
A|--------|-7-----7----5----|--------|--------|--------|--------|--------|-----------------------|
E|-7------|-----------------|-0------|-7------|-7------|-7------|-7------|-7---7---------7---7---|


G|--------|-----------------------|--------|-------------------------------------|
D|--------|-----------------------|--------|-------------------------------------|
A|--------|-----------------------|--------|-------------------------------------|
E|--------|-7---7---------7---7---|--------|-7---7---5--7---5--7---7---5--7---7--|


G|-------------------------------------|-------------------------------------|-------------------------------------|
D|-------------------------------------|-------------------------------------|-------------------------------------|
A|-------------------------------------|-------------------------------------|-------------------------------------|
E|-3---3---5--3---0--3---3---5--3---0--|-7---7---5--7---5--7---7---5--7---7--|-3---3---5--3---0--3---3---5--3---0--|


G|-------------------------------------|-------------------------------------|-------------------------------------|
D|-------------------------------------|-------------------------------------|-------------------------------------|
A|-------------------------------------|-------------------------------------|-------------------------------------|
E|-7---7---5--7---5--7---7---5--7---7--|-3---3---5--3---0--3---3---5--3---0--|-7---7---5--7---5--7---7---5--7---7--|


G|-------------------------------------|--------|--------|-------------------------------------|
D|-------------------------------------|--------|--------|-------------------------------------|
A|-------------------------------------|--------|--------|-------------------------------------|
E|-3---3---5--3---0--3---3---5--3---0--|--------|--------|-7---7---5--7---5--7---7---5--7---7--|


G|-------------------------------------|-------------------------------------|-------------------------------------|
D|-------------------------------------|-------------------------------------|-------------------------------------|
A|-------------------------------------|-------------------------------------|-------------------------------------|
E|-3---3---5--3---0--3---3---5--3---0--|-7---7---5--7---5--7---7---5--7---7--|-3---3---5--3---0--3---3---5--3---0--|


G|-------------------------------------|-------------------------------------|-------------------------------------|
D|-------------------------------------|-------------------------------------|-------------------------------------|
A|-------------------------------------|-------------------------------------|-------------------------------------|
E|-7---7---5--7---5--7---7---5--7---7--|-3---3---5--3---0--3---3---5--3---0--|-7---7---5--7---5--7---7---5--7---7--|


G|-------------------------------------|-------------------------------------|-------------------------------------|
D|-------------------------------------|-------------------------------------|-------------------------------------|
A|-------------------------------------|-------------------------------------|-------------------------------------|
E|-3---3---5--3---0--3---3---5--3---0--|-7---7---5--7---5--7---7---5--7---7--|-3---3---5--3---0--3---3---5--3---0--|