Menu:

 

Search:

 

u2 - beautiful day:

 



Title: Beautiful Day
Artist: 
Album: All That You Can't Leave Behind
Author: U2


Track 1: Piano Intro

E|---------------------------------|---------------------------------|---------------------------------|
B|---------------------------------|---------------------------------|---------------------------------|
G|-6---6---6---7---7---7---7---7---|-7---7---7---7---7---7---7---7---|-7---7---7---7---7---7---6---6---|
D|-------------------------4---4---|-4---4---5---5---5---5---5---5---|-4---4---4-----------------------|
A|-0---0---0-----------------------|---------------------------------|-------------------------0---0---|
E|-------------7---7---7-----------|---------------------------------|---------------------------------|


E|---------------------------------|---------------------------------|---------------------------------|
B|---------------------------------|---------------------------------|---------------------------------|
G|-6---6---6---6---6---6---6---6---|-6---6---6---------------7---7---|-7---7---7---7---7---7---7---7---|
D|---------------------------------|-------------------------4---4---|-4---4---5---5---5---5---5---5---|
A|-0---0---0---0---0---0---0---0---|-0---0---0-----------------------|---------------------------------|
E|---------------------------------|-------------7---7---7-----------|---------------------------------|


E|---------------------------------|---------------------------------|---------------------------------|
B|---------------------------------|---------------------------------|---------------------------------|
G|-7---7---7---7---7---7---6---6---|-6---6---6---6---6---6---6---6---|-6---6---6---7---7---7---7---7---|
D|-4---4---4-----------------------|---------------------------------|-------------------------4---4---|
A|-------------------------0---0---|-0---0---0---0---0---0---0---0---|-0---0---0-----------------------|
E|---------------------------------|---------------------------------|-------------7---7---7-----------|


E|---------------------------------|---------------------------------|---------------------------------|
B|---------------------------------|---------------------------------|---------------------------------|
G|-7---7---7---7---7---7---7---7---|-7---7---7---7---7---7---6---6---|-6---6---6---6---6---6---6---6---|
D|-4---4---5---5---5---5---5---5---|-4---4---4-----------------------|---------------------------------|
A|---------------------------------|-------------------------0---0---|-0---0---0---0---0---0---0---0---|
E|---------------------------------|---------------------------------|---------------------------------|


E|---------------------------------|---------------------------------|---------------------------------|
B|---------------------------------|---------------------------------|---------------------------------|
G|-6---6---6---------------7---7---|-7---7---7---7---7---7---7---7---|-7---7---7---7---7---7---6---6---|
D|-------------------------4---4---|-4---4---5---5---5---5---5---5---|-4---4---4-----------------------|
A|-0---0---0-----------------------|---------------------------------|-------------------------0---0---|
E|-------------7---7---7-----------|---------------------------------|---------------------------------|


E|---------------------------------|---------------------------------|---------------------------------|
B|---------------------------------|---------------------------------|---------------------------------|
G|-6---6---6---6---6---6---6---6---|-6---6---6---7---7---7---7---7---|-7---7---7---7---7---7---7---7---|
D|---------------------------------|-------------------------4---4---|-4---4---5---5---5---5---5---5---|
A|-0---0---0---0---0---0---0---0---|-0---0---0-----------------------|---------------------------------|
E|---------------------------------|-------------7---7---7-----------|---------------------------------|


E|---------------------------------|---------------------------------|---------------------------------|
B|---------------------------------|---------------------------------|---------------------------------|
G|-7---7---7---7---7---7---6---6---|-6---6---6---6---6---6---6---6---|-6---6---6---------------7---7---|
D|-4---4---4-----------------------|---------------------------------|-------------------------4---4---|
A|-------------------------0---0---|-0---0---0---0---0---0---0---0---|-0---0---0-----------------------|
E|---------------------------------|---------------------------------|-------------7---7---7-----------|


E|---------------------------------|---------------------------------|---------------------------------|
B|---------------------------------|---------------------------------|---------------------------------|
G|-7---7---7---7---7---7---7---7---|-7---7---7---7---7---7---6---6---|-6---6---6---6---6---6---6---6---|
D|-4---4---5---5---5---5---5---5---|-4---4---4-----------------------|---------------------------------|
A|---------------------------------|-------------------------0---0---|-0---0---0---0---0---0---0---0---|
E|---------------------------------|---------------------------------|---------------------------------|


E|---------------------------------|---------------------------------|---------------------------------|
B|---------------------------------|---------------------------------|---------------------------------|
G|-6---6---6---7---7---7---7---7---|-7---7---7---7---7---7---7---7---|-7---7---7---7---7---7---6---6---|
D|-------------------------4---4---|-4---4---5---5---5---5---5---5---|-4---4---4-----------------------|
A|-0---0---0-----------------------|---------------------------------|-------------------------0---0---|
E|-------------7---7---7-----------|---------------------------------|---------------------------------|


E|---------------------------------|---------------------------------|---------------------------------|
B|---------------------------------|---------------------------------|---------------------------------|
G|-6---6---6---6---6---6---6---6---|-6---6---6---------------7---7---|-7---7---7---7---7---7---7---7---|
D|---------------------------------|-------------------------4---4---|-4---4---5---5---5---5---5---5---|
A|-0---0---0---0---0---0---0---0---|-0---0---0-----------------------|---------------------------------|
E|---------------------------------|-------------7---7---7-----------|---------------------------------|


E|---------------------------------|---------------------------------|--------|--------|
B|---------------------------------|---------------------------------|--------|--------|
G|-7---7---7---7---7---7---6---6---|-6---6---6---6---6---6---6---6---|--------|--------|
D|-4---4---4-----------------------|---------------------------------|--------|--------|
A|-------------------------0---0---|-0---0---0---0---0---0---0---0---|--------|--------|
E|---------------------------------|---------------------------------|--------|--------|


E|--------|--------|--------|--------|--------|--------|--------|--------|--------|
B|--------|--------|--------|--------|--------|--------|--------|--------|--------|
G|--------|--------|--------|--------|--------|--------|--------|--------|--------|
D|--------|--------|--------|--------|--------|--------|--------|--------|--------|
A|--------|--------|--------|--------|--------|--------|--------|--------|--------|
E|--------|--------|--------|--------|--------|--------|--------|--------|--------|


E|--------|--------|--------|--------|--------|--------|--------|--------|--------|
B|--------|--------|--------|--------|--------|--------|--------|--------|--------|
G|--------|--------|--------|--------|--------|--------|--------|--------|--------|
D|--------|--------|--------|--------|--------|--------|--------|--------|--------|
A|--------|--------|--------|--------|--------|--------|--------|--------|--------|
E|--------|--------|--------|--------|--------|--------|--------|--------|--------|


E|--------|--------|--------|--------|--------|--------|--------|--------|--------|
B|--------|--------|--------|--------|--------|--------|--------|--------|--------|
G|--------|--------|--------|--------|--------|--------|--------|--------|--------|
D|--------|--------|--------|--------|--------|--------|--------|--------|--------|
A|--------|--------|--------|--------|--------|--------|--------|--------|--------|
E|--------|--------|--------|--------|--------|--------|--------|--------|--------|


E|--------|--------|--------|--------|--------|--------|--------|--------|--------|
B|--------|--------|--------|--------|--------|--------|--------|--------|--------|
G|--------|--------|--------|--------|--------|--------|--------|--------|--------|
D|--------|--------|--------|--------|--------|--------|--------|--------|--------|
A|--------|--------|--------|--------|--------|--------|--------|--------|--------|
E|--------|--------|--------|--------|--------|--------|--------|--------|--------|


E|--------|--------|--------|--------|--------|--------|--------|--------|--------|
B|--------|--------|--------|--------|--------|--------|--------|--------|--------|
G|--------|--------|--------|--------|--------|--------|--------|--------|--------|
D|--------|--------|--------|--------|--------|--------|--------|--------|--------|
A|--------|--------|--------|--------|--------|--------|--------|--------|--------|
E|--------|--------|--------|--------|--------|--------|--------|--------|--------|


E|--------|--------|--------|--------|--------|--------|--------|--------|--------|
B|--------|--------|--------|--------|--------|--------|--------|--------|--------|
G|--------|--------|--------|--------|--------|--------|--------|--------|--------|
D|--------|--------|--------|--------|--------|--------|--------|--------|--------|
A|--------|--------|--------|--------|--------|--------|--------|--------|--------|
E|--------|--------|--------|--------|--------|--------|--------|--------|--------|


E|--------|--------|--------|--------|--------|--------|--------|--------|--------|
B|--------|--------|--------|--------|--------|--------|--------|--------|--------|
G|--------|--------|--------|--------|--------|--------|--------|--------|--------|
D|--------|--------|--------|--------|--------|--------|--------|--------|--------|
A|--------|--------|--------|--------|--------|--------|--------|--------|--------|
E|--------|--------|--------|--------|--------|--------|--------|--------|--------|


E|--------|--------|--------|--------|--------|--------|--------|--------|--------|
B|--------|--------|--------|--------|--------|--------|--------|--------|--------|
G|--------|--------|--------|--------|--------|--------|--------|--------|--------|
D|--------|--------|--------|--------|--------|--------|--------|--------|--------|
A|--------|--------|--------|--------|--------|--------|--------|--------|--------|
E|--------|--------|--------|--------|--------|--------|--------|--------|--------|


E|--------|--------|--------|--------|--------|--------|--------|--------|--------|
B|--------|--------|--------|--------|--------|--------|--------|--------|--------|
G|--------|--------|--------|--------|--------|--------|--------|--------|--------|
D|--------|--------|--------|--------|--------|--------|--------|--------|--------|
A|--------|--------|--------|--------|--------|--------|--------|--------|--------|
E|--------|--------|--------|--------|--------|--------|--------|--------|--------|


E|--------|--------|--------|--------|--------|--------|--------|--------|--------|
B|--------|--------|--------|--------|--------|--------|--------|--------|--------|
G|--------|--------|--------|--------|--------|--------|--------|--------|--------|
D|--------|--------|--------|--------|--------|--------|--------|--------|--------|
A|--------|--------|--------|--------|--------|--------|--------|--------|--------|
E|--------|--------|--------|--------|--------|--------|--------|--------|--------|


E|--------|--------|--------|--------|--------|--------|--------|--------|--------|
B|--------|--------|--------|--------|--------|--------|--------|--------|--------|
G|--------|--------|--------|--------|--------|--------|--------|--------|--------|
D|--------|--------|--------|--------|--------|--------|--------|--------|--------|
A|--------|--------|--------|--------|--------|--------|--------|--------|--------|
E|--------|--------|--------|--------|--------|--------|--------|--------|--------|


E|--------|--------|
B|--------|--------|
G|--------|--------|
D|--------|--------|
A|--------|--------|
E|--------|--------|





Track 2: Edge Verse Guitar

E|--------|--------|--------|--------|--------|--------|--------|--------|--------|
B|--------|--------|--------|--------|--------|--------|--------|--------|--------|
G|--------|--------|--------|--------|--------|--------|--------|--------|--------|
D|--------|--------|--------|--------|--------|--------|--------|--------|--------|
A|--------|--------|--------|--------|--------|--------|--------|--------|--------|
E|--------|--------|--------|--------|--------|--------|--------|--------|--------|


E|--------|--------|--------|--------|--------|--------|--------|------------------------|
B|--------|--------|--------|--------|--------|--------|--------|-------7-------7--------|
G|--------|--------|--------|--------|--------|--------|--------|-6---------6-------7----|
D|--------|--------|--------|--------|--------|--------|--------|------------------------|
A|--------|--------|--------|--------|--------|--------|--------|------------------------|
E|--------|--------|--------|--------|--------|--------|--------|------------------------|


E|------------------------|---------------------|-----------------|-------0-------0--------|
B|----------7-------7-----|-------7---7---------|-------7---------|------------------------|
G|-7----4-------4---------|-4--------------6----|-6---------6-----|-6---------6-------7----|
D|------------------------|---------------------|-----------------|------------------------|
A|------------------------|---------------------|-----------------|------------------------|
E|------------------------|---------------------|-----------------|------------------------|


E|--------------------|---------------------|--------|-------0---0---------|--------------------------0---|
B|----------7---------|-------7---7---------|--------|---------------------|-----7-------7----------------|
G|-7----7-------4-----|-4--------------6----|-6------|-6--------------7----|-7-------7-------4----4-------|
D|--------------------|---------------------|--------|---------------------|------------------------------|
A|--------------------|---------------------|--------|---------------------|------------------------------|
E|--------------------|---------------------|--------|---------------------|------------------------------|


E|---------------------|-----0-------0--------0----|---------------------|-----0-------0-------0-------0---|
B|-------7---7---------|---------------------------|-------7---7---------|---------------------------------|
G|-4--------------6----|-6-------6-------6---------|-6--------------7----|-7-------4-------4-------4-------|
D|---------------------|---------------------------|---------------------|---------------------------------|
A|---------------------|---------------------------|---------------------|---------------------------------|
E|---------------------|---------------------------|---------------------|---------------------------------|


E|---------------------|-----0----------|--------|--------|--------|--------|--------|
B|-------7---7---------|----------------|--------|--------|--------|--------|--------|
G|-4--------------6----|-6-------6------|--------|--------|--------|--------|--------|
D|---------------------|----------------|--------|--------|--------|--------|--------|
A|---------------------|----------------|--------|--------|--------|--------|--------|
E|---------------------|----------------|--------|--------|--------|--------|--------|


E|--------|--------|--------|-------0---0------------|-----0------------0-----|-------0---0------------|
B|--------|--------|--------|--------------------7---|------------------------|--------------------7---|
G|--------|--------|--------|-6--------------7-------|-7-------4----4---------|-4--------------6-------|
D|--------|--------|--------|------------------------|------------------------|------------------------|
A|--------|--------|--------|------------------------|------------------------|------------------------|
E|--------|--------|--------|------------------------|------------------------|------------------------|


E|-----------------------|----------0---0------------|-----0---------------------|
B|-7---7-------7---------|-----7------------7--------|----------7-------7--------|
G|---------6-------6-----|-6--------------------7----|-7------------4-------4----|
D|-----------------------|---------------------------|---------------------------|
A|-----------------------|---------------------------|---------------------------|
E|-----------------------|---------------------------|---------------------------|


E|-------0---0---------|-----0-----------------|-----0---------------------|-----0-------0-------------|
B|---------------------|-------------7---7-----|----------7---7--------7---|---------------------------|
G|-4--------------6----|-6-------6-------------|-6-----------------7-------|-7-------7-------4----4----|
D|---------------------|-----------------------|---------------------------|---------------------------|
A|---------------------|-----------------------|---------------------------|---------------------------|
E|---------------------|-----------------------|---------------------------|---------------------------|


E|----------0---0------------|-----------0-----------|-----0---------------------|
B|-----------------------7---|-7-----7-----------7---|----------7---7--------7---|
G|-4----4------------6-------|---------------6-------|-6-----------------7-------|
D|---------------------------|-----------------------|---------------------------|
A|---------------------------|-----------------------|---------------------------|
E|---------------------------|-----------------------|---------------------------|


E|-----0-------0-------------|------------------------|-----0--------------|--------|
B|---------------------------|-------7---7--------7---|-7--------7---------|--------|
G|-7-------7-------4----4----|-4--------------6-------|--------------------|--------|
D|---------------------------|------------------------|--------------------|--------|
A|---------------------------|------------------------|--------------------|--------|
E|---------------------------|------------------------|--------------------|--------|


E|--------|--------|--------|--------|--------|--------|--------|--------|--------|
B|--------|--------|--------|--------|--------|--------|--------|--------|--------|
G|--------|--------|--------|--------|--------|--------|--------|--------|--------|
D|--------|--------|--------|--------|--------|--------|--------|--------|--------|
A|--------|--------|--------|--------|--------|--------|--------|--------|--------|
E|--------|--------|--------|--------|--------|--------|--------|--------|--------|


E|--------|--------|--------|--------|--------|--------|-------------0---0---------|
B|--------|--------|--------|--------|--------|--------|-----7---------------------|
G|--------|--------|--------|--------|--------|--------|-6-------6------------7----|
D|--------|--------|--------|--------|--------|--------|---------------------------|
A|--------|--------|--------|--------|--------|--------|---------------------------|
E|--------|--------|--------|--------|--------|--------|---------------------------|


E|-----------------------0---|---------------------------|--------|-0------|-3------|
B|----------7----------------|-----7-------7---7---------|--------|-0------|-3------|
G|-7----7-------4----4-------|-4-------4-------------6---|-6------|-0------|-0------|
D|---------------------------|---------------------------|--------|-2------|-0------|
A|---------------------------|---------------------------|--------|-2------|-2------|
E|---------------------------|---------------------------|--------|-0------|-3------|


E|-2------|-3-----2-----|-0------|-3------|-2------|-3-----2-----|-0------|-3------|
B|-3------|-3-----3-----|-0------|-3------|-3------|-3-----3-----|-0------|-3------|
G|-2------|-2-----2-----|-0------|-0------|-2------|-2-----2-----|-0------|-0------|
D|-0------|-0-----0-----|-2------|-0------|-0------|-0-----0-----|-2------|-0------|
A|--------|-------------|-2------|-2------|--------|-------------|-2------|-2------|
E|--------|-------------|-0------|-3------|--------|-------------|-0------|-3------|


E|-2------|-3-----2-----|-0------|-3------|-2------|-0------|--------|--------|--------|
B|-3------|-3-----3-----|-0------|-3------|-3------|-2------|--------|--------|--------|
G|-2------|-2-----2-----|-0------|-0------|-2------|-2------|--------|--------|--------|
D|-0------|-0-----0-----|-2------|-0------|-0------|-2------|--------|--------|--------|
A|--------|-------------|-2------|-2------|--------|-0------|--------|--------|--------|
E|--------|-------------|-0------|-3------|--------|--------|--------|--------|--------|


E|--------|--------|--------|--------|--------|--------|--------|--------|--------|
B|--------|--------|--------|--------|--------|--------|--------|--------|--------|
G|--------|--------|--------|--------|--------|--------|--------|--------|--------|
D|--------|--------|--------|--------|--------|--------|--------|--------|--------|
A|--------|--------|--------|--------|--------|--------|--------|--------|--------|
E|--------|--------|--------|--------|--------|--------|--------|--------|--------|


E|--------|--------|--------|--------|--------|--------|--------|--------|--------|
B|--------|--------|--------|--------|--------|--------|--------|--------|--------|
G|--------|--------|--------|--------|--------|--------|--------|--------|--------|
D|--------|--------|--------|--------|--------|--------|--------|--------|--------|
A|--------|--------|--------|--------|--------|--------|--------|--------|--------|
E|--------|--------|--------|--------|--------|--------|--------|--------|--------|


E|--------|--------|--------|--------|--------|--------|--------|--------|--------|
B|--------|--------|--------|--------|--------|--------|--------|--------|--------|
G|--------|--------|--------|--------|--------|--------|--------|--------|--------|
D|--------|--------|--------|--------|--------|--------|--------|--------|--------|
A|--------|--------|--------|--------|--------|--------|--------|--------|--------|
E|--------|--------|--------|--------|--------|--------|--------|--------|--------|


E|--------|--------|--------|--------|--------|--------|---------------------------------|
B|--------|--------|--------|--------|--------|--------|-14--14--14--14--14--14--14--14--|
G|--------|--------|--------|--------|--------|--------|-14--14--14--14--14--14--14--14--|
D|--------|--------|--------|--------|--------|--------|---------------------------------|
A|--------|--------|--------|--------|--------|--------|---------------------------------|
E|--------|--------|--------|--------|--------|--------|---------------------------------|


E|--------|--------|--------|--------|--------|--------|
B|--------|--------|--------|--------|--------|--------|
G|--------|--------|--------|--------|--------|--------|
D|--------|--------|--------|--------|--------|--------|
A|--------|--------|--------|--------|--------|--------|
E|--------|--------|--------|--------|--------|--------|





Track 3: Edge Chorus Guitar

E|--------|--------|--------|--------|--------|--------|--------|--------|--------|
B|--------|--------|--------|--------|--------|--------|--------|--------|--------|
G|--------|--------|--------|--------|--------|--------|--------|--------|--------|
D|--------|--------|--------|--------|--------|--------|--------|--------|--------|
A|--------|--------|--------|--------|--------|--------|--------|--------|--------|
E|--------|--------|--------|--------|--------|--------|--------|--------|--------|


E|--------|--------|--------|--------|--------|--------|--------|--------|--------|
B|--------|--------|--------|--------|--------|--------|--------|--------|--------|
G|--------|--------|--------|--------|--------|--------|--------|--------|--------|
D|--------|--------|--------|--------|--------|--------|--------|--------|--------|
A|--------|--------|--------|--------|--------|--------|--------|--------|--------|
E|--------|--------|--------|--------|--------|--------|--------|--------|--------|


E|--------|--------|--------|--------|--------|--------|--------|--------|--------|
B|--------|--------|--------|--------|--------|--------|--------|--------|--------|
G|--------|--------|--------|--------|--------|--------|--------|--------|--------|
D|--------|--------|--------|--------|--------|--------|--------|--------|--------|
A|--------|--------|--------|--------|--------|--------|--------|--------|--------|
E|--------|--------|--------|--------|--------|--------|--------|--------|--------|


E|--------|--------|--------|--------|--------|------------------------------|------------------------------|
B|--------|--------|--------|--------|--------|------------------------------|------------------------------|
G|--------|--------|--------|--------|--------|------------------------------|------------------------------|
D|--------|--------|--------|--------|--------|-7---7---7---9---9---9---12---|-12--5---5---5---5---5---5----|
A|--------|--------|--------|--------|--------|-7---7---7---9---9---9---12---|-12--5---5---5---5---5---5----|
E|--------|--------|--------|--------|--------|-5---5---5---7---7---7---10---|-10--3---3---3---3---3---3----|


E|------------------------------|------------------------------|------------------------------|
B|------------------------------|------------------------------|------------------------------|
G|------------------------------|------------------------------|------------------------------|
D|-12--12--12--12--12--12--7----|-7---7---7---7---7---7---7----|-7---7---7---9---9---9---12---|
A|-12--12--12--12--12--12--7----|-7---7---7---7---7---7---7----|-7---7---7---9---9---9---12---|
E|-10--10--10--10--10--10--5----|-5---5---5---5---5---5---5----|-5---5---5---7---7---7---10---|


E|------------------------------|------------------------------|------------------------------|
B|------------------------------|------------------------------|------------------------------|
G|------------------------------|------------------------------|------------------------------|
D|-12--5---5---5---5---5---5----|-12--12--12--12--12--12--7----|-7---7---7---7---7---7---7----|
A|-12--5---5---5---5---5---5----|-12--12--12--12--12--12--7----|-7---7---7---7---7---7---7----|
E|-10--3---3---3---3---3---3----|-10--10--10--10--10--10--5----|-5---5---5---5---5---5---5----|


E|--------|--------|--------|--------|--------|--------|--------|--------|--------|
B|--------|--------|--------|--------|--------|--------|--------|--------|--------|
G|--------|--------|--------|--------|--------|--------|--------|--------|--------|
D|--------|--------|--------|--------|--------|--------|--------|--------|--------|
A|--------|--------|--------|--------|--------|--------|--------|--------|--------|
E|--------|--------|--------|--------|--------|--------|--------|--------|--------|


E|--------|--------|--------|--------|--------|--------|--------|------------------------------|
B|--------|--------|--------|--------|--------|--------|--------|------------------------------|
G|--------|--------|--------|--------|--------|--------|--------|------------------------------|
D|--------|--------|--------|--------|--------|--------|--------|-7---7---7---9---9---9---12---|
A|--------|--------|--------|--------|--------|--------|--------|-7---7---7---9---9---9---12---|
E|--------|--------|--------|--------|--------|--------|--------|-5---5---5---7---7---7---10---|


E|------------------------------|------------------------------|------------------------------|
B|------------------------------|------------------------------|------------------------------|
G|------------------------------|------------------------------|------------------------------|
D|-12--5---5---5---5---5---5----|-12--12--12--12--12--12--7----|-7---7---7---7---7---7---7----|
A|-12--5---5---5---5---5---5----|-12--12--12--12--12--12--7----|-7---7---7---7---7---7---7----|
E|-10--3---3---3---3---3---3----|-10--10--10--10--10--10--5----|-5---5---5---5---5---5---5----|


E|------------------------------|------------------------------|------------------------------|
B|------------------------------|------------------------------|------------------------------|
G|------------------------------|------------------------------|------------------------------|
D|-7---7---7---9---9---9---12---|-12--5---5---5---5---5---5----|-12--12--12--12--12--12--7----|
A|-7---7---7---9---9---9---12---|-12--5---5---5---5---5---5----|-12--12--12--12--12--12--7----|
E|-5---5---5---7---7---7---10---|-10--3---3---3---3---3---3----|-10--10--10--10--10--10--5----|


E|------------------------------|--------|--------|--------|--------|--------|--------|
B|------------------------------|--------|--------|--------|--------|--------|--------|
G|------------------------------|--------|--------|--------|--------|--------|--------|
D|-7---7---7---7---7---7---7----|--------|--------|--------|--------|--------|--------|
A|-7---7---7---7---7---7---7----|--------|--------|--------|--------|--------|--------|
E|-5---5---5---5---5---5---5----|--------|--------|--------|--------|--------|--------|


E|--------|--------|--------|--------|--------|--------|-5------------5---------|-3------------2---------------|
B|--------|--------|--------|--------|--------|--------|-3----------------------|----------0-------0-------3---|
G|--------|--------|--------|--------|--------|--------|-4--------4-------------|------0---------------0-------|
D|--------|--------|--------|--------|--------|--------|-5----5------------5----|------------------------------|
A|--------|--------|--------|--------|--------|--------|------------------------|------------------------------|
E|--------|--------|--------|--------|--------|--------|------------------------|------------------------------|


E|-5-------------------------|-3-----2-----|-5----------------------|-3------------2------------|
B|-3--------3---3--------3---|-------------|-3--------3-------------|----------3------------0---|
G|-2----2-----------2--------|-------------|-4------------4---------|------0------------0-------|
D|-0-------------------------|-------------|-5----5------------5----|---------------------------|
A|---------------------------|-------------|------------------------|---------------------------|
E|---------------------------|-------------|------------------------|---------------------------|


E|-5-------------------------|-3-----2-----|-5------------5---------|-3------------2---------------|
B|-3--------3---3--------3---|-------------|-3----------------------|----------0-------0-------3---|
G|-2----2-----------2--------|-------------|-4--------4-------------|------0---------------0-------|
D|---------------------------|-------------|-5----5------------5----|------------------------------|
A|---------------------------|-------------|------------------------|------------------------------|
E|---------------------------|-------------|------------------------|------------------------------|


E|-5-------------------------|-3-----2-----|-5----------------------|-3------------2------------|
B|-3--------3---3--------3---|-------------|-3--------3-------------|----------3------------0---|
G|-2----2-----------2--------|-------------|-4------------4---------|------0------------0-------|
D|-0-------------------------|-------------|-5----5------------5----|---------------------------|
A|---------------------------|-------------|------------------------|---------------------------|
E|---------------------------|-------------|------------------------|---------------------------|


E|-5-------------------------|-0------|--------|--------|--------|-----------------------|
B|-3--------3---3--------3---|-2------|--------|--------|--------|-----------------------|
G|-2----2-----------2--------|-2------|--------|--------|--------|-----------------------|
D|---------------------------|-2------|--------|--------|--------|-------7---7---7---7---|
A|---------------------------|-0------|--------|--------|--------|-------7---7---7---7---|
E|---------------------------|--------|--------|--------|--------|-------5---5---5---5---|


E|------------------------------|------------------------------|------------------------------|
B|------------------------------|------------------------------|------------------------------|
G|------------------------------|------------------------------|------------------------------|
D|-7---7---7---9---9---9---12---|-12--5---5---5---5---5---5----|-12--12--12--12--12--12--7----|
A|-7---7---7---9---9---9---12---|-12--5---5---5---5---5---5----|-12--12--12--12--12--12--7----|
E|-5---5---5---7---7---7---10---|-10--3---3---3---3---3---3----|-10--10--10--10--10--10--5----|


E|------------------------------|------------------------------|------------------------------|
B|------------------------------|------------------------------|------------------------------|
G|------------------------------|------------------------------|------------------------------|
D|-7---7---7---7---7---7---7----|-7---7---7---9---9---9---12---|-12--5---5---5---5---5---5----|
A|-7---7---7---7---7---7---7----|-7---7---7---9---9---9---12---|-12--5---5---5---5---5---5----|
E|-5---5---5---5---5---5---5----|-5---5---5---7---7---7---10---|-10--3---3---3---3---3---3----|


E|------------------------------|------------------------------|--------|--------|
B|------------------------------|------------------------------|--------|--------|
G|------------------------------|------------------------------|--------|--------|
D|-12--12--12--12--12--12--7----|-7---7---7---7---7---7---7----|--------|--------|
A|-12--12--12--12--12--12--7----|-7---7---7---7---7---7---7----|--------|--------|
E|-10--10--10--10--10--10--5----|-5---5---5---5---5---5---5----|--------|--------|


E|--------|--------|--------|--------|--------|--------|--------|--------|--------|
B|--------|--------|--------|--------|--------|--------|--------|--------|--------|
G|--------|--------|--------|--------|--------|--------|--------|--------|--------|
D|--------|--------|--------|--------|--------|--------|--------|--------|--------|
A|--------|--------|--------|--------|--------|--------|--------|--------|--------|
E|--------|--------|--------|--------|--------|--------|--------|--------|--------|


E|--------|--------|--------|--------|--------|--------|--------|--------|--------|
B|--------|--------|--------|--------|--------|--------|--------|--------|--------|
G|--------|--------|--------|--------|--------|--------|--------|--------|--------|
D|--------|--------|--------|--------|--------|--------|--------|--------|--------|
A|--------|--------|--------|--------|--------|--------|--------|--------|--------|
E|--------|--------|--------|--------|--------|--------|--------|--------|--------|


E|--------|--------|--------|--------|--------|--------|--------|--------|--------|
B|--------|--------|--------|--------|--------|--------|--------|--------|--------|
G|--------|--------|--------|--------|--------|--------|--------|--------|--------|
D|--------|--------|--------|--------|--------|--------|--------|--------|--------|
A|--------|--------|--------|--------|--------|--------|--------|--------|--------|
E|--------|--------|--------|--------|--------|--------|--------|--------|--------|


E|--------|--------|
B|--------|--------|
G|--------|--------|
D|--------|--------|
A|--------|--------|
E|--------|--------|





Track 4: "Solo" Riff

E|--------|--------|--------|--------|--------|--------|--------|--------|--------|
B|--------|--------|--------|--------|--------|--------|--------|--------|--------|
G|--------|--------|--------|--------|--------|--------|--------|--------|--------|
D|--------|--------|--------|--------|--------|--------|--------|--------|--------|
A|--------|--------|--------|--------|--------|--------|--------|--------|--------|
E|--------|--------|--------|--------|--------|--------|--------|--------|--------|


E|--------|--------|--------|--------|--------|--------|--------|--------|--------|
B|--------|--------|--------|--------|--------|--------|--------|--------|--------|
G|--------|--------|--------|--------|--------|--------|--------|--------|--------|
D|--------|--------|--------|--------|--------|--------|--------|--------|--------|
A|--------|--------|--------|--------|--------|--------|--------|--------|--------|
E|--------|--------|--------|--------|--------|--------|--------|--------|--------|


E|--------|--------|--------|--------|--------|--------|--------|--------|--------|
B|--------|--------|--------|--------|--------|--------|--------|--------|--------|
G|--------|--------|--------|--------|--------|--------|--------|--------|--------|
D|--------|--------|--------|--------|--------|--------|--------|--------|--------|
A|--------|--------|--------|--------|--------|--------|--------|--------|--------|
E|--------|--------|--------|--------|--------|--------|--------|--------|--------|


E|--------|--------|--------|--------|--------|--------|--------|--------|--------|
B|--------|--------|--------|--------|--------|--------|--------|--------|--------|
G|--------|--------|--------|--------|--------|--------|--------|--------|--------|
D|--------|--------|--------|--------|--------|--------|--------|--------|--------|
A|--------|--------|--------|--------|--------|--------|--------|--------|--------|
E|--------|--------|--------|--------|--------|--------|--------|--------|--------|


E|--------|--------|--------|--------|--------|--------|--------|--------|--------|
B|--------|--------|--------|--------|--------|--------|--------|--------|--------|
G|--------|--------|--------|--------|--------|--------|--------|--------|--------|
D|--------|--------|--------|--------|--------|--------|--------|--------|--------|
A|--------|--------|--------|--------|--------|--------|--------|--------|--------|
E|--------|--------|--------|--------|--------|--------|--------|--------|--------|


E|--------|--------|--------|--------|--------|--------|--------|--------|--------|
B|--------|--------|--------|--------|--------|--------|--------|--------|--------|
G|--------|--------|--------|--------|--------|--------|--------|--------|--------|
D|--------|--------|--------|--------|--------|--------|--------|--------|--------|
A|--------|--------|--------|--------|--------|--------|--------|--------|--------|
E|--------|--------|--------|--------|--------|--------|--------|--------|--------|


E|--------|--------|--------|--------|--------|--------|--------|--------|--------|
B|--------|--------|--------|--------|--------|--------|--------|--------|--------|
G|--------|--------|--------|--------|--------|--------|--------|--------|--------|
D|--------|--------|--------|--------|--------|--------|--------|--------|--------|
A|--------|--------|--------|--------|--------|--------|--------|--------|--------|
E|--------|--------|--------|--------|--------|--------|--------|--------|--------|


E|--------|---------------------------------|---------------------------------|---------------------------------|
B|--------|-14--14--14--12--12--14------15--|-15--15--15--15--15--15--15------|-15--15------14--14--15------14--|
G|--------|-14--14--14--14--14------14--14--|-14--12--12--12--12--12--12--14--|-12--12------14--14--14--14--14--|
D|--------|-------------------------14------|---------------------------------|---------14--------------14------|
A|--------|---------------------------------|---------------------------------|---------------------------------|
E|--------|---------------------------------|---------------------------------|---------------------------------|


E|---------------------------------|---------------------------------|---------------------------------|
B|-14--12--14--12--14--14--14--12--|-14--14--14--12--12--14------15--|-15--15--15--15--15--15--15------|
G|-14--14--14------14--14--14--14--|-14--14--14--14--14------14--14--|-14--12--12--12--12--12--12--14--|
D|---------------------------------|-------------------------14------|---------------------------------|
A|---------------------------------|---------------------------------|---------------------------------|
E|---------------------------------|---------------------------------|---------------------------------|


E|---------------------------------|------------------------------|--------|--------|
B|-15--15------14--14--15------14--|-14--12--14---14--12--14--12--|--------|--------|
G|-12--12------14--14--14--14--14--|-14--14--14---14------14------|--------|--------|
D|---------14--------------14------|------------------------------|--------|--------|
A|---------------------------------|------------------------------|--------|--------|
E|---------------------------------|------------------------------|--------|--------|


E|--------|--------|--------|--------|--------|--------|--------|--------|--------|
B|--------|--------|--------|--------|--------|--------|--------|--------|--------|
G|--------|--------|--------|--------|--------|--------|--------|--------|--------|
D|--------|--------|--------|--------|--------|--------|--------|--------|--------|
A|--------|--------|--------|--------|--------|--------|--------|--------|--------|
E|--------|--------|--------|--------|--------|--------|--------|--------|--------|


E|--------|--------|--------|--------|--------|--------|--------|--------|--------|
B|--------|--------|--------|--------|--------|--------|--------|--------|--------|
G|--------|--------|--------|--------|--------|--------|--------|--------|--------|
D|--------|--------|--------|--------|--------|--------|--------|--------|--------|
A|--------|--------|--------|--------|--------|--------|--------|--------|--------|
E|--------|--------|--------|--------|--------|--------|--------|--------|--------|


E|--------|--------|--------|--------|--------|--------|--------|--------|--------|
B|--------|--------|--------|--------|--------|--------|--------|--------|--------|
G|--------|--------|--------|--------|--------|--------|--------|--------|--------|
D|--------|--------|--------|--------|--------|--------|--------|--------|--------|
A|--------|--------|--------|--------|--------|--------|--------|--------|--------|
E|--------|--------|--------|--------|--------|--------|--------|--------|--------|


E|--------|--------|--------|---------------------------------|---------------------------------|
B|--------|--------|--------|-14--14--14--12--12--14--15--15--|-15--15--15--15--15--15--15------|
G|--------|--------|--------|-14--14--14--14--14--14--14--14--|-14--12--12--12--12--12--12--14--|
D|--------|--------|--------|---------------------------------|---------------------------------|
A|--------|--------|--------|---------------------------------|---------------------------------|
E|--------|--------|--------|---------------------------------|---------------------------------|


E|---------------------------------|------------------------------|---------------------------------|
B|-15--15--15--14--14--15--14--14--|-14--14---12--14--12--14--12--|-14--14--14--12--12--14--15--15--|
G|-14--14--14--14--14--14--14--14--|-14--14---14--14--14--14--14--|-14--14--14--14--14--14--14--14--|
D|---------------------------------|------------------------------|---------------------------------|
A|---------------------------------|------------------------------|---------------------------------|
E|---------------------------------|------------------------------|---------------------------------|


E|---------------------------------|---------------------------------|---------------------------|
B|-15--15--15--15--15--15--15------|-15--15--15--14--14--15--14--14--|-14--12---14--14--12--14---|
G|-14--12--12--12--12--12--12--14--|-14--14--14--14--14--14--14--14--|-14--14---14--14--14--14---|
D|---------------------------------|---------------------------------|---------------------------|
A|---------------------------------|---------------------------------|---------------------------|
E|---------------------------------|---------------------------------|---------------------------|


E|---------------------------------|---------------------------------|---------------------------------|
B|-----7-------7-------7-------7---|-----7-------7-------7-------7---|-----7-------7-------7-------7---|
G|-6-------6-------6-------6-------|-7-------7-------7-------7-------|-9-------9-------9-------9-------|
D|---------------------------------|---------------------------------|---------------------------------|
A|---------------------------------|---------------------------------|---------------------------------|
E|---------------------------------|---------------------------------|---------------------------------|


E|------------------------------|---------------------------------|---------------------------------|
B|-----7-------7-------7--------|-----7-------7-------7-------7---|-----7-------7-------7-------7---|
G|-9-------9-------9-------9----|-6-------6-------6-------6-------|-7-------7-------7-------7-------|
D|------------------------------|---------------------------------|---------------------------------|
A|------------------------------|---------------------------------|---------------------------------|
E|------------------------------|---------------------------------|---------------------------------|


E|---------------------------------|------------------------------|---------------------------------|
B|-----7-------7-------7-------7---|-----7-------7-------7--------|-14--14--14--12--12--14--15--15--|
G|-9-------9-------9-------9-------|-9-------9-------9-------9----|-14--14--14--14--14--14--14--14--|
D|---------------------------------|------------------------------|---------------------------------|
A|---------------------------------|------------------------------|---------------------------------|
E|---------------------------------|------------------------------|---------------------------------|


E|---------------------------------|---------------------------------|---------------------------------|
B|-15--15--15--15--15--15--15------|-15--15--15--14--14--15--14--14--|-14--12--14--12--14--12--14--12--|
G|-14--12--12--12--12--12--12--14--|-14--14--14--14--14--14--14--14--|-14--14--14------14------14------|
D|---------------------------------|---------------------------------|---------------------------------|
A|---------------------------------|---------------------------------|---------------------------------|
E|---------------------------------|---------------------------------|---------------------------------|


E|---------------------------------|---------------------------------|---------------------------------|
B|-14--14--14--12--12--14--15--15--|-15--15--15--15--15--15--15------|-15--15--15--14--14--15--14--14--|
G|-14--14--14--14--14--14--14--14--|-14--12--12--12--12--12--12--14--|-14--14--14--14--14--14--14--14--|
D|---------------------------------|---------------------------------|---------------------------------|
A|---------------------------------|---------------------------------|---------------------------------|
E|---------------------------------|---------------------------------|---------------------------------|


E|---------------------------------|---------------------|-------------|-------------|
B|-14--12--14--12--14--12--14--12--|---------------------|-------------|-------------|
G|-14--14--14------14------14------|-6-----7---7----11---|-11---4------|-11-----6----|
D|---------------------------------|-7-----9---9----12---|-12---5------|-12-----7----|
A|---------------------------------|---------------------|-------------|-------------|
E|---------------------------------|-5-----7---7----10---|-10---3------|-10-----5----|


E|-------------|---------------------|---------------------|-----------3-----|
B|-------------|---------------------|---------------------|------3----------|
G|-6-----6-----|-6-----7---7----11---|-11---4--------------|-4---------------|
D|-7-----7-----|-7-----9---9----12---|-12---5--------------|-----------------|
A|-------------|---------------------|----------------5----|-----------------|
E|-5-----5-----|-5-----7---7----10---|-10---3----3---------|-----------------|





Track 5: Piano Intro

E|--------|--------|--------|--------|--------|--------|--------|--------|--------|
B|--------|--------|--------|--------|--------|--------|--------|--------|--------|
G|--------|--------|--------|--------|--------|--------|--------|--------|--------|
D|--------|--------|--------|--------|--------|--------|--------|--------|--------|
A|--------|--------|--------|--------|--------|--------|--------|--------|--------|
E|--------|--------|--------|--------|--------|--------|--------|--------|--------|


E|--------|--------|--------|--------|--------|--------|--------|--------|--------|
B|--------|--------|--------|--------|--------|--------|--------|--------|--------|
G|--------|--------|--------|--------|--------|--------|--------|--------|--------|
D|--------|--------|--------|--------|--------|--------|--------|--------|--------|
A|--------|--------|--------|--------|--------|--------|--------|--------|--------|
E|--------|--------|--------|--------|--------|--------|--------|--------|--------|


E|--------|--------|--------|--------|--------|--------|--------|--------|--------|
B|--------|--------|--------|--------|--------|--------|--------|--------|--------|
G|--------|--------|--------|--------|--------|--------|--------|--------|--------|
D|--------|--------|--------|--------|--------|--------|--------|--------|--------|
A|--------|--------|--------|--------|--------|--------|--------|--------|--------|
E|--------|--------|--------|--------|--------|--------|--------|--------|--------|


E|--------|--------|--------|--------|--------|--------|--------|--------|--------|
B|--------|--------|--------|--------|--------|--------|--------|--------|--------|
G|--------|--------|--------|--------|--------|--------|--------|--------|--------|
D|--------|--------|--------|--------|--------|--------|--------|--------|--------|
A|--------|--------|--------|--------|--------|--------|--------|--------|--------|
E|--------|--------|--------|--------|--------|--------|--------|--------|--------|


E|--------|--------|--------|--------|--------|--------|--------|--------|--------|
B|--------|--------|--------|--------|--------|--------|--------|--------|--------|
G|--------|--------|--------|--------|--------|--------|--------|--------|--------|
D|--------|--------|--------|--------|--------|--------|--------|--------|--------|
A|--------|--------|--------|--------|--------|--------|--------|--------|--------|
E|--------|--------|--------|--------|--------|--------|--------|--------|--------|


E|--------|--------|--------|--------|--------|--------|--------|--------|--------|
B|--------|--------|--------|--------|--------|--------|--------|--------|--------|
G|--------|--------|--------|--------|--------|--------|--------|--------|--------|
D|--------|--------|--------|--------|--------|--------|--------|--------|--------|
A|--------|--------|--------|--------|--------|--------|--------|--------|--------|
E|--------|--------|--------|--------|--------|--------|--------|--------|--------|


E|--------|--------|--------|--------|--------|--------|--------|--------|--------|
B|--------|--------|--------|--------|--------|--------|--------|--------|--------|
G|--------|--------|--------|--------|--------|--------|--------|--------|--------|
D|--------|--------|--------|--------|--------|--------|--------|--------|--------|
A|--------|--------|--------|--------|--------|--------|--------|--------|--------|
E|--------|--------|--------|--------|--------|--------|--------|--------|--------|


E|--------|--------|--------|--------|--------|--------|--------|--------|--------|
B|--------|--------|--------|--------|--------|--------|--------|--------|--------|
G|--------|--------|--------|--------|--------|--------|--------|--------|--------|
D|--------|--------|--------|--------|--------|--------|--------|--------|--------|
A|--------|--------|--------|--------|--------|--------|--------|--------|--------|
E|--------|--------|--------|--------|--------|--------|--------|--------|--------|


E|--------|--------|--------|--------|--------|--------|--------|--------|--------|
B|--------|--------|--------|--------|--------|--------|--------|--------|--------|
G|--------|--------|--------|--------|--------|--------|--------|--------|--------|
D|--------|--------|--------|--------|--------|--------|--------|--------|--------|
A|--------|--------|--------|--------|--------|--------|--------|--------|--------|
E|--------|--------|--------|--------|--------|--------|--------|--------|--------|


E|--------|--------|--------|--------|--------|--------|--------|--------|--------|
B|--------|--------|--------|--------|--------|--------|--------|--------|--------|
G|--------|--------|--------|--------|--------|--------|--------|--------|--------|
D|--------|--------|--------|--------|--------|--------|--------|--------|--------|
A|--------|--------|--------|--------|--------|--------|--------|--------|--------|
E|--------|--------|--------|--------|--------|--------|--------|--------|--------|


E|--------|--------|--------|--------|--------|--------|--------|--------|--------|
B|--------|--------|--------|--------|--------|--------|--------|--------|--------|
G|--------|--------|--------|--------|--------|--------|--------|--------|--------|
D|--------|--------|--------|--------|--------|--------|--------|--------|--------|
A|--------|--------|--------|--------|--------|--------|--------|--------|--------|
E|--------|--------|--------|--------|--------|--------|--------|--------|--------|


E|--------|--------|--------|--------|--------|--------|--------|--------|--------|
B|--------|--------|--------|--------|--------|--------|--------|--------|--------|
G|--------|--------|--------|--------|--------|--------|--------|--------|--------|
D|--------|--------|--------|--------|--------|--------|--------|--------|--------|
A|--------|--------|--------|--------|--------|--------|--------|--------|--------|
E|--------|--------|--------|--------|--------|--------|--------|--------|--------|


E|--------|--------|--------|--------|--------|--------|--------|--------|--------|
B|--------|--------|--------|--------|--------|--------|--------|--------|--------|
G|--------|--------|--------|--------|--------|--------|--------|--------|--------|
D|--------|--------|--------|--------|--------|--------|--------|--------|--------|
A|--------|--------|--------|--------|--------|--------|--------|--------|--------|
E|--------|--------|--------|--------|--------|--------|--------|--------|--------|


E|--------|--------|--------|--------|--------|--------|--------|--------|--------|
B|--------|--------|--------|--------|--------|--------|--------|--------|--------|
G|--------|--------|--------|--------|--------|--------|--------|--------|--------|
D|--------|--------|--------|--------|--------|--------|--------|--------|--------|
A|--------|--------|--------|--------|--------|--------|--------|--------|--------|
E|--------|--------|--------|--------|--------|--------|--------|--------|--------|


E|--------|--------|--------|--------|--------|--------|--------|--------|--------|
B|--------|--------|--------|--------|--------|--------|--------|--------|--------|
G|--------|--------|--------|--------|--------|--------|--------|--------|--------|
D|--------|--------|--------|--------|--------|--------|--------|--------|--------|
A|--------|--------|--------|--------|--------|--------|--------|--------|--------|
E|--------|--------|--------|--------|--------|--------|--------|--------|--------|





Track 6: Adam (Left)

G|--------|--------|--------|--------|--------|--------|--------|--------|---------------------------------|
D|--------|--------|--------|--------|--------|--------|--------|--------|---------------------------------|
A|--------|--------|--------|--------|--------|--------|--------|--------|-------------------------5---5---|
E|--------|--------|--------|--------|--------|--------|--------|--------|-5---5---5---7---7---7-----------|


G|---------------------------------|---------------------------------|---------------------------------|
D|---------5---5---5---5---5---5---|---------------------------------|---------------------------------|
A|-5---5---------------------------|-5---5---5---5---5---5-----------|---------------------------------|
E|---------------------------------|-------------------------5---5---|-5---5---5---5---5---5---5---5---|


G|---------------------------------|---------------------------------|---------------------------------|
D|---------------------------------|---------5---5---5---5---5---5---|---------------------------------|
A|-------------------------5---5---|-5---5---------------------------|-5---5---5---5---5---5-----------|
E|-5---5---5---7---7---7-----------|---------------------------------|-------------------------5---5---|


G|---------------------------------|---------------------------------|---------------------------------|
D|---------------------------------|---------------------------------|---------5---5---5---5---5---5---|
A|---------------------------------|-------------------------5---5---|-5---5---------------------------|
E|-5---5---5---5---5---5---5---5---|-5---5---5---7---7---7-----------|---------------------------------|


G|---------------------------------|---------------------------------|---------------------------------|
D|---------------------------------|---------------------------------|---------------------------------|
A|-5---5---5---5---5---5-----------|---------------------------------|-------------------------5---5---|
E|-------------------------5---5---|-5---5---5---5---5---5---5---5---|-5---5---5---7---7---7-----------|


G|---------------------------------|---------------------------------|---------------------------------|
D|---------5---5---5---5---5---5---|---------------------------------|---------------------------------|
A|-5---5---------------------------|-5---5---5---5---5---5-----------|---------------------------------|
E|---------------------------------|-------------------------5---5---|-5---5---5---5---5---5---5---5---|


G|---------------------------------|---------------------------------|---------------------------------|
D|---------------------------------|---------5---5---5---5---5---5---|---------------------------------|
A|-------------------------5---5---|-5---5---------------------------|-5---5---5---5---5---5-----------|
E|-5---5---5---7---7---7-----------|---------------------------------|-------------------------5---5---|


G|---------------------------------|---------------------------------|---------------------------------|
D|---------------------------------|---------------------------------|---------5---5---5---5---5---5---|
A|---------------------------------|-------------------------5---5---|-5---5---------------------------|
E|-5---5---5---5---5---5---5---5---|-5---5---5---7---7---7-----------|---------------------------------|


G|---------------------------------|---------------------------------|--------|--------|
D|---------------------------------|---------------------------------|--------|--------|
A|-5---5---5---5---5---5-----------|---------------------------------|--------|--------|
E|-------------------------5---5---|-5---5---5---5---5---5---5---5---|--------|--------|


G|--------|--------|--------|--------|--------|--------|---------------------------------|
D|--------|--------|--------|--------|--------|--------|---------------------------------|
A|--------|--------|--------|--------|--------|--------|-------------------------5---5---|
E|--------|--------|--------|--------|--------|--------|-5---5---5---7---7---7-----------|


G|---------------------------------|---------------------------------|---------------------------------|
D|---------5---5---5---5---5---5---|---------------------------------|---------------------------------|
A|-5---5---------------------------|-5---5---5---5---5---5-----------|---------------------------------|
E|---------------------------------|-------------------------5---5---|-5---5---5---5---5---5---5---5---|


G|---------------------------------|---------------------------------|---------------------------------|
D|---------------------------------|---------5---5---5---5---5---5---|---------------------------------|
A|-------------------------5---5---|-5---5---------------------------|-5---5---5---5---5---5-----------|
E|-5---5---5---7---7---7-----------|---------------------------------|-------------------------5---5---|


G|---------------------------------|---------------------------------|---------------------------------|
D|---------------------------------|---------------------------------|---------5---5---5---5---5---5---|
A|---------------------------------|-------------------------5---5---|-5---5---------------------------|
E|-5---5---5---5---5---5---5---5---|-5---5---5---7---7---7-----------|---------------------------------|


G|---------------------------------|---------------------------------|---------------------------------|
D|---------------------------------|---------------------------------|---------------------------------|
A|-5---5---5---5---5---5-----------|---------------------------------|-------------------------5---5---|
E|-------------------------5---5---|-5---5---5---5---5---5---5---5---|-5---5---5---7---7---7-----------|


G|---------------------------------|---------------------------------|---------------------------------|
D|---------5---5---5---5---5---5---|---------------------------------|---------------------------------|
A|-5---5---------------------------|-5---5---5---5---5---5-----------|---------------------------------|
E|---------------------------------|-------------------------5---5---|-5---5---5---5---5---5---5---5---|


G|--------|--------|--------|--------|--------|--------|--------|--------|--------|
D|--------|--------|--------|--------|--------|--------|--------|--------|--------|
A|--------|--------|--------|--------|--------|--------|--------|--------|--------|
E|--------|--------|--------|--------|--------|--------|--------|--------|--------|


G|--------|--------|--------|--------|--------|--------|--------|---------------------------------|
D|--------|--------|--------|--------|--------|--------|--------|---------------------------------|
A|--------|--------|--------|--------|--------|--------|--------|-------------------------5---5---|
E|--------|--------|--------|--------|--------|--------|--------|-5---5---5---7---7---7-----------|


G|---------------------------------|---------------------------------|---------------------------------|
D|---------5---5---5---5---5---5---|---------------------------------|---------------------------------|
A|-5---5---------------------------|-5---5---5---5---5---5-----------|---------------------------------|
E|---------------------------------|-------------------------5---5---|-5---5---5---5---5---5---5---5---|


G|--------|--------|--------|--------|--------|--------|--------|--------|--------|
D|--------|--------|--------|--------|--------|--------|--------|--------|--------|
A|--------|--------|--------|--------|--------|--------|--------|--------|--------|
E|--------|--------|--------|--------|--------|--------|--------|--------|--------|


G|--------|--------|--------|--------|--------|--------|--------|--------|--------|
D|--------|--------|--------|--------|--------|--------|--------|--------|--------|
A|--------|--------|--------|--------|--------|--------|--------|--------|--------|
E|--------|--------|--------|--------|--------|--------|--------|--------|--------|


G|--------|--------|--------|--------|--------|--------|--------|--------|--------|
D|--------|--------|--------|--------|--------|--------|--------|--------|--------|
A|--------|--------|--------|--------|--------|--------|--------|--------|--------|
E|--------|--------|--------|--------|--------|--------|--------|--------|--------|


G|--------|--------|--------|--------|--------|--------|--------|--------|--------|
D|--------|--------|--------|--------|--------|--------|--------|--------|--------|
A|--------|--------|--------|--------|--------|--------|--------|--------|--------|
E|--------|--------|--------|--------|--------|--------|--------|--------|--------|


G|--------|--------|--------|--------|--------|--------|--------|--------|--------|
D|--------|--------|--------|--------|--------|--------|--------|--------|--------|
A|--------|--------|--------|--------|--------|--------|--------|--------|--------|
E|--------|--------|--------|--------|--------|--------|--------|--------|--------|


G|--------|--------|--------|--------|--------|--------|--------|--------|--------|
D|--------|--------|--------|--------|--------|--------|--------|--------|--------|
A|--------|--------|--------|--------|--------|--------|--------|--------|--------|
E|--------|--------|--------|--------|--------|--------|--------|--------|--------|


G|--------|--------|--------|--------|--------|
D|--------|--------|--------|--------|--------|
A|--------|--------|--------|--------|--------|
E|--------|--------|--------|--------|--------|





Track 7: Adam (Right)

G|--------|--------|--------|--------|--------|--------|--------|--------|--------|
D|--------|--------|--------|--------|--------|--------|--------|--------|--------|
A|--------|--------|--------|--------|--------|--------|--------|--------|--------|
E|--------|--------|--------|--------|--------|--------|--------|--------|--------|


G|--------|--------|--------|--------|--------|--------|--------|--------|--------|
D|--------|--------|--------|--------|--------|--------|--------|--------|--------|
A|--------|--------|--------|--------|--------|--------|--------|--------|--------|
E|--------|--------|--------|--------|--------|--------|--------|--------|--------|


G|--------|--------|--------|--------|--------|--------|--------|--------|--------|
D|--------|--------|--------|--------|--------|--------|--------|--------|--------|
A|--------|--------|--------|--------|--------|--------|--------|--------|--------|
E|--------|--------|--------|--------|--------|--------|--------|--------|--------|


G|--------|--------|--------|--------|--------|---------------------------------|---------------------------------|
D|--------|--------|--------|--------|--------|---------------------------------|---------5---5---5---5---5---5---|
A|--------|--------|--------|--------|--------|-------------------------5---5---|-5---5---------------------------|
E|--------|--------|--------|--------|--------|-5---5---5---7---7---7-----------|---------------------------------|


G|---------------------------------|---------------------------------|---------------------------------|
D|---------------------------------|---------------------------------|---------------------------------|
A|-5---5---5---5---5---5-----------|---------------------------------|-------------------------5---5---|
E|-------------------------5---5---|-5---5---5---5---5---5---5---5---|-5---5---5---7---7---7-----------|


G|---------------------------------|---------------------------------|---------------------------------|
D|---------5---5---5---5---5---5---|---------------------------------|---------------------------------|
A|-5---5---------------------------|-5---5---5---5---5---5-----------|---------------------------------|
E|---------------------------------|-------------------------5---5---|-5---5---5---5---5---5---5---5---|


G|--------|--------|--------|--------|--------|--------|--------|--------|--------|
D|--------|--------|--------|--------|--------|--------|--------|--------|--------|
A|--------|--------|--------|--------|--------|--------|--------|--------|--------|
E|--------|--------|--------|--------|--------|--------|--------|--------|--------|


G|--------|--------|--------|--------|--------|--------|--------|---------------------------------|
D|--------|--------|--------|--------|--------|--------|--------|---------------------------------|
A|--------|--------|--------|--------|--------|--------|--------|-------------------------5---5---|
E|--------|--------|--------|--------|--------|--------|--------|-5---5---5---7---7---7-----------|


G|---------------------------------|---------------------------------|---------------------------------|
D|---------5---5---5---5---5---5---|---------------------------------|---------------------------------|
A|-5---5---------------------------|-5---5---5---5---5---5-----------|---------------------------------|
E|---------------------------------|-------------------------5---5---|-5---5---5---5---5---5---5---5---|


G|---------------------------------|---------------------------------|---------------------------------|
D|---------------------------------|---------5---5---5---5---5---5---|---------------------------------|
A|-------------------------5---5---|-5---5---------------------------|-5---5---5---5---5---5-----------|
E|-5---5---5---7---7---7-----------|---------------------------------|-------------------------5---5---|


G|---------------------------------|--------|--------|--------|--------|--------|--------|
D|---------------------------------|--------|--------|--------|--------|--------|--------|
A|---------------------------------|--------|--------|--------|--------|--------|--------|
E|-5---5---5---5---5---5---5---5---|--------|--------|--------|--------|--------|--------|


G|--------|--------|--------|--------|--------|--------|--------|--------|--------|
D|--------|--------|--------|--------|--------|--------|--------|--------|--------|
A|--------|--------|--------|--------|--------|--------|--------|--------|--------|
E|--------|--------|--------|--------|--------|--------|--------|--------|--------|


G|--------|--------|--------|--------|--------|--------|--------|--------|--------|
D|--------|--------|--------|--------|--------|--------|--------|--------|--------|
A|--------|--------|--------|--------|--------|--------|--------|--------|--------|
E|--------|--------|--------|--------|--------|--------|--------|--------|--------|


G|--------|--------|--------|--------|--------|--------|--------|--------|---------------------------------|
D|--------|--------|--------|--------|--------|--------|--------|--------|---------------------------------|
A|--------|--------|--------|--------|--------|--------|--------|--------|-------------------------5---5---|
E|--------|--------|--------|--------|--------|--------|--------|--------|-5---5---5---7---7---7-----------|


G|---------------------------------|---------------------------------|---------------------------------|
D|---------5---5---5---5---5---5---|---------------------------------|---------------------------------|
A|-5---5---------------------------|-5---5---5---5---5---5-----------|---------------------------------|
E|---------------------------------|-------------------------5---5---|-5---5---5---5---5---5---5---5---|


G|---------------------------------|---------------------------------|---------------------------------|
D|---------------------------------|---------5---5---5---5---5---5---|---------------------------------|
A|-------------------------5---5---|-5---5---------------------------|-5---5---5---5---5---5-----------|
E|-5---5---5---7---7---7-----------|---------------------------------|-------------------------5---5---|


G|---------------------------------|--------|--------|--------|--------|--------|--------|
D|---------------------------------|--------|--------|--------|--------|--------|--------|
A|---------------------------------|--------|--------|--------|--------|--------|--------|
E|-5---5---5---5---5---5---5---5---|--------|--------|--------|--------|--------|--------|


G|--------|--------|--------|--------|--------|--------|--------|--------|--------|
D|--------|--------|--------|--------|--------|--------|--------|--------|--------|
A|--------|--------|--------|--------|--------|--------|--------|--------|--------|
E|--------|--------|--------|--------|--------|--------|--------|--------|--------|


G|--------|--------|--------|--------|--------|--------|--------|--------|--------|
D|--------|--------|--------|--------|--------|--------|--------|--------|--------|
A|--------|--------|--------|--------|--------|--------|--------|--------|--------|
E|--------|--------|--------|--------|--------|--------|--------|--------|--------|


G|--------|--------|--------|--------|--------|--------|--------|
D|--------|--------|--------|--------|--------|--------|--------|
A|--------|--------|--------|--------|--------|--------|--------|
E|--------|--------|--------|--------|--------|--------|--------|





Track 8: Adam (Middle)

G|--------|--------|--------|--------|--------|--------|--------|--------|--------|
D|--------|--------|--------|--------|--------|--------|--------|--------|--------|
A|--------|--------|--------|--------|--------|--------|--------|--------|--------|
E|--------|--------|--------|--------|--------|--------|--------|--------|--------|


G|--------|--------|--------|--------|--------|--------|--------|--------|--------|
D|--------|--------|--------|--------|--------|--------|--------|--------|--------|
A|--------|--------|--------|--------|--------|--------|--------|--------|--------|
E|--------|--------|--------|--------|--------|--------|--------|--------|--------|


G|--------|--------|--------|--------|--------|--------|--------|--------|--------|
D|--------|--------|--------|--------|--------|--------|--------|--------|--------|
A|--------|--------|--------|--------|--------|--------|--------|--------|--------|
E|--------|--------|--------|--------|--------|--------|--------|--------|--------|


G|--------|--------|--------|--------|--------|--------|--------|--------|--------|
D|--------|--------|--------|--------|--------|--------|--------|--------|--------|
A|--------|--------|--------|--------|--------|--------|--------|--------|--------|
E|--------|--------|--------|--------|--------|--------|--------|--------|--------|


G|--------|--------|--------|--------|--------|--------|--------|--------|--------|
D|--------|--------|--------|--------|--------|--------|--------|--------|--------|
A|--------|--------|--------|--------|--------|--------|--------|--------|--------|
E|--------|--------|--------|--------|--------|--------|--------|--------|--------|


G|--------|--------|--------|--------|--------|--------|--------|--------|--------|
D|--------|--------|--------|--------|--------|--------|--------|--------|--------|
A|--------|--------|--------|--------|--------|--------|--------|--------|--------|
E|--------|--------|--------|--------|--------|--------|--------|--------|--------|


G|--------|--------|--------|--------|--------|--------|--------|--------|--------|
D|--------|--------|--------|--------|--------|--------|--------|--------|--------|
A|--------|--------|--------|--------|--------|--------|--------|--------|--------|
E|--------|--------|--------|--------|--------|--------|--------|--------|--------|


G|--------|------------------------------|------------------------------|---------------------------|
D|--------|------------------------------|------------------------------|---------------------------|
A|--------|------------------------------|------------------------------|-5---5---5---5---5---------|
E|--------|-2---2---2---2---2---2---3----|-3---3---3---3---3---3---3----|----------------------5----|


G|---------------------------------|------------------------------|------------------------------|
D|---------------------------------|------------------------------|------------------------------|
A|---------------------------------|------------------------------|------------------------------|
E|-5---5---5---5---5---5---5---5---|-2---2---2---2---2---2---3----|-3---3---3---3---3---3---3----|


G|---------------------------|---------------------------------|--------|--------|
D|---------------------------|---------------------------------|--------|--------|
A|-5---5---5---5---5---------|---------------------------------|--------|--------|
E|----------------------5----|-5---5---5---5---5---5---5---5---|--------|--------|


G|--------|--------|--------|-0------|--------|-------------|--------|--------|--------|
D|--------|--------|--------|--------|-0------|-0-----------|--------|--------|--------|
A|--------|--------|-7------|--------|--------|-------------|--------|--------|-5------|
E|--------|--------|--------|--------|--------|-------------|-0------|-3------|--------|


G|-------------|--------|--------|--------|-------------|--------|--------|--------|
D|-------------|--------|--------|--------|-------------|--------|--------|--------|
A|-5-----------|--------|--------|-5------|-5-----------|--------|--------|-5------|
E|-------------|-0------|-3------|--------|-------------|-0------|-3------|--------|


G|--------|--------|--------|--------|--------|--------|--------|--------|--------|
D|--------|--------|--------|--------|--------|--------|--------|--------|--------|
A|--------|--------|--------|--------|--------|--------|--------|--------|--------|
E|-5------|--------|--------|--------|--------|--------|--------|--------|--------|


G|--------|--------|--------|--------|------------------------------|------------------------------|
D|--------|--------|--------|--------|------------------------------|------------------------------|
A|--------|--------|--------|--------|------------------------------|------------------------------|
E|--------|--------|--------|--------|-2---2---2---2---2---2---3----|-3---3---3---3---3---3---3----|


G|---------------------------|---------------------------------|------------------------------|
D|---------------------------|---------------------------------|------------------------------|
A|-5---5---5---5---5---------|---------------------------------|------------------------------|
E|----------------------5----|-5---5---5---5---5---5---5---5---|-2---2---2---2---2---2---3----|


G|------------------------------|---------------------------|---------------------------------|
D|------------------------------|---------------------------|---------------------------------|
A|------------------------------|-5---5---5---5---5---------|---------------------------------|
E|-3---3---3---3---3---3---3----|----------------------5----|-5---5---5---5---5---5---5---5---|


G|---------------------------------|---------------------------------|---------------------------------|
D|---------------------------------|---------5---5---5---5---5---5---|---------------------------------|
A|-------------------------5---5---|-5---5---------------------------|-5---5---5---5---5---5-----------|
E|-5---5---5---7---7---7-----------|---------------------------------|-------------------------5---5---|


G|---------------------------------|---------------------------------|---------------------------------|
D|---------------------------------|---------------------------------|---------5---5---5---5---5---5---|
A|---------------------------------|-------------------------5---5---|-5---5---------------------------|
E|-5---5---5---5---5---5---5---5---|-5---5---5---7---7---7-----------|---------------------------------|


G|---------------------------------|---------------------------------|---------------------------------|
D|---------------------------------|---------------------------------|---------------------------------|
A|-5---5---5---5---5---5-----------|---------------------------------|-------------------------5---5---|
E|-------------------------5---5---|-5---5---5---5---5---5---5---5---|-5---5---5---7---7---7-----------|


G|---------------------------------|---------------------------------|---------------------------------|
D|---------5---5---5---5---5---5---|---------------------------------|---------------------------------|
A|-5---5---------------------------|-5---5---5---5---5---5-----------|---------------------------------|
E|---------------------------------|-------------------------5---5---|-5---5---5---5---5---5---5---5---|


G|---------------------------------|---------------------------------|---------------------------------|
D|---------------------------------|---------5---5---5---5---5---5---|---------------------------------|
A|-------------------------5---5---|-5---5---------------------------|-5---5---5---5---5---5-----------|
E|-5---5---5---7---7---7-----------|---------------------------------|-------------------------5---5---|


G|---------------------------------|--------|--------|--------|--------|--------|--------|
D|---------------------------------|--------|--------|--------|--------|--------|--------|
A|---------------------------------|--------|--------|--------|--------|--------|--------|
E|-5---5---5---5---5---5---5---5---|--------|--------|--------|--------|--------|--------|


G|--------|
D|--------|
A|--------|
E|--------|