Menu:

 

Search:

 

u2 - angel of harlem:

 



Title: Angel of Harlem
Artist: 
Album: Rattle & Hum
Author: U2


Track 1: Edge 1

E|-3----3---------5---5---5-------|-3----3---------5---5---5-------|-3----3---------5---5---5-------|
B|-5----5---5--5--6---6---6-------|-5----5---5--5--6---6---6-------|-5----5---5--5--6---6---6-------|
G|-5----5---5--5--5---5---5---0---|-5----5---5--5--5---5---5---0---|-5----5---5--5--5---5---5---0---|
D|-5----5---5--5--7---7---7---0---|-5----5---5--5--7---7---7---0---|-5----5---5--5--7---7---7---0---|
A|----------------------------0---|----------------------------0---|----------------------------0---|
E|--------------------------------|--------------------------------|--------------------------------|


E|-3----3---------5---5---5-------|-3----3---------5---5---5-------|-3----3---------5---5---5-------|
B|-5----5---5--5--6---6---6-------|-5----5---5--5--6---6---6-------|-5----5---5--5--6---6---6-------|
G|-5----5---5--5--5---5---5---0---|-5----5---5--5--5---5---5---0---|-5----5---5--5--5---5---5---0---|
D|-5----5---5--5--7---7---7---0---|-5----5---5--5--7---7---7---0---|-5----5---5--5--7---7---7---0---|
A|----------------------------0---|----------------------------0---|----------------------------0---|
E|--------------------------------|--------------------------------|--------------------------------|


E|-3----3---------5---5---5-------|-3----3---------5---5---5-------|-3----3---------5---5---5-------|
B|-5----5---5--5--6---6---6-------|-5----5---5--5--6---6---6-------|-5----5---5--5--6---6---6-------|
G|-5----5---5--5--5---5---5---0---|-5----5---5--5--5---5---5---0---|-5----5---5--5--5---5---5---0---|
D|-5----5---5--5--7---7---7---0---|-5----5---5--5--7---7---7---0---|-5----5---5--5--7---7---7---0---|
A|----------------------------0---|----------------------------0---|----------------------------0---|
E|--------------------------------|--------------------------------|--------------------------------|


E|-3----3---------5---5---5-------|-3----3---------5---5---5-------|-3----3---------5---5---5-------|
B|-5----5---5--5--6---6---6-------|-5----5---5--5--6---6---6-------|-5----5---5--5--6---6---6-------|
G|-5----5---5--5--5---5---5---0---|-5----5---5--5--5---5---5---0---|-5----5---5--5--5---5---5---0---|
D|-5----5---5--5--7---7---7---0---|-5----5---5--5--7---7---7---0---|-5----5---5--5--7---7---7---0---|
A|----------------------------0---|----------------------------0---|----------------------------0---|
E|--------------------------------|--------------------------------|--------------------------------|


E|-3----3---------5---5---5-------|-3----3---------5---5---5-------|-3----3---------5---5---5-------|
B|-5----5---5--5--6---6---6-------|-5----5---5--5--6---6---6-------|-5----5---5--5--6---6---6-------|
G|-5----5---5--5--5---5---5---0---|-5----5---5--5--5---5---5---0---|-5----5---5--5--5---5---5---0---|
D|-5----5---5--5--7---7---7---0---|-5----5---5--5--7---7---7---0---|-5----5---5--5--7---7---7---0---|
A|----------------------------0---|----------------------------0---|----------------------------0---|
E|--------------------------------|--------------------------------|--------------------------------|


E|-3----3---------5---5---5-------|-3----3---------5---5---5-------|-3----3---------5---5---5-------|
B|-5----5---5--5--6---6---6-------|-5----5---5--5--6---6---6-------|-5----5---5--5--6---6---6-------|
G|-5----5---5--5--5---5---5---0---|-5----5---5--5--5---5---5---0---|-5----5---5--5--5---5---5---0---|
D|-5----5---5--5--7---7---7---0---|-5----5---5--5--7---7---7---0---|-5----5---5--5--7---7---7---0---|
A|----------------------------0---|----------------------------0---|----------------------------0---|
E|--------------------------------|--------------------------------|--------------------------------|


E|-1----1---1---1---1---1---3---|-3----3---3--3--3---3---3---3--3--|-3----3---3--3--3---3---3---3--3--|
B|-1----1---1---1---1---1---3---|-3----3---3--3--3---3---3---3--3--|-3----3---3--3--3---3---3---3--3--|
G|-2----2---0---2---2---2---4---|-4----4---4--4--4---5---4---4--4--|-4----4---4--4--4---4---4---4--4--|
D|-3----3---3---3---3---3---5---|-5----5---5--5--5---5---5---5--5--|-5----5---5--5--5---5---5---5--5--|
A|------------------------------|----------------------------------|----------------------------------|
E|------------------------------|----------------------------------|----------------------------------|


E|-1---1---1---1---1---1---1---1---|-1----1---1---1---1---1---3---|-3----3---3--3--3---3---3-------|
B|-1---1---1---1---1---1---1---1---|-1----1---1---1---1---1---3---|-3----3---3--3--3---3---3-------|
G|-2---0---2---0---0---0---0---0---|-2----2---0---2---2---2---4---|-4----4---4--4--4---5---4-------|
D|-3---3---3---3---3---3---3---3---|-3----3---3---3---3---3---5---|-5----5---5--5--5---5---5-------|
A|---------------------------------|------------------------------|--------------------------------|
E|---------------------------------|------------------------------|--------------------------------|


E|-3----3---------5---5---5-------|-3----3---------5---5---5-------|-3----3---------5---5---5-------|
B|-5----5---5--5--6---6---6-------|-5----5---5--5--6---6---6-------|-5----5---5--5--6---6---6-------|
G|-5----5---5--5--5---5---5---0---|-5----5---5--5--5---5---5---0---|-5----5---5--5--5---5---5---0---|
D|-5----5---5--5--7---7---7---0---|-5----5---5--5--7---7---7---0---|-5----5---5--5--7---7---7---0---|
A|----------------------------0---|----------------------------0---|----------------------------0---|
E|--------------------------------|--------------------------------|--------------------------------|


E|-3----3---------5---5---5-------|-3----3---------5---5---5-------|-3----3---------5---5---5-------|
B|-5----5---5--5--6---6---6-------|-5----5---5--5--6---6---6-------|-5----5---5--5--6---6---6-------|
G|-5----5---5--5--5---5---5---0---|-5----5---5--5--5---5---5---0---|-5----5---5--5--5---5---5---0---|
D|-5----5---5--5--7---7---7---0---|-5----5---5--5--7---7---7---0---|-5----5---5--5--7---7---7---0---|
A|----------------------------0---|----------------------------0---|----------------------------0---|
E|--------------------------------|--------------------------------|--------------------------------|


E|-3----3---------5---5---5-------|-3----3---------5---5---5-------|-3----3---------5---5---5-------|
B|-5----5---5--5--6---6---6-------|-5----5---5--5--6---6---6-------|-5----5---5--5--6---6---6-------|
G|-5----5---5--5--5---5---5---0---|-5----5---5--5--5---5---5---0---|-5----5---5--5--5---5---5---0---|
D|-5----5---5--5--7---7---7---0---|-5----5---5--5--7---7---7---0---|-5----5---5--5--7---7---7---0---|
A|----------------------------0---|----------------------------0---|----------------------------0---|
E|--------------------------------|--------------------------------|--------------------------------|


E|-3----3---------5---5---5-------|-3----3---------5---5---5-------|-3----3---------5---5---5-------|
B|-5----5---5--5--6---6---6-------|-5----5---5--5--6---6---6-------|-5----5---5--5--6---6---6-------|
G|-5----5---5--5--5---5---5---0---|-5----5---5--5--5---5---5---0---|-5----5---5--5--5---5---5---0---|
D|-5----5---5--5--7---7---7---0---|-5----5---5--5--7---7---7---0---|-5----5---5--5--7---7---7---0---|
A|----------------------------0---|----------------------------0---|----------------------------0---|
E|--------------------------------|--------------------------------|--------------------------------|


E|-3----3---------5---5---5-------|-3----3---------5---5---5-------|-1----1---1---1---1---1---3---|
B|-5----5---5--5--6---6---6-------|-5----5---5--5--6---6---6-------|-1----1---1---1---1---1---3---|
G|-5----5---5--5--5---5---5---0---|-5----5---5--5--5---5---5---0---|-2----2---0---2---2---2---4---|
D|-5----5---5--5--7---7---7---0---|-5----5---5--5--7---7---7---0---|-3----3---3---3---3---3---5---|
A|----------------------------0---|----------------------------0---|------------------------------|
E|--------------------------------|--------------------------------|------------------------------|


E|-3----3---3--3--3---3---3---3--3--|-3----3---3--3--3---3---3---3--3--|-1---1---1---1---1---1---1---1---|
B|-3----3---3--3--3---3---3---3--3--|-3----3---3--3--3---3---3---3--3--|-1---1---1---1---1---1---1---1---|
G|-4----4---4--4--4---5---4---4--4--|-4----4---4--4--4---4---4---4--4--|-2---0---2---0---0---0---0---0---|
D|-5----5---5--5--5---5---5---5--5--|-5----5---5--5--5---5---5---5--5--|-3---3---3---3---3---3---3---3---|
A|----------------------------------|----------------------------------|---------------------------------|
E|----------------------------------|----------------------------------|---------------------------------|


E|-1----1---1---1---1---1---3---|-3----3---3--3--3---3---3-------|-3----3---------5---5---5-------|
B|-1----1---1---1---1---1---3---|-3----3---3--3--3---3---3-------|-5----5---5--5--6---6---6-------|
G|-2----2---0---2---2---2---4---|-4----4---4--4--4---5---4-------|-5----5---5--5--5---5---5---0---|
D|-3----3---3---3---3---3---5---|-5----5---5--5--5---5---5-------|-5----5---5--5--7---7---7---0---|
A|------------------------------|--------------------------------|----------------------------0---|
E|------------------------------|--------------------------------|--------------------------------|


E|-3----3---------5---5---5-------|-3----3---------5---5---5-------|-3----3---------5---5---5-------|
B|-5----5---5--5--6---6---6-------|-5----5---5--5--6---6---6-------|-5----5---5--5--6---6---6-------|
G|-5----5---5--5--5---5---5---0---|-5----5---5--5--5---5---5---0---|-5----5---5--5--5---5---5---0---|
D|-5----5---5--5--7---7---7---0---|-5----5---5--5--7---7---7---0---|-5----5---5--5--7---7---7---0---|
A|----------------------------0---|----------------------------0---|----------------------------0---|
E|--------------------------------|--------------------------------|--------------------------------|


E|--------|--------|--------|--------|--------|--------|--------|--------|-3----3---------5---5---5-------|
B|--------|--------|--------|--------|--------|--------|--------|--------|-5----5---5--5--6---6---6-------|
G|--------|--------|--------|--------|--------|--------|--------|--------|-5----5---5--5--5---5---5---0---|
D|--------|--------|--------|--------|--------|--------|--------|--------|-5----5---5--5--7---7---7---0---|
A|--------|--------|--------|--------|--------|--------|--------|--------|----------------------------0---|
E|--------|--------|--------|--------|--------|--------|--------|--------|--------------------------------|


E|-3----3---------5---5---5-------|-3----3---------5---5---5-------|-3----3---------5---5---5-------|
B|-5----5---5--5--6---6---6-------|-5----5---5--5--6---6---6-------|-5----5---5--5--6---6---6-------|
G|-5----5---5--5--5---5---5---0---|-5----5---5--5--5---5---5---0---|-5----5---5--5--5---5---5---0---|
D|-5----5---5--5--7---7---7---0---|-5----5---5--5--7---7---7---0---|-5----5---5--5--7---7---7---0---|
A|----------------------------0---|----------------------------0---|----------------------------0---|
E|--------------------------------|--------------------------------|--------------------------------|


E|-3----3---------5---5---5-------|-3----3---------5---5---5-------|-3----3---------5---5---5-------|
B|-5----5---5--5--6---6---6-------|-5----5---5--5--6---6---6-------|-5----5---5--5--6---6---6-------|
G|-5----5---5--5--5---5---5---0---|-5----5---5--5--5---5---5---0---|-5----5---5--5--5---5---5---0---|
D|-5----5---5--5--7---7---7---0---|-5----5---5--5--7---7---7---0---|-5----5---5--5--7---7---7---0---|
A|----------------------------0---|----------------------------0---|----------------------------0---|
E|--------------------------------|--------------------------------|--------------------------------|


E|-3----3---------5---5---5-------|-3----3---------5---5---5-------|-3----3---------5---5---5-------|
B|-5----5---5--5--6---6---6-------|-5----5---5--5--6---6---6-------|-5----5---5--5--6---6---6-------|
G|-5----5---5--5--5---5---5---0---|-5----5---5--5--5---5---5---0---|-5----5---5--5--5---5---5---0---|
D|-5----5---5--5--7---7---7---0---|-5----5---5--5--7---7---7---0---|-5----5---5--5--7---7---7---0---|
A|----------------------------0---|----------------------------0---|----------------------------0---|
E|--------------------------------|--------------------------------|--------------------------------|


E|-3----3---------5---5---5-------|-3----3---------5---5---5-------|-1----1---1---1---1---1---1--1--|
B|-5----5---5--5--6---6---6-------|-5----5---5--5--6---6---6-------|-1----1---1---1---1---1---1--1--|
G|-5----5---5--5--5---5---5---0---|-5----5---5--5--5---5---5---0---|-2----2---0---2---2---2---2--2--|
D|-5----5---5--5--7---7---7---0---|-5----5---5--5--7---7---7---0---|-3----3---3---3---3---3---3--3--|
A|----------------------------0---|----------------------------0---|--------------------------------|
E|--------------------------------|--------------------------------|--------------------------------|


E|-3----3---3--3--3---3---3---3--3--|-3----3---3--3--3---3---3---1---|-1---1---1---1--1--1---1----1---|
B|-3----3---3--3--3---3---3---3--3--|-3----3---3--3--3---3---3---1---|-1---1---1---1--1--1---1----1---|
G|-4----4---4--4--4---5---4---4--4--|-4----4---4--4--4---5---4---2---|-2---0---0---2--2--2---0----0---|
D|-5----5---5--5--5---5---5---5--5--|-5----5---5--5--5---5---5---3---|-3---3---3---3--3--3---3----3---|
A|----------------------------------|--------------------------------|--------------------------------|
E|----------------------------------|--------------------------------|--------------------------------|


E|-1---1---1---1---1---1---1---1--1--|-3----3---3---3---3---3-------|-3----3---------5---5---5-------|
B|-1---1---1---1---1---1---1---1--1--|-3----3---3---3---3---3-------|-5----5---5--5--6---6---6-------|
G|-2---2---2---0---2---2---0---2--2--|-4----4---4---4---5---4-------|-5----5---5--5--5---5---5---0---|
D|-3---3---3---3---3---3---3---3--3--|-5----5---5---5---5---5---0---|-5----5---5--5--7---7---7---0---|
A|-----------------------------------|--------------------------0---|----------------------------0---|
E|-----------------------------------|------------------------------|--------------------------------|


E|-3----3---------5---5---5-------|-3----3---------5---5---5-------|-3----3---------5---5---5-------|
B|-5----5---5--5--6---6---6-------|-5----5---5--5--6---6---6-------|-5----5---5--5--6---6---6-------|
G|-5----5---5--5--5---5---5---0---|-5----5---5--5--5---5---5---0---|-5----5---5--5--5---5---5---0---|
D|-5----5---5--5--7---7---7---0---|-5----5---5--5--7---7---7---0---|-5----5---5--5--7---7---7---0---|
A|----------------------------0---|----------------------------0---|----------------------------0---|
E|--------------------------------|--------------------------------|--------------------------------|


E|-8----8---8-------------------8---|-8----8---8-------------------8---|-8----8---8-------------------8---|
B|-8----8---8--10----10-11--10--8---|-8----8---8--10----10-11--10--8---|-8----8---8--10----10-11--10--8---|
G|-9----9---9--10----10-10--10--9---|-9----9---9--10----10-10--10--9---|-9----9---9--10----10-10--10--9---|
D|-10---10--10-10----10-10--10--10--|-10---10--10-10----10-10--10--10--|-10---10--10-10----10-10--10--10--|
A|-------------8-----8--8---8-------|-------------8-----8--8---8-------|-------------8-----8--8---8-------|
E|----------------------------------|----------------------------------|----------------------------------|


E|-8----8---8-------------------8---|-8----8---8-------------------8---|-8----8---8-------------------8---|
B|-8----8---8--10----10-11--10--8---|-8----8---8--10----10-11--10--8---|-8----8---8--10----10-11--10--8---|
G|-9----9---9--10----10-10--10--9---|-9----9---9--10----10-10--10--9---|-9----9---9--10----10-10--10--9---|
D|-10---10--10-10----10-10--10--10--|-10---10--10-10----10-10--10--10--|-10---10--10-10----10-10--10--10--|
A|-------------8-----8--8---8-------|-------------8-----8--8---8-------|-------------8-----8--8---8-------|
E|----------------------------------|----------------------------------|----------------------------------|


E|-8----8---8-------------------8---|-8----8---8-------------------8---|-8----8---8-------------------8---|
B|-8----8---8--10----10-11--10--8---|-8----8---8--10----10-11--10--8---|-8----8---8--10----10-11--10--8---|
G|-9----9---9--10----10-10--10--9---|-9----9---9--10----10-10--10--9---|-9----9---9--10----10-10--10--9---|
D|-10---10--10-10----10-10--10--10--|-10---10--10-10----10-10--10--10--|-10---10--10-10----10-10--10--10--|
A|-------------8-----8--8---8-------|-------------8-----8--8---8-------|-------------8-----8--8---8-------|
E|----------------------------------|----------------------------------|----------------------------------|


E|-8----8---8-------------------8---|-8----8---8-------------------8---|-8----8---8-------------------8---|
B|-8----8---8--10----10-11--10--8---|-8----8---8--10----10-11--10--8---|-8----8---8--10----10-11--10--8---|
G|-9----9---9--10----10-10--10--9---|-9----9---9--10----10-10--10--9---|-9----9---9--10----10-10--10--9---|
D|-10---10--10-10----10-10--10--10--|-10---10--10-10----10-10--10--10--|-10---10--10-10----10-10--10--10--|
A|-------------8-----8--8---8-------|-------------8-----8--8---8-------|-------------8-----8--8---8-------|
E|----------------------------------|----------------------------------|----------------------------------|


E|-8----8---8-------------------8---|-8----8---8-------------------8---|-8----8---8-------------------8---|
B|-8----8---8--10----10-11--10--8---|-8----8---8--10----10-11--10--8---|-8----8---8--10----10-11--10--8---|
G|-9----9---9--10----10-10--10--9---|-9----9---9--10----10-10--10--9---|-9----9---9--10----10-10--10--9---|
D|-10---10--10-10----10-10--10--10--|-10---10--10-10----10-10--10--10--|-10---10--10-10----10-10--10--10--|
A|-------------8-----8--8---8-------|-------------8-----8--8---8-------|-------------8-----8--8---8-------|
E|----------------------------------|----------------------------------|----------------------------------|


E|-8----8---8-------------------8---|-8----8---8-------------------8---|-8----8---8-------------------8---|
B|-8----8---8--10----10-11--10--8---|-8----8---8--10----10-11--10--8---|-8----8---8--10----10-11--10--8---|
G|-9----9---9--10----10-10--10--9---|-9----9---9--10----10-10--10--9---|-9----9---9--10----10-10--10--9---|
D|-10---10--10-10----10-10--10--10--|-10---10--10-10----10-10--10--10--|-10---10--10-10----10-10--10--10--|
A|-------------8-----8--8---8-------|-------------8-----8--8---8-------|-------------8-----8--8---8-------|
E|----------------------------------|----------------------------------|----------------------------------|


E|-8----8---8-------------------8---|-8----8---8-------------------8---|
B|-8----8---8--10----10-11--10--8---|-8----8---8--10----10-11--10--8---|
G|-9----9---9--10----10-10--10--9---|-9----9---9--10----10-10--10--9---|
D|-10---10--10-10----10-10--10--10--|-10---10--10-10----10-10--10--10--|
A|-------------8-----8--8---8-------|-------------8-----8--8---8-------|
E|----------------------------------|----------------------------------|





Track 2: Bono

E|-3----3-------3---3---3-------|-3----3-------3---3---3-------|-3----3-------3---3---3-------|
B|-1----1---1---1---1---1---1---|-1----1---1---1---1---1---1---|-1----1---1---1---1---1---1---|
G|-0----0---0---2---2---2---0---|-0----0---0---2---2---2---0---|-0----0---0---2---2---2---0---|
D|-2----2---0---3---3---3---0---|-2----2---0---3---3---3---0---|-2----2---0---3---3---3---0---|
A|-3----3---0---------------0---|-3----3---0---------------0---|-3----3---0---------------0---|
E|------------------------------|------------------------------|------------------------------|


E|-3----3-------3---3---3-------|-3----3-------3---3---3-------|-3----3-------3---3---3-------|
B|-1----1---1---1---1---1---1---|-1----1---1---1---1---1---1---|-1----1---1---1---1---1---1---|
G|-0----0---0---2---2---2---0---|-0----0---0---2---2---2---0---|-0----0---0---2---2---2---0---|
D|-2----2---0---3---3---3---0---|-2----2---0---3---3---3---0---|-2----2---0---3---3---3---0---|
A|-3----3---0---------------0---|-3----3---0---------------0---|-3----3---0---------------0---|
E|------------------------------|------------------------------|------------------------------|


E|-3----3-------3---3---3-------|-3----3-------3---3---3-------|--------|--------|
B|-1----1---1---1---1---1---1---|-1----1---1---1---1---1---1---|--------|--------|
G|-0----0---0---2---2---2---0---|-0----0---0---2---2---2---0---|--------|--------|
D|-2----2---0---3---3---3---0---|-2----2---0---3---3---3---0---|--------|--------|
A|-3----3---0---------------0---|-3----3---0---------------0---|--------|--------|
E|------------------------------|------------------------------|--------|--------|


E|--------|--------|--------|--------|--------|--------|--------|--------|--------|
B|--------|--------|--------|--------|--------|--------|--------|--------|--------|
G|--------|--------|--------|--------|--------|--------|--------|--------|--------|
D|--------|--------|--------|--------|--------|--------|--------|--------|--------|
A|--------|--------|--------|--------|--------|--------|--------|--------|--------|
E|--------|--------|--------|--------|--------|--------|--------|--------|--------|


E|--------|--------|--------|--------|--------|-3----3-------3---3---3-------|-3----3-------3---3---3-------|
B|--------|--------|--------|--------|--------|-1----1---1---1---1---1---1---|-1----1---1---1---1---1---1---|
G|--------|--------|--------|--------|--------|-0----0---0---2---2---2---0---|-0----0---0---2---2---2---0---|
D|--------|--------|--------|--------|--------|-2----2---0---3---3---3---0---|-2----2---0---3---3---3---0---|
A|--------|--------|--------|--------|--------|-3----3---0---------------0---|-3----3---0---------------0---|
E|--------|--------|--------|--------|--------|------------------------------|------------------------------|


E|-3----3-------3---3---3-------|-3----3-------3---3---3-------|-8----8---8--8--------------8---|
B|-1----1---1---1---1---1---1---|-1----1---1---1---1---1---1---|-8----8---8--8--10--10--10--8---|
G|-0----0---0---2---2---2---0---|-0----0---0---2---2---2---0---|-9----9---9--9--10--10--10--9---|
D|-2----2---0---3---3---3---0---|-2----2---0---3---3---3---0---|-10---10--10-10-10--10--10--10--|
A|-3----3---0---------------0---|-3----3---0---------------0---|----------------8---8---8-------|
E|------------------------------|------------------------------|--------------------------------|


E|-8----8---8--8------------------|-8----8---8--8--------------8---|-8----8---8--8------------------|
B|-8----8---8--8--10--11--10--8---|-8----8---8--8--10--10--10--8---|-8----8---8--8--10--11--10--8---|
G|-9----9---9--9--10--10--10--10--|-9----9---9--9--10--10--10--9---|-9----9---9--9--10--10--10--10--|
D|-10---10--10-10-10--10--10--10--|-10---10--10-10-10--10--10--10--|-10---10--10-10-10--10--10--10--|
A|----------------8---8---8---8---|----------------8---8---8-------|----------------8---8---8---8---|
E|--------------------------------|--------------------------------|--------------------------------|


E|-8----8---8--8--------------8---|-8----8---8--8------------------|-8----8---8--8--------------8---|
B|-8----8---8--8--10--10--10--8---|-8----8---8--8--10--11--10--8---|-8----8---8--8--10--10--10--8---|
G|-9----9---9--9--10--10--10--9---|-9----9---9--9--10--10--10--10--|-9----9---9--9--10--10--10--9---|
D|-10---10--10-10-10--10--10--10--|-10---10--10-10-10--10--10--10--|-10---10--10-10-10--10--10--10--|
A|----------------8---8---8-------|----------------8---8---8---8---|----------------8---8---8-------|
E|--------------------------------|--------------------------------|--------------------------------|


E|-8----8---8--8------------------|-8----8---8--8--------------8---|-8----8---8--8------------------|
B|-8----8---8--8--10--11--10--8---|-8----8---8--8--10--10--10--8---|-8----8---8--8--10--11--10--8---|
G|-9----9---9--9--10--10--10--10--|-9----9---9--9--10--10--10--9---|-9----9---9--9--10--10--10--10--|
D|-10---10--10-10-10--10--10--10--|-10---10--10-10-10--10--10--10--|-10---10--10-10-10--10--10--10--|
A|----------------8---8---8---8---|----------------8---8---8-------|----------------8---8---8---8---|
E|--------------------------------|--------------------------------|--------------------------------|


E|--------|--------|--------|--------|--------|--------|-3----3-------3---3---3-------|
B|--------|--------|--------|--------|--------|--------|-1----1---1---1---1---1---1---|
G|--------|--------|--------|--------|--------|--------|-0----0---0---2---2---2---0---|
D|--------|--------|--------|--------|--------|--------|-2----2---0---3---3---3---0---|
A|--------|--------|--------|--------|--------|--------|-3----3---0---------------0---|
E|--------|--------|--------|--------|--------|--------|------------------------------|


E|-3----3-------3---3---3-------|-3----3-------3---3---3-------|-3----3-------3---3---3-------|
B|-1----1---1---1---1---1---1---|-1----1---1---1---1---1---1---|-1----1---1---1---1---1---1---|
G|-0----0---0---2---2---2---0---|-0----0---0---2---2---2---0---|-0----0---0---2---2---2---0---|
D|-2----2---0---3---3---3---0---|-2----2---0---3---3---3---0---|-2----2---0---3---3---3---0---|
A|-3----3---0---------------0---|-3----3---0---------------0---|-3----3---0---------------0---|
E|------------------------------|------------------------------|------------------------------|


E|--------|--------|--------|--------|--------|--------|--------|--------|-3----3-------3---3---3-------|
B|--------|--------|--------|--------|--------|--------|--------|--------|-1----1---1---1---1---1---1---|
G|--------|--------|--------|--------|--------|--------|--------|--------|-0----0---0---2---2---2---0---|
D|--------|--------|--------|--------|--------|--------|--------|--------|-2----2---0---3---3---3---0---|
A|--------|--------|--------|--------|--------|--------|--------|--------|-3----3---0---------------0---|
E|--------|--------|--------|--------|--------|--------|--------|--------|------------------------------|


E|-3----3-------3---3---3-------|-3----3-------3---3---3-------|-3----3-------3---3---3-------|
B|-1----1---1---1---1---1---1---|-1----1---1---1---1---1---1---|-1----1---1---1---1---1---1---|
G|-0----0---0---2---2---2---0---|-0----0---0---2---2---2---0---|-0----0---0---2---2---2---0---|
D|-2----2---0---3---3---3---0---|-2----2---0---3---3---3---0---|-2----2---0---3---3---3---0---|
A|-3----3---0---------------0---|-3----3---0---------------0---|-3----3---0---------------0---|
E|------------------------------|------------------------------|------------------------------|


E|--------|--------|--------|--------|--------|--------|--------|--------|--------|
B|--------|--------|--------|--------|--------|--------|--------|--------|--------|
G|--------|--------|--------|--------|--------|--------|--------|--------|--------|
D|--------|--------|--------|--------|--------|--------|--------|--------|--------|
A|--------|--------|--------|--------|--------|--------|--------|--------|--------|
E|--------|--------|--------|--------|--------|--------|--------|--------|--------|


E|--------|--------|--------|--------|--------|-3----3-------3---3---3-------|-3----3-------3---3---3-------|
B|--------|--------|--------|--------|--------|-1----1---1---1---1---1---1---|-1----1---1---1---1---1---1---|
G|--------|--------|--------|--------|--------|-0----0---0---2---2---2---0---|-0----0---0---2---2---2---0---|
D|--------|--------|--------|--------|--------|-2----2---0---3---3---3---0---|-2----2---0---3---3---3---0---|
A|--------|--------|--------|--------|--------|-3----3---0---------------0---|-3----3---0---------------0---|
E|--------|--------|--------|--------|--------|------------------------------|------------------------------|


E|-3----3-------3---3---3-------|-3----3-------3---3---3-------|--------|--------|
B|-1----1---1---1---1---1---1---|-1----1---1---1---1---1---1---|--------|--------|
G|-0----0---0---2---2---2---0---|-0----0---0---2---2---2---0---|--------|--------|
D|-2----2---0---3---3---3---0---|-2----2---0---3---3---3---0---|--------|--------|
A|-3----3---0---------------0---|-3----3---0---------------0---|--------|--------|
E|------------------------------|------------------------------|--------|--------|


E|--------|--------|--------|--------|--------|--------|--------|--------|--------|
B|--------|--------|--------|--------|--------|--------|--------|--------|--------|
G|--------|--------|--------|--------|--------|--------|--------|--------|--------|
D|--------|--------|--------|--------|--------|--------|--------|--------|--------|
A|--------|--------|--------|--------|--------|--------|--------|--------|--------|
E|--------|--------|--------|--------|--------|--------|--------|--------|--------|


E|--------|--------|--------|--------|--------|--------|--------|--------|--------|
B|--------|--------|--------|--------|--------|--------|--------|--------|--------|
G|--------|--------|--------|--------|--------|--------|--------|--------|--------|
D|--------|--------|--------|--------|--------|--------|--------|--------|--------|
A|--------|--------|--------|--------|--------|--------|--------|--------|--------|
E|--------|--------|--------|--------|--------|--------|--------|--------|--------|





Track 3: Edge 2

E|--------|--------|---------------------------|---------------------------|---------------------------|
B|--------|--------|------1------------1-------|------1------------1-------|------1------------1-------|
G|--------|--------|---------------2-----------|---------------2-----------|---------------2-----------|
D|--------|--------|-----------3---------------|-----------3---------------|-----------3---------------|
A|--------|--------|-3---------------------0---|-3---------------------0---|-3---------------------0---|
E|--------|--------|---------------------------|---------------------------|---------------------------|


E|---------------------------|---------------------------|---------------------------|
B|------1------------1-------|------1------------1-------|------1------------1-------|
G|---------------2-----------|---------------2-----------|---------------2-----------|
D|-----------3---------------|-----------3---------------|-----------3---------------|
A|-3---------------------0---|-3---------------------0---|-3---------------------0---|
E|---------------------------|---------------------------|---------------------------|


E|---------------------------|---------------------------|---------------------------|
B|------1------------1-------|------1------------1-------|------1------------1-------|
G|---------------2-----------|---------------2-----------|---------------2-----------|
D|-----------3---------------|-----------3---------------|-----------3---------------|
A|-3---------------------0---|-3---------------------0---|-3---------------------0---|
E|---------------------------|---------------------------|---------------------------|


E|---------------------------|---------------------------|---------------------------|
B|------1------------1-------|------1------------1-------|------1------------1-------|
G|---------------2-----------|---------------2-----------|---------------2-----------|
D|-----------3---------------|-----------3---------------|-----------3---------------|
A|-3---------------------0---|-3---------------------0---|-3---------------------0---|
E|---------------------------|---------------------------|---------------------------|


E|---------------------------|---------------------------|---------------------------|
B|------1------------1-------|------1------------1-------|------1------------1-------|
G|---------------2-----------|---------------2-----------|---------------2-----------|
D|-----------3---------------|-----------3---------------|-----------3---------------|
A|-3---------------------0---|-3---------------------0---|-3---------------------0---|
E|---------------------------|---------------------------|---------------------------|


E|---------------------------|--------|--------|--------|--------|--------|--------|
B|------1------------1-------|--------|--------|--------|--------|--------|--------|
G|---------------2-----------|--------|--------|--------|--------|--------|--------|
D|-----------3---------------|--------|--------|--------|--------|--------|--------|
A|-3---------------------0---|--------|--------|--------|--------|--------|--------|
E|---------------------------|--------|--------|--------|--------|--------|--------|


E|---------------------------|---------------------------|---------------------------|
B|------1------------1-------|------1------------1-------|------1------------1-------|
G|---------------2-----------|---------------2-----------|---------------2-----------|
D|-----------3---------------|-----------3---------------|-----------3---------------|
A|-3---------------------0---|-3---------------------0---|-3---------------------0---|
E|---------------------------|---------------------------|---------------------------|


E|---------------------------|---------------------------|---------------------------|
B|------1------------1-------|------1------------1-------|------1------------1-------|
G|---------------2-----------|---------------2-----------|---------------2-----------|
D|-----------3---------------|-----------3---------------|-----------3---------------|
A|-3---------------------0---|-3---------------------0---|-3---------------------0---|
E|---------------------------|---------------------------|---------------------------|


E|---------------------------|---------------------------|---------------------------|
B|------1------------1-------|------1------------1-------|------1------------1-------|
G|---------------2-----------|---------------2-----------|---------------2-----------|
D|-----------3---------------|-----------3---------------|-----------3---------------|
A|-3---------------------0---|-3---------------------0---|-3---------------------0---|
E|---------------------------|---------------------------|---------------------------|


E|---------------------------|---------------------------|---------------------------|
B|------1------------1-------|------1------------1-------|------1------------1-------|
G|---------------2-----------|---------------2-----------|---------------2-----------|
D|-----------3---------------|-----------3---------------|-----------3---------------|
A|-3---------------------0---|-3---------------------0---|-3---------------------0---|
E|---------------------------|---------------------------|---------------------------|


E|---------------------------|---------------------------|--------|--------|--------|
B|------1------------1-------|------1------------1-------|--------|--------|--------|
G|---------------2-----------|---------------2-----------|--------|--------|--------|
D|-----------3---------------|-----------3---------------|--------|--------|--------|
A|-3---------------------0---|-3---------------------0---|--------|--------|--------|
E|---------------------------|---------------------------|--------|--------|--------|


E|--------|--------|--------|---------------------------|---------------------------|
B|--------|--------|--------|------1------------1-------|------1------------1-------|
G|--------|--------|--------|---------------2-----------|---------------2-----------|
D|--------|--------|--------|-----------3---------------|-----------3---------------|
A|--------|--------|--------|-3---------------------0---|-3---------------------0---|
E|--------|--------|--------|---------------------------|---------------------------|


E|---------------------------|---------------------------|--------|--------|--------|
B|------1------------1-------|------1------------1-------|--------|--------|--------|
G|---------------2-----------|---------------2-----------|--------|--------|--------|
D|-----------3---------------|-----------3---------------|--------|--------|--------|
A|-3---------------------0---|-3---------------------0---|--------|--------|--------|
E|---------------------------|---------------------------|--------|--------|--------|


E|--------|--------|--------|--------|--------|---------------------------|---------------------------|
B|--------|--------|--------|--------|--------|------1------------1-------|------1------------1-------|
G|--------|--------|--------|--------|--------|---------------2-----------|---------------2-----------|
D|--------|--------|--------|--------|--------|-----------3---------------|-----------3---------------|
A|--------|--------|--------|--------|--------|-3---------------------0---|-3---------------------0---|
E|--------|--------|--------|--------|--------|---------------------------|---------------------------|


E|---------------------------|---------------------------|---------------------------|
B|------1------------1-------|------1------------1-------|------1------------1-------|
G|---------------2-----------|---------------2-----------|---------------2-----------|
D|-----------3---------------|-----------3---------------|-----------3---------------|
A|-3---------------------0---|-3---------------------0---|-3---------------------0---|
E|---------------------------|---------------------------|---------------------------|


E|---------------------------|---------------------------|---------------------------|
B|------1------------1-------|------1------------1-------|------1------------1-------|
G|---------------2-----------|---------------2-----------|---------------2-----------|
D|-----------3---------------|-----------3---------------|-----------3---------------|
A|-3---------------------0---|-3---------------------0---|-3---------------------0---|
E|---------------------------|---------------------------|---------------------------|


E|---------------------------|---------------------------|---------------------------|
B|------1------------1-------|------1------------1-------|------1------------1-------|
G|---------------2-----------|---------------2-----------|---------------2-----------|
D|-----------3---------------|-----------3---------------|-----------3---------------|
A|-3---------------------0---|-3---------------------0---|-3---------------------0---|
E|---------------------------|---------------------------|---------------------------|


E|---------------------------|--------|--------|--------|--------|--------|--------|
B|------1------------1-------|--------|--------|--------|--------|--------|--------|
G|---------------2-----------|--------|--------|--------|--------|--------|--------|
D|-----------3---------------|--------|--------|--------|--------|--------|--------|
A|-3---------------------0---|--------|--------|--------|--------|--------|--------|
E|---------------------------|--------|--------|--------|--------|--------|--------|


E|---------------------------|---------------------------|---------------------------|
B|------1------------1-------|------1------------1-------|------1------------1-------|
G|---------------2-----------|---------------2-----------|---------------2-----------|
D|-----------3---------------|-----------3---------------|-----------3---------------|
A|-3---------------------0---|-3---------------------0---|-3---------------------0---|
E|---------------------------|---------------------------|---------------------------|


E|---------------------------|--------|--------|--------|--------|--------|--------|
B|------1------------1-------|--------|--------|--------|--------|--------|--------|
G|---------------2-----------|--------|--------|--------|--------|--------|--------|
D|-----------3---------------|--------|--------|--------|--------|--------|--------|
A|-3---------------------0---|--------|--------|--------|--------|--------|--------|
E|---------------------------|--------|--------|--------|--------|--------|--------|


E|--------|--------|--------|--------|--------|--------|--------|--------|--------|
B|--------|--------|--------|--------|--------|--------|--------|--------|--------|
G|--------|--------|--------|--------|--------|--------|--------|--------|--------|
D|--------|--------|--------|--------|--------|--------|--------|--------|--------|
A|--------|--------|--------|--------|--------|--------|--------|--------|--------|
E|--------|--------|--------|--------|--------|--------|--------|--------|--------|


E|--------|--------|--------|--------|--------|
B|--------|--------|--------|--------|--------|
G|--------|--------|--------|--------|--------|
D|--------|--------|--------|--------|--------|
A|--------|--------|--------|--------|--------|
E|--------|--------|--------|--------|--------|





Track 4: Rhythm Guitar (Verses)

E|--------|--------|--------|--------|--------|--------|--------|--------|-8----8---8--8--------------8---|
B|--------|--------|--------|--------|--------|--------|--------|--------|-8----8---8--8--10--10--10--8---|
G|--------|--------|--------|--------|--------|--------|--------|--------|-9----9---9--9--10--10--10--9---|
D|--------|--------|--------|--------|--------|--------|--------|--------|-10---10--10-10-10--10--10--10--|
A|--------|--------|--------|--------|--------|--------|--------|--------|----------------8---8---8-------|
E|--------|--------|--------|--------|--------|--------|--------|--------|--------------------------------|


E|-8----8---8--8------------------|-8----8---8--8--------------8---|-8----8---8--8------------------|
B|-8----8---8--8--10--11--10--8---|-8----8---8--8--10--10--10--8---|-8----8---8--8--10--11--10--8---|
G|-9----9---9--9--10--10--10--10--|-9----9---9--9--10--10--10--9---|-9----9---9--9--10--10--10--10--|
D|-10---10--10-10-10--10--10--10--|-10---10--10-10-10--10--10--10--|-10---10--10-10-10--10--10--10--|
A|----------------8---8---8---8---|----------------8---8---8-------|----------------8---8---8---8---|
E|--------------------------------|--------------------------------|--------------------------------|


E|-8----8---8--8--------------8---|-8----8---8--8------------------|-8----8---8--8--------------8---|
B|-8----8---8--8--10--10--10--8---|-8----8---8--8--10--11--10--8---|-8----8---8--8--10--10--10--8---|
G|-9----9---9--9--10--10--10--9---|-9----9---9--9--10--10--10--10--|-9----9---9--9--10--10--10--9---|
D|-10---10--10-10-10--10--10--10--|-10---10--10-10-10--10--10--10--|-10---10--10-10-10--10--10--10--|
A|----------------8---8---8-------|----------------8---8---8---8---|----------------8---8---8-------|
E|--------------------------------|--------------------------------|--------------------------------|


E|-8----8---8--8------------------|-8----8---8--8--------------8---|-8----8---8--8------------------|
B|-8----8---8--8--10--11--10--8---|-8----8---8--8--10--10--10--8---|-8----8---8--8--10--11--10--8---|
G|-9----9---9--9--10--10--10--10--|-9----9---9--9--10--10--10--9---|-9----9---9--9--10--10--10--10--|
D|-10---10--10-10-10--10--10--10--|-10---10--10-10-10--10--10--10--|-10---10--10-10-10--10--10--10--|
A|----------------8---8---8---8---|----------------8---8---8-------|----------------8---8---8---8---|
E|--------------------------------|--------------------------------|--------------------------------|


E|--------|--------|--------|--------|--------|--------|--------|--------|--------|
B|--------|--------|--------|--------|--------|--------|--------|--------|--------|
G|--------|--------|--------|--------|--------|--------|--------|--------|--------|
D|--------|--------|--------|--------|--------|--------|--------|--------|--------|
A|--------|--------|--------|--------|--------|--------|--------|--------|--------|
E|--------|--------|--------|--------|--------|--------|--------|--------|--------|


E|--------|--------|--------|--------|--------|--------|--------|--------|--------|
B|--------|--------|--------|--------|--------|--------|--------|--------|--------|
G|--------|--------|--------|--------|--------|--------|--------|--------|--------|
D|--------|--------|--------|--------|--------|--------|--------|--------|--------|
A|--------|--------|--------|--------|--------|--------|--------|--------|--------|
E|--------|--------|--------|--------|--------|--------|--------|--------|--------|


E|--------|--------|--------|--------|--------|--------|--------|--------|--------|
B|--------|--------|--------|--------|--------|--------|--------|--------|--------|
G|--------|--------|--------|--------|--------|--------|--------|--------|--------|
D|--------|--------|--------|--------|--------|--------|--------|--------|--------|
A|--------|--------|--------|--------|--------|--------|--------|--------|--------|
E|--------|--------|--------|--------|--------|--------|--------|--------|--------|


E|--------|--------|--------|--------|--------|--------|--------|--------|--------|
B|--------|--------|--------|--------|--------|--------|--------|--------|--------|
G|--------|--------|--------|--------|--------|--------|--------|--------|--------|
D|--------|--------|--------|--------|--------|--------|--------|--------|--------|
A|--------|--------|--------|--------|--------|--------|--------|--------|--------|
E|--------|--------|--------|--------|--------|--------|--------|--------|--------|


E|--------|--------|--------|--------|--------|--------|-8----8---8--8--------------8---|
B|--------|--------|--------|--------|--------|--------|-8----8---8--8--10--10--10--8---|
G|--------|--------|--------|--------|--------|--------|-9----9---9--9--10--10--10--9---|
D|--------|--------|--------|--------|--------|--------|-10---10--10-10-10--10--10--10--|
A|--------|--------|--------|--------|--------|--------|----------------8---8---8-------|
E|--------|--------|--------|--------|--------|--------|--------------------------------|


E|-8----8---8--8------------------|-8----8---8--8--------------8---|-8----8---8--8------------------|
B|-8----8---8--8--10--11--10--8---|-8----8---8--8--10--10--10--8---|-8----8---8--8--10--11--10--8---|
G|-9----9---9--9--10--10--10--10--|-9----9---9--9--10--10--10--9---|-9----9---9--9--10--10--10--10--|
D|-10---10--10-10-10--10--10--10--|-10---10--10-10-10--10--10--10--|-10---10--10-10-10--10--10--10--|
A|----------------8---8---8---8---|----------------8---8---8-------|----------------8---8---8---8---|
E|--------------------------------|--------------------------------|--------------------------------|


E|-8----8---8--8--------------8---|-8----8---8--8------------------|-8----8---8--8--------------8---|
B|-8----8---8--8--10--10--10--8---|-8----8---8--8--10--11--10--8---|-8----8---8--8--10--10--10--8---|
G|-9----9---9--9--10--10--10--9---|-9----9---9--9--10--10--10--10--|-9----9---9--9--10--10--10--9---|
D|-10---10--10-10-10--10--10--10--|-10---10--10-10-10--10--10--10--|-10---10--10-10-10--10--10--10--|
A|----------------8---8---8-------|----------------8---8---8---8---|----------------8---8---8-------|
E|--------------------------------|--------------------------------|--------------------------------|


E|-8----8---8--8------------------|--------|--------|--------|--------|--------|--------|
B|-8----8---8--8--10--11--10--8---|--------|--------|--------|--------|--------|--------|
G|-9----9---9--9--10--10--10--10--|--------|--------|--------|--------|--------|--------|
D|-10---10--10-10-10--10--10--10--|--------|--------|--------|--------|--------|--------|
A|----------------8---8---8---8---|--------|--------|--------|--------|--------|--------|
E|--------------------------------|--------|--------|--------|--------|--------|--------|


E|--------|--------|--------|--------|--------|--------|--------|--------|--------|
B|--------|--------|--------|--------|--------|--------|--------|--------|--------|
G|--------|--------|--------|--------|--------|--------|--------|--------|--------|
D|--------|--------|--------|--------|--------|--------|--------|--------|--------|
A|--------|--------|--------|--------|--------|--------|--------|--------|--------|
E|--------|--------|--------|--------|--------|--------|--------|--------|--------|


E|--------|--------|--------|--------|--------|--------|--------|--------|--------|
B|--------|--------|--------|--------|--------|--------|--------|--------|--------|
G|--------|--------|--------|--------|--------|--------|--------|--------|--------|
D|--------|--------|--------|--------|--------|--------|--------|--------|--------|
A|--------|--------|--------|--------|--------|--------|--------|--------|--------|
E|--------|--------|--------|--------|--------|--------|--------|--------|--------|


E|--------|--------|--------|--------|--------|--------|
B|--------|--------|--------|--------|--------|--------|
G|--------|--------|--------|--------|--------|--------|
D|--------|--------|--------|--------|--------|--------|
A|--------|--------|--------|--------|--------|--------|
E|--------|--------|--------|--------|--------|--------|





Track 5: Edge 4

E|--------|--------|--------|--------|--------|--------|--------|--------|--------|
B|--------|--------|--------|--------|--------|--------|--------|--------|--------|
G|--------|--------|--------|--------|--------|--------|--------|--------|--------|
D|--------|--------|--------|--------|--------|--------|--------|--------|--------|
A|--------|--------|--------|--------|--------|--------|--------|--------|--------|
E|--------|--------|--------|--------|--------|--------|--------|--------|--------|


E|--------|--------|--------|--------|--------|--------|--------|--------|--------|
B|--------|--------|--------|--------|--------|--------|--------|--------|--------|
G|--------|--------|--------|--------|--------|--------|--------|--------|--------|
D|--------|--------|--------|--------|--------|--------|--------|--------|--------|
A|--------|--------|--------|--------|--------|--------|--------|--------|--------|
E|--------|--------|--------|--------|--------|--------|--------|--------|--------|


E|--------|--------|--------|--------|--------|--------|--------|--------|--------|
B|--------|--------|--------|--------|--------|--------|--------|--------|--------|
G|--------|--------|--------|--------|--------|--------|--------|--------|--------|
D|--------|--------|--------|--------|--------|--------|--------|--------|--------|
A|--------|--------|--------|--------|--------|--------|--------|--------|--------|
E|--------|--------|--------|--------|--------|--------|--------|--------|--------|


E|--------|--------|--------|--------|--------|--------|--------|--------|--------|
B|--------|--------|--------|--------|--------|--------|--------|--------|--------|
G|--------|--------|--------|--------|--------|--------|--------|--------|--------|
D|--------|--------|--------|--------|--------|--------|--------|--------|--------|
A|--------|--------|--------|--------|--------|--------|--------|--------|--------|
E|--------|--------|--------|--------|--------|--------|--------|--------|--------|


E|--------|--------|--------|--------|--------|--------|--------|--------|--------|
B|--------|--------|--------|--------|--------|--------|--------|--------|--------|
G|--------|--------|--------|--------|--------|--------|--------|--------|--------|
D|--------|--------|--------|--------|--------|--------|--------|--------|--------|
A|--------|--------|--------|--------|--------|--------|--------|--------|--------|
E|--------|--------|--------|--------|--------|--------|--------|--------|--------|


E|--------|--------|--------|-------------5----------------|-------------3----------------|
B|--------|--------|--------|-----5---------------5--------|-----3---------------3--------|
G|--------|--------|--------|-5-------5-------5-------5----|-4-------4-------4-------4----|
D|--------|--------|--------|------------------------------|------------------------------|
A|--------|--------|--------|------------------------------|------------------------------|
E|--------|--------|--------|------------------------------|------------------------------|


E|------------------------------|-----1------------1--------|-------------5---5------------|
B|-----1------------------------|---------------------------|-----5---------------5--------|
G|-2-------2---3---3---3----2---|-2--------2---2-------2----|-5-------5---------------5----|
D|------------------------------|---------------------------|------------------------------|
A|------------------------------|---------------------------|------------------------------|
E|------------------------------|---------------------------|------------------------------|


E|-------------3---3------------|------------------------------|-----1--------1------------|
B|-----3---------------3--------|-----1--------------------1---|-1-------------------------|
G|-4-------4---------------4----|-2-------0---3---3---3----2---|-2-------3--------2----2---|
D|------------------------------|------------------------------|---------------------------|
A|------------------------------|------------------------------|---------------------------|
E|------------------------------|------------------------------|---------------------------|


E|--------|--------|--------|--------|--------|--------|--------|--------|--------|
B|--------|--------|--------|--------|--------|--------|--------|--------|--------|
G|--------|--------|--------|--------|--------|--------|--------|--------|--------|
D|--------|--------|--------|--------|--------|--------|--------|--------|--------|
A|--------|--------|--------|--------|--------|--------|--------|--------|--------|
E|--------|--------|--------|--------|--------|--------|--------|--------|--------|


E|--------|--------|--------|--------|--------|--------|--------|--------|--------|
B|--------|--------|--------|--------|--------|--------|--------|--------|--------|
G|--------|--------|--------|--------|--------|--------|--------|--------|--------|
D|--------|--------|--------|--------|--------|--------|--------|--------|--------|
A|--------|--------|--------|--------|--------|--------|--------|--------|--------|
E|--------|--------|--------|--------|--------|--------|--------|--------|--------|


E|--------|--------|--------|--------|--------|--------|--------|--------|--------|
B|--------|--------|--------|--------|--------|--------|--------|--------|--------|
G|--------|--------|--------|--------|--------|--------|--------|--------|--------|
D|--------|--------|--------|--------|--------|--------|--------|--------|--------|
A|--------|--------|--------|--------|--------|--------|--------|--------|--------|
E|--------|--------|--------|--------|--------|--------|--------|--------|--------|


E|--------|--------|--------|--------|--------|--------|--------|--------|--------|
B|--------|--------|--------|--------|--------|--------|--------|--------|--------|
G|--------|--------|--------|--------|--------|--------|--------|--------|--------|
D|--------|--------|--------|--------|--------|--------|--------|--------|--------|
A|--------|--------|--------|--------|--------|--------|--------|--------|--------|
E|--------|--------|--------|--------|--------|--------|--------|--------|--------|


E|--------|--------|--------|--------|--------|--------|
B|--------|--------|--------|--------|--------|--------|
G|--------|--------|--------|--------|--------|--------|
D|--------|--------|--------|--------|--------|--------|
A|--------|--------|--------|--------|--------|--------|
E|--------|--------|--------|--------|--------|--------|





Track 6: Adam

G|--------|--------|--------|--------|------------------------------|------------------------------|
D|--------|--------|--------|--------|------------------------------|------------------------------|
A|--------|--------|--------|--------|-3------------------------0---|-3--------------------3---0---|
E|--------|--------|--------|--------|----------0---3---5-----------|----------0---3---5-----------|


G|------------------------------|------------------------------|------------------------------|
D|------------------------------|------------------------------|------------------------------|
A|-3------------------------0---|-3--------------------3---0---|-3------------------------0---|
E|----------0---3---5-----------|----------0---3---5-----------|----------0---3---5-----------|


G|------------------------------|------------------------------|------------------------------|
D|------------------------------|------------------------------|------------------------------|
A|-3--------------------3---0---|-3------------------------0---|-3--------------------3---0---|
E|----------0---3---5-----------|----------0---3---5-----------|----------0---3---5-----------|


G|------------------------------|------------------------------|------------------------------|
D|------------------------------|------------------------------|------------------------------|
A|-3------------------------0---|-3--------------------3---0---|-3------------------------0---|
E|----------0---3---5-----------|----------0---3---5-----------|----------0---3---5-----------|


G|------------------------------|------------------------------|------------------------------|
D|------------------------------|------------------------------|------------------------------|
A|-3--------------------3---0---|-3------------------------0---|-3--------------------3---0---|
E|----------0---3---5-----------|----------0---3---5-----------|----------0---3---5-----------|


G|------------------------------|------------------------------|------------------------------|
D|-3--------------------3-------|-5--------------------5-------|-5--------------------5-------|
A|------------------------------|------------------------------|------------------------------|
E|----------0---3---5-----------|----------0---3---5-----------|----------0---3---5-----------|


G|------------------------------|------------------------------|------------------------------|
D|-3--------------------3-------|-3--------------------3-------|-5--------------------5-------|
A|------------------------------|------------------------------|------------------------------|
E|----------0---3---5-----------|----------0---3---5-----------|----------0---3---5-----------|


G|------------------------------|------------------------------|------------------------------|
D|------------------------------|------------------------------|------------------------------|
A|-3------------------------0---|-3--------------------3---0---|-3------------------------0---|
E|----------0---3---5-----------|----------0---3---5-----------|----------0---3---5-----------|


G|------------------------------|------------------------------|------------------------------|
D|------------------------------|------------------------------|------------------------------|
A|-3--------------------3---0---|-3------------------------0---|-3--------------------3---0---|
E|----------0---3---5-----------|----------0---3---5-----------|----------0---3---5-----------|


G|------------------------------|------------------------------|------------------------------|
D|------------------------------|------------------------------|------------------------------|
A|-3------------------------0---|-3--------------------3---0---|-3------------------------0---|
E|----------0---3---5-----------|----------0---3---5-----------|----------0---3---5-----------|


G|------------------------------|------------------------------|------------------------------|
D|------------------------------|------------------------------|------------------------------|
A|-3--------------------3---0---|-3------------------------0---|-3--------------------3---0---|
E|----------0---3---5-----------|----------0---3---5-----------|----------0---3---5-----------|


G|------------------------------|------------------------------|------------------------------|
D|------------------------------|------------------------------|-3--------------------3-------|
A|-3------------------------0---|-3--------------------3---0---|------------------------------|
E|----------0---3---5-----------|----------0---3---5-----------|----------0---3---5-----------|


G|------------------------------|------------------------------|------------------------------|
D|-5--------------------5-------|-5--------------------5-------|-3--------------------3-------|
A|------------------------------|------------------------------|------------------------------|
E|----------0---3---5-----------|----------0---3---5-----------|----------0---3---5-----------|


G|------------------------------|------------------------------|------------------------------|
D|-3--------------------3-------|-5--------------------5-------|------------------------------|
A|------------------------------|------------------------------|-3------------------------0---|
E|----------0---3---5-----------|----------0---3---5-----------|----------0---3---5-----------|


G|------------------------------|------------------------------|------------------------------|
D|------------------------------|------------------------------|------------------------------|
A|-3--------------------3---0---|-3------------------------0---|-3--------------------3---0---|
E|----------0---3---5-----------|----------0---3---5-----------|----------0---3---5-----------|


G|--------------------|--------------------|--------|---------------------------------|
D|--------------------|--------------------|--------|---------------------------------|
A|--------------------|--------------------|--------|---------------------------------|
E|-5----5---------5---|-3----3---------3---|-1------|-1---1---1---1---1---1---1---1---|


G|------------------------|------------------------|--------|------------------------|
D|------------------------|------------------------|--------|-3---3---0--------------|
A|-------------------3----|-------------------0----|--------|--------------3---------|
E|-5---------3---5--------|-3---------3---5--------|-1------|-------------------5----|


G|------------------------------|------------------------------|------------------------------|
D|------------------------------|------------------------------|------------------------------|
A|-3------------------------0---|-3--------------------3---0---|-3------------------------0---|
E|----------0---3---5-----------|----------0---3---5-----------|----------0---3---5-----------|


G|------------------------------|------------------------------|------------------------------|
D|------------------------------|------------------------------|------------------------------|
A|-3--------------------3---0---|-3------------------------0---|-3--------------------3---0---|
E|----------0---3---5-----------|----------0---3---5-----------|----------0---3---5-----------|


G|------------------------------|------------------------------|------------------------------|
D|------------------------------|------------------------------|------------------------------|
A|-3------------------------0---|-3--------------------3---0---|-3------------------------0---|
E|----------0---3---5-----------|----------0---3---5-----------|----------0---3---5-----------|


G|------------------------------|------------------------------|------------------------------|
D|------------------------------|------------------------------|------------------------------|
A|-3--------------------3---0---|-3------------------------0---|-3--------------------3---0---|
E|----------0---3---5-----------|----------0---3---5-----------|----------0---3---5-----------|


G|------------------------------|------------------------------|------------------------------|
D|-3--------------------3-------|-5--------------------5-------|-5--------------------5-------|
A|------------------------------|------------------------------|------------------------------|
E|----------0---3---5-----------|----------0---3---5-----------|----------0---3---5-----------|


G|------------------------------|------------------------------|------------------------------|
D|-3--------------------3-------|-3--------------------3-------|-5--------------------5-------|
A|------------------------------|------------------------------|------------------------------|
E|----------0---3---5-----------|----------0---3---5-----------|----------0---3---5-----------|


G|------------------------------|------------------------------|------------------------------|
D|------------------------------|------------------------------|------------------------------|
A|-3------------------------0---|-3--------------------3---0---|-3------------------------0---|
E|----------0---3---5-----------|----------0---3---5-----------|----------0---3---5-----------|


G|------------------------------|------------------------------|------------------------------|
D|------------------------------|------------------------------|------------------------------|
A|-3--------------------3---0---|-3------------------------0---|-3--------------------3---0---|
E|----------0---3---5-----------|----------0---3---5-----------|----------0---3---5-----------|


G|------------------------------|------------------------------|------------------------------|
D|------------------------------|------------------------------|------------------------------|
A|-3------------------------0---|-3--------------------3---0---|-3------------------------0---|
E|----------0---3---5-----------|----------0---3---5-----------|----------0---3---5-----------|


G|------------------------------|------------------------------|------------------------------|
D|------------------------------|------------------------------|------------------------------|
A|-3--------------------3---0---|-3------------------------0---|-3--------------------3---0---|
E|----------0---3---5-----------|----------0---3---5-----------|----------0---3---5-----------|


G|------------------------------|------------------------------|------------------------------|
D|------------------------------|------------------------------|------------------------------|
A|-3------------------------0---|-3--------------------3---0---|-3------------------------0---|
E|----------0---3---5-----------|----------0---3---5-----------|----------0---3---5-----------|


G|------------------------------|------------------------------|------------------------------|
D|------------------------------|------------------------------|------------------------------|
A|-3--------------------3---0---|-3------------------------0---|-3--------------------3---0---|
E|----------0---3---5-----------|----------0---3---5-----------|----------0---3---5-----------|


G|------------------------------|------------------------------|------------------------------|
D|------------------------------|------------------------------|------------------------------|
A|-3------------------------0---|-3--------------------3---0---|-3------------------------0---|
E|----------0---3---5-----------|----------0---3---5-----------|----------0---3---5-----------|


G|------------------------------|------------------------------|------------------------------|
D|------------------------------|------------------------------|------------------------------|
A|-3--------------------3---0---|-3------------------------0---|-3--------------------3---0---|
E|----------0---3---5-----------|----------0---3---5-----------|----------0---3---5-----------|