Menu:

 

Search:

 

type o negative - summer breeze:

 



Title: Summer Breeze
Artist: 
Album: Bloody Kisses
Author: James Seals & Dash Crofts


Track 1: Gtr.1

 B|--------|------------------------------|------------------------------------|------------------------------|
F#|--------|------------------------------|------------------------------------|------------------------------|
 D|--------|------------------------------|------------------------------------|------------------------------|
 A|--------|---------5---2---2------------|------------------------------------|---------5---2---2------------|
 E|--------|-----3---------------5----3---|-2--3--2----------------------------|-----3---------------5----3---|
 B|--------|-5----------------------------|----------5---3--4--5----3--4--5----|-5----------------------------|


 B|---------------------------------------|------------------------------|------------------------------------|
F#|---------------------------------------|------------------------------|------------------------------------|
 D|---------------------------------------|------------------------------|------------------------------------|
 A|----------------------------------5----|---------5---2---2------------|------------------------------------|
 E|-2--3--2--------------------------3----|-----3---------------5----3---|-2--3--2----------------------------|
 B|----------5---3--4--5----5--4--3-------|-5----------------------------|----------5---3--4--5----3--4--5----|


 B|------------------------------|---------------------------------------|------------------------------|
F#|------------------------------|---------------------------------------|------------------------------|
 D|------------------------------|---------------------------------------|--------------5-------5---5---|
 A|---------5---2---2------------|----------------------------------5----|-7----7----7--5---5---5---5---|
 E|-----3---------------5----3---|-2--3--2--------------------------3----|-7----7----7--3-------3---3---|
 B|-5----------------------------|----------5---3--4--5----5--4--3-------|-5----5----5------------------|


 B|---------------------------|----------------------------------|------------------------------|
F#|---------------------------|----------------------------------|------------------------------|
 D|-12------12--12--7----7----|----------5---5---5--5--5--7--8---|--------------5-------5---5---|
 A|-12--12--12--12--7----7----|-7----7---5---5---5--5--5--7--8---|-7----7----7--5---5---5---5---|
 E|-10------10--10--5----5----|-7----7---3---3---3--3--3--5--6---|-7----7----7--3-------3---3---|
 B|---------------------------|-5----5-----------0--0--0---------|-5----5----5------------------|


 B|------------------------------|----------------------------------|----------------------------------|
F#|------------------------------|----------------------------------|----------------------------------|
 D|-12------12--12--7----7-------|----------14--14-----------12-14--|-7----7---7---7---7---7--6--7--8--|
 A|-12--12--12--12--7----7-------|-7----7---14--14-----------12-14--|-7----7---7---7---7---7--6--7--8--|
 E|-10------10--10--5----5-------|-7----7---12--12-----------10-12--|-5----5---5---5---5---5--4--5--6--|
 B|---------------------------0--|-5----5-----------0--0--0---------|----------------------------------|


 B|----------------------------------|----------------------------------|--------------------------|
F#|----------------------------------|----------------------------------|--------------------------|
 D|-9----9---9---9---9---9--8--7--4--|-5----5---5--5--5--7----7---------|--------------------------|
 A|-9----9---9---9---9---9--8--7--4--|-5----5---5--5--5--7----7---------|-7--------7---7-----7-----|
 E|-7----7---7---7---7---7--6--5--2--|-3----3---3--3--3--5----5---------|-7--------7---7-----7-----|
 B|----------------------------------|----------------------------0--0--|-5----0---5---5-----5--0--|


 B|----------------------------------|----------------------------------|----------------------------------|
F#|----------------------------------|----------------------------------|----------------------------------|
 D|------------------12----12-14--14-|-7----7---7---7---7---7--6--7--8--|-9----9---9---9---9---9--8--7--4--|
 A|-7--------7---7---12----12-14--14-|-7----7---7---7---7---7--6--7--8--|-9----9---9---9---9---9--8--7--4--|
 E|-7--------7---7---10----10-12--12-|-5----5---5---5---5---5--4--5--6--|-7----7---7---7---7---7--6--5--2--|
 B|-5----0---5---5-------------------|----------------------------------|----------------------------------|


 B|----------------------------------|--------------------------|----------------------------------|
F#|----------------------------------|--------------------------|----------------------------------|
 D|-5----5---5--5--5--7----7---------|--------------------------|------------------5-----5--7---7--|
 A|-5----5---5--5--5--7----7---------|-7--------7---7-----7-----|-7--------7---7---5-----5--7---7--|
 E|-3----3---3--3--3--5----5---------|-7--------7---7-----7-----|-7--------7---7---3-----3--5---5--|
 B|----------------------------0--0--|-5----0---5---5-----5--0--|-5----0---5---5-------------------|


 B|------------------------------|------------------------------------|------------------------------|
F#|------------------------------|------------------------------------|------------------------------|
 D|------------------------------|------------------------------------|------------------------------|
 A|---------5---2---2------------|------------------------------------|---------5---2---2------------|
 E|-----3---------------5----3---|-2--3--2----------------------------|-----3---------------5----3---|
 B|-5----------------------------|----------5---3--4--5----3--4--5----|-5----------------------------|


 B|---------------------------------------|------------------------------|-----------------------------------|
F#|---------------------------------------|------------------------------|-----------------------------------|
 D|---------------------------------------|--------------5-------5---5---|-12------12--12--7-------7---7-----|
 A|----------------------------------5----|-7----7----7--5---5---5---5---|-12--12--12--12--7---7---7---7-----|
 E|-2--3--2--------------------------3----|-7----7----7--3-------3---3---|-10------10--10--5-------5---5-----|
 B|----------5---3--4--5----5--4--3-------|-5----5----5------------------|--------------------------------0--|


 B|----------------------------------|------------------------------|------------------------------|
F#|----------------------------------|------------------------------|------------------------------|
 D|----------5---5---5--5--5--7--8---|--------------5-------5---5---|-12------12--12--7----7-------|
 A|-7----7---5---5---5--5--5--7--8---|-7----7----7--5---5---5---5---|-12--12--12--12--7----7-------|
 E|-7----7---3---3---3--3--3--5--6---|-7----7----7--3-------3---3---|-10------10--10--5----5-------|
 B|-5----5-----------0--0--0---------|-5----5----5------------------|---------------------------0--|


 B|----------------------------------|----------------------------------|----------------------------------|
F#|----------------------------------|----------------------------------|----------------------------------|
 D|----------14--14-----------12-14--|-7----7---7---7---7---7--6--7--8--|-9----9---9---9---9---9--8--7--4--|
 A|-7----7---14--14-----------12-14--|-7----7---7---7---7---7--6--7--8--|-9----9---9---9---9---9--8--7--4--|
 E|-7----7---12--12-----------10-12--|-5----5---5---5---5---5--4--5--6--|-7----7---7---7---7---7--6--5--2--|
 B|-5----5-----------0--0--0---------|----------------------------------|----------------------------------|


 B|----------------------------------|--------------------------|----------------------------------|
F#|----------------------------------|--------------------------|----------------------------------|
 D|-5----5---5--5--5--7----7---------|--------------------------|------------------12----12-14--14-|
 A|-5----5---5--5--5--7----7---------|-7----7---7---7-----7-----|-7--------7---7---12----12-14--14-|
 E|-3----3---3--3--3--5----5---------|-7----7---7---7-----7-----|-7--------7---7---10----10-12--12-|
 B|----------------------------0--0--|-5----5---5---5-----5--0--|-5----0---5---5-------------------|


 B|----------------------------------|----------------------------------|----------------------------------|
F#|----------------------------------|----------------------------------|----------------------------------|
 D|-7----7---7---7---7---7--6--7--8--|-9----9---9---9---9---9--8--7--4--|-5----5---5--5--5--7----7---------|
 A|-7----7---7---7---7---7--6--7--8--|-9----9---9---9---9---9--8--7--4--|-5----5---5--5--5--7----7---------|
 E|-5----5---5---5---5---5--4--5--6--|-7----7---7---7---7---7--6--5--2--|-3----3---3--3--3--5----5---------|
 B|----------------------------------|----------------------------------|----------------------------0--0--|


 B|--------------------------|--------------------------------------|--------------------------|
F#|--------------------------|--------------------------------------|--------------------------|
 D|--------------------------|--------------------5-----5--7--7-----|----------10--10----------|
 A|-7----7---7---7-----7-----|-7----7---7---7--0--5-----5--7--7-----|-7--------10--10----------|
 E|-7----7---7---7-----7-----|-7----7---7---7-----3-----3--5--5-----|-7--------8---8-----------|
 B|-5----5---5---5-----5--0--|-5----5---5---5--------------------0--|-5----0-------------0--0--|


 B|------------------------------|--------------------------|------------------------------|
F#|------------------------------|--------------------------|------------------------------|
 D|-14---5---7---7---7---7-------|----------10--10----------|-14---5---7---7---7---7-------|
 A|-14---5---7---7---7---7-------|-7--------10--10----------|-14---5---7---7---7---7-------|
 E|-12---3---5---5---5---5-------|-7--------8---8-----------|-12---3---5---5---5---5-------|
 B|---------------------------0--|-5----0-------------0--0--|---------------------------0--|


 B|--------------------------|------------------------------|--------------------------|
F#|--------------------------|------------------------------|--------------------------|
 D|----------10--10----------|-14---5---7---7---7---7-------|----------10--10----------|
 A|-7--------10--10----------|-14---5---7---7---7---7-------|-7--------10--10----------|
 E|-7--------8---8-----------|-12---3---5---5---5---5-------|-7--------8---8-----------|
 B|-5----0-------------0--0--|---------------------------0--|-5----0-------------0--0--|


 B|------------------------------|-------------------------------------------------|
F#|------------------------------|-------------------------------------------------|
 D|-14---5---7---7---7---7-------|-------------------------------------------------|
 A|-14---5---7---7---7---7-------|-5--5--5--5--5--5--5--5--5--5--5--5--5--5--5--5--|
 E|-12---3---5---5---5---5-------|-5--5--5--5--5--5--5--5--5--5--5--5--5--5--5--5--|
 B|---------------------------0--|-3--3--3--3--3--3--3--3--3--3--3--3--3--3--3--3--|


 B|-------------------------------------------------|-------------------------------------------------|
F#|-------------------------------------------------|-------------------------------------------------|
 D|-------------------------------------------------|-------------------------------------------------|
 A|-7--7--7--7--7--7--7--7--7--7--7--7--7--7--7--7--|-5--5--5--5--5--5--5--5--5--5--5--5--5--5--5--5--|
 E|-7--7--7--7--7--7--7--7--7--7--7--7--7--7--7--7--|-5--5--5--5--5--5--5--5--5--5--5--5--5--5--5--5--|
 B|-5--5--5--5--5--5--5--5--5--5--5--5--5--5--5--5--|-3--3--3--3--3--3--3--3--3--3--3--3--3--3--3--3--|


 B|-------------------------------------------------|-------------------------------------------------|
F#|-------------------------------------------------|-------------------------------------------------|
 D|-------------------------------------------------|-------------------------------------------------|
 A|-7--7--7--7--7--7--7--7--7--7--7--7--7--7--7--7--|-2--2--2--2--2--2--2--2--2-----------------------|
 E|-7--7--7--7--7--7--7--7--7--7--7--7--7--7--7--7--|-2--2--2--2--2--2--2--2--2--7--7-----5-----5--7--|
 B|-5--5--5--5--5--5--5--5--5--5--5--5--5--5--5--5--|-0--0--0--0--0--0--0--0--0--------7-----7--------|


 B|------------------------|-----------------------|----------------------------------|
F#|------------------------|-----------------------|----------------------------------|
 D|--------------5-----5---|-12----12--7-----7-----|----------5---5---5--5--5--7--8---|
 A|-7----7----0--5-----5---|-12----12--7-----7-----|-7----7---5---5---5--5--5--7--8---|
 E|-7----7-------3-----3---|-10----10--5-----5-----|-7----7---3---3---3--3--3--5--6---|
 B|-5----5-----------------|--------------------0--|-5----5-----------0--0--0---------|


 B|---------------------|-----------------------|----------------------------------|
F#|---------------------|-----------------------|----------------------------------|
 D|-----------5-----5---|-12----12--7-----7-----|----------14--14--4--4--4--12-14--|
 A|-7----7----5-----5---|-12----12--7-----7-----|-7----7---14--14--4--4--4--12-14--|
 E|-7----7----3-----3---|-10----10--5-----5-----|-7----7---12--12--2--2--2--10-12--|
 B|-5----5--------------|--------------------0--|-5----5-----------0--0--0---------|


 B|----------------------------------|----------------------------------|----------------------------------|
F#|----------------------------------|----------------------------------|----------------------------------|
 D|-7----7---7---7---7---7--6--7--8--|-9----9---9---9---9---9--8--7--4--|-5----5---5--5--5--7----7---------|
 A|-7----7---7---7---7---7--6--7--8--|-9----9---9---9---9---9--8--7--4--|-5----5---5--5--5--7----7---------|
 E|-5----5---5---5---5---5--4--5--6--|-7----7---7---7---7---7--6--5--2--|-3----3---3--3--3--5----5---------|
 B|----------------------------------|----------------------------------|----------------------------0--0--|


 B|--------------------------|----------------------------------|----------------------------------|
F#|--------------------------|----------------------------------|----------------------------------|
 D|--------------------------|------------------12----12-14--12-|-7----7---7---7---7---7--6--7--8--|
 A|-7----7---7---7-----7-----|-7--------7---7---12----12-14--12-|-7----7---7---7---7---7--6--7--8--|
 E|-7----7---7---7-----7-----|-7--------7---7---10----10-12--10-|-5----5---5---5---5---5--4--5--6--|
 B|-5----5---5---5-----5--0--|-5----0---5---5-------------------|----------------------------------|


 B|----------------------------------|----------------------------------|------------------------|
F#|----------------------------------|----------------------------------|------------------------|
 D|-9----9---9---9---9---9--8--7--4--|-5----5---5--5--5--7----7---------|------------------------|
 A|-9----9---9---9---9---9--8--7--4--|-5----5---5--5--5--7----7---------|-7----7---7---7---------|
 E|-7----7---7---7---7---7--6--5--2--|-3----3---3--3--3--5----5---------|-7----7---7---7---------|
 B|----------------------------------|----------------------------0--0--|-5----5---5---5-----5-5-|


 B|----------------------------------|-------------|-------------|-----------------------------|
F#|----------------------------------|-------------|-------------|-----------------------------|
 D|------------------5-----5--7---5--|-7------7----|-9-----9-----|-5-----5--5--5--7----7---7---|
 A|-7----7---7---7---5-----5--7---5--|-7------7----|-9-----9-----|-5-----5--5--5--7----7---7---|
 E|-7----7---7---7---3-----3--5---3--|-5------5----|-7-----7-----|-3-----3--3--3--5----5---5---|
 B|-5----5---5---5-------------------|-------------|-------------|-----------------------------|


 B|----------------------|
F#|----------------------|
 D|----------------------|
 A|-7-----7----7--0--9---|
 E|-7-----7----7-----9---|
 B|-5-----5----5-----7---|





Track 2: Synth

 B|--------|--------|--------|--------|--------|--------|--------|--------|--------|
F#|--------|--------|--------|--------|--------|--------|--------|--------|--------|
 D|--------|--------|--------|--------|--------|--------|--------|--------|--------|
 A|--------|--------|--------|--------|--------|--------|--------|--------|--------|
 E|--------|--------|--------|--------|--------|--------|--------|--------|--------|
 B|--------|--------|--------|--------|--------|--------|--------|--------|--------|


 B|--------|--------|--------|--------|--------|--------|--------|--------|--------|
F#|--------|--------|--------|--------|--------|--------|--------|--------|--------|
 D|--------|--------|--------|--------|--------|--------|--------|--------|--------|
 A|--------|--------|--------|--------|--------|--------|--------|--------|--------|
 E|--------|--------|--------|--------|--------|--------|--------|--------|--------|
 B|--------|--------|--------|--------|--------|--------|--------|--------|--------|


 B|--------|-21---22---24--22---15-15---|-15----------|--------|--------|--------|
F#|--------|----------------------------|-------------|--------|--------|--------|
 D|--------|-18---19---21--19---12-12---|-12----------|--------|--------|--------|
 A|--------|----------------------------|-------------|--------|--------|--------|
 E|--------|-16---17---19--17---10-10---|-10----------|--------|--------|--------|
 B|--------|----------------------------|-------------|--------|--------|--------|


 B|-21---22---24--22---15---15--|-15-----|-15----------|--------|--------|--------|
F#|-----------------------------|--------|-------------|--------|--------|--------|
 D|-18---19---21--19---12---12--|-12-----|-12----------|--------|--------|--------|
 A|-----------------------------|--------|-------------|--------|--------|--------|
 E|-16---17---19--17---10---10--|-10-----|-10----------|--------|--------|--------|
 B|-----------------------------|--------|-------------|--------|--------|--------|


 B|--------|--------|--------|--------|--------|--------|--------|--------|--------|
F#|--------|--------|--------|--------|--------|--------|--------|--------|--------|
 D|--------|--------|--------|--------|--------|--------|--------|--------|--------|
 A|--------|--------|--------|--------|--------|--------|--------|--------|--------|
 E|--------|--------|--------|--------|--------|--------|--------|--------|--------|
 B|--------|--------|--------|--------|--------|--------|--------|--------|--------|


 B|-21---22---24--22---15-15---|-15----------|--------|--------|--------|-21---22---24--22---15---15--|
F#|----------------------------|-------------|--------|--------|--------|-----------------------------|
 D|-18---19---21--19---12-12---|-12----------|--------|--------|--------|-18---19---21--19---12---12--|
 A|----------------------------|-------------|--------|--------|--------|-----------------------------|
 E|-16---17---19--17---10-10---|-10----------|--------|--------|--------|-16---17---19--17---10---10--|
 B|----------------------------|-------------|--------|--------|--------|-----------------------------|


 B|--------|--------|--------|--------|--------|--------|--------|--------|--------|
F#|--------|--------|--------|--------|--------|--------|--------|--------|--------|
 D|--------|--------|--------|--------|--------|--------|--------|--------|--------|
 A|--------|--------|--------|--------|--------|--------|--------|--------|--------|
 E|--------|--------|--------|--------|--------|--------|--------|--------|--------|
 B|--------|--------|--------|--------|--------|--------|--------|--------|--------|


 B|--------|--------|--------|--------|--------|--------|--------|--------|--------|
F#|--------|--------|--------|--------|--------|--------|--------|--------|--------|
 D|--------|--------|--------|--------|--------|--------|--------|--------|--------|
 A|--------|--------|--------|--------|--------|--------|--------|--------|--------|
 E|--------|--------|--------|--------|--------|--------|--------|--------|--------|
 B|--------|--------|--------|--------|--------|--------|--------|--------|--------|


 B|--------|--------|--------|--------|--------|-21---22---24--22---15-15---|-15-----|
F#|--------|--------|--------|--------|--------|----------------------------|--------|
 D|--------|--------|--------|--------|--------|-18---19---21--19---12-12---|-12-----|
 A|--------|--------|--------|--------|--------|----------------------------|--------|
 E|--------|--------|--------|--------|--------|-16---17---19--17---10-10---|-10-----|
 B|--------|--------|--------|--------|--------|----------------------------|--------|


 B|--------|--------|--------|-21---22---24--22---15-15---|-15---15-----|--------|
F#|--------|--------|--------|----------------------------|-------------|--------|
 D|--------|--------|--------|-18---19---21--19---12-12---|-12---12-----|--------|
 A|--------|--------|--------|----------------------------|-------------|--------|
 E|--------|--------|--------|-16---17---19--17---10-10---|-10---10-----|--------|
 B|--------|--------|--------|----------------------------|-------------|--------|


 B|--------|--------|
F#|--------|--------|
 D|--------|--------|
 A|--------|--------|
 E|--------|--------|
 B|--------|--------|





Track 3: Synth

 B|--------|--------|--------|--------|--------|--------|--------|--------|--------|
F#|--------|--------|--------|--------|--------|--------|--------|--------|--------|
 D|--------|--------|--------|--------|--------|--------|--------|--------|--------|
 A|--------|--------|--------|--------|--------|--------|--------|--------|--------|
 E|--------|--------|--------|--------|--------|--------|--------|--------|--------|
 B|--------|--------|--------|--------|--------|--------|--------|--------|--------|


 B|--------|--------|--------|--------|--------|--------|--------|--------|--------|
F#|--------|--------|--------|--------|--------|--------|--------|--------|--------|
 D|--------|--------|--------|--------|--------|--------|--------|--------|--------|
 A|--------|--------|--------|--------|--------|--------|--------|--------|--------|
 E|--------|--------|--------|--------|--------|--------|--------|--------|--------|
 B|--------|--------|--------|--------|--------|--------|--------|--------|--------|


 B|--------|--------|--------|--------|--------|--------|--------|--------|--------|
F#|--------|--------|--------|--------|--------|--------|--------|--------|--------|
 D|--------|--------|--------|--------|--------|--------|--------|--------|--------|
 A|--------|--------|--------|--------|--------|--------|--------|--------|--------|
 E|--------|--------|--------|--------|--------|--------|--------|--------|--------|
 B|--------|--------|--------|--------|--------|--------|--------|--------|--------|


 B|--------|--------|-12----12--10----|-10----10--12----|-12----15--15--------|-12----12--10----|
F#|--------|--------|-14----14--10----|-10----10--14----|-14----13--13--------|-14----14--10----|
 D|--------|--------|-14----14--12----|-12----12--14----|-14----12--12--------|-14----14--12----|
 A|--------|--------|-14----14--12----|-12----12--14----|-14------------------|-14----14--12----|
 E|--------|--------|-----------------|-----------------|---------------------|-----------------|
 B|--------|--------|-----------------|-----------------|---------------------|-----------------|


 B|-10----10--12----|-12--------------|-17-----|-------16--------|-----------14----|
F#|-10----10--14----|-14--------------|-15-----|-17----17--------|-15----15--------|
 D|-12----12--14----|-14--------------|--------|-16--------------|-12----12--------|
 A|-12----12--14----|-14--------------|--------|-----------------|-----------------|
 E|-----------------|-----------------|--------|-----------------|-----------------|
 B|-----------------|-----------------|--------|-----------------|-----------------|


 B|-12-----|--------|-17-----|-------16--------|-----------14----|-12-----|--------|
F#|-14-----|--------|-15-----|-17----17--------|-15----15--------|-14-----|--------|
 D|-14-----|--------|--------|-16--------------|-12----12--------|-14-----|--------|
 A|--------|--------|--------|-----------------|-----------------|--------|--------|
 E|--------|--------|--------|-----------------|-----------------|--------|--------|
 B|--------|--------|--------|-----------------|-----------------|--------|--------|


 B|--------|--------|--------|--------|--------|--------|--------|--------|--------|
F#|--------|--------|--------|--------|--------|--------|--------|--------|--------|
 D|--------|--------|--------|--------|--------|--------|--------|--------|--------|
 A|--------|--------|--------|--------|--------|--------|--------|--------|--------|
 E|--------|--------|--------|--------|--------|--------|--------|--------|--------|
 B|--------|--------|--------|--------|--------|--------|--------|--------|--------|


 B|--------|--------|--------|--------|--------|--------|--------|--------|--------|
F#|--------|--------|--------|--------|--------|--------|--------|--------|--------|
 D|--------|--------|--------|--------|--------|--------|--------|--------|--------|
 A|--------|--------|--------|--------|--------|--------|--------|--------|--------|
 E|--------|--------|--------|--------|--------|--------|--------|--------|--------|
 B|--------|--------|--------|--------|--------|--------|--------|--------|--------|


 B|--------|--------|--------|--------|--------|--------|--------|--------|--------|
F#|--------|--------|--------|--------|--------|--------|--------|--------|--------|
 D|--------|--------|--------|--------|--------|--------|--------|--------|--------|
 A|--------|--------|--------|--------|--------|--------|--------|--------|--------|
 E|--------|--------|--------|--------|--------|--------|--------|--------|--------|
 B|--------|--------|--------|--------|--------|--------|--------|--------|--------|


 B|--------|--------|--------|--------|--------|--------|
F#|--------|--------|--------|--------|--------|--------|
 D|--------|--------|--------|--------|--------|--------|
 A|--------|--------|--------|--------|--------|--------|
 E|--------|--------|--------|--------|--------|--------|
 B|--------|--------|--------|--------|--------|--------|





Track 4: Gtr.1

 B|--------|--------|--------|--------|--------|--------|--------|--------|--------|
F#|--------|--------|--------|--------|--------|--------|--------|--------|--------|
 D|--------|--------|--------|--------|--------|--------|--------|--------|--------|
 A|--------|--------|--------|--------|--------|--------|--------|--------|--------|
 E|--------|--------|--------|--------|--------|--------|--------|--------|--------|
 B|--------|--------|--------|--------|--------|--------|--------|--------|--------|


 B|--------|--------|--------|--------|--------|--------|--------|--------|--------|
F#|--------|--------|--------|--------|--------|--------|--------|--------|--------|
 D|--------|--------|--------|--------|--------|--------|--------|--------|--------|
 A|--------|--------|--------|--------|--------|--------|--------|--------|--------|
 E|--------|--------|--------|--------|--------|--------|--------|--------|--------|
 B|--------|--------|--------|--------|--------|--------|--------|--------|--------|


 B|--------|--------|--------|--------|--------|--------|--------|--------|--------|
F#|--------|--------|--------|--------|--------|--------|--------|--------|--------|
 D|--------|--------|--------|--------|--------|--------|--------|--------|--------|
 A|--------|--------|--------|--------|--------|--------|--------|--------|--------|
 E|--------|--------|--------|--------|--------|--------|--------|--------|--------|
 B|--------|--------|--------|--------|--------|--------|--------|--------|--------|


 B|--------|--------|--------|--------|--------|--------|--------|--------|--------|
F#|--------|--------|--------|--------|--------|--------|--------|--------|--------|
 D|--------|--------|--------|--------|--------|--------|--------|--------|--------|
 A|--------|--------|--------|--------|--------|--------|--------|--------|--------|
 E|--------|--------|--------|--------|--------|--------|--------|--------|--------|
 B|--------|--------|--------|--------|--------|--------|--------|--------|--------|


 B|--------|--------|--------|--------|--------|--------|--------|--------|--------|
F#|--------|--------|--------|--------|--------|--------|--------|--------|--------|
 D|--------|--------|--------|--------|--------|--------|--------|--------|--------|
 A|--------|--------|--------|--------|--------|--------|--------|--------|--------|
 E|--------|--------|--------|--------|--------|--------|--------|--------|--------|
 B|--------|--------|--------|--------|--------|--------|--------|--------|--------|


 B|-15-----|--------|--------|--------|--------|--------|--------|--------|--------|
F#|--------|--------|--------|--------|--------|--------|--------|--------|--------|
 D|-12-----|--------|--------|--------|--------|--------|--------|--------|--------|
 A|--------|--------|--------|--------|--------|--------|--------|--------|--------|
 E|-10-----|--------|--------|--------|--------|--------|--------|--------|--------|
 B|--------|--------|--------|--------|--------|--------|--------|--------|--------|


 B|--------|--------|--------|--------|--------|--------|--------|--------|--------|
F#|--------|--------|--------|--------|--------|--------|--------|--------|--------|
 D|--------|--------|--------|--------|--------|--------|--------|--------|--------|
 A|--------|--------|--------|--------|--------|--------|--------|--------|--------|
 E|--------|--------|--------|--------|--------|--------|--------|--------|--------|
 B|--------|--------|--------|--------|--------|--------|--------|--------|--------|


 B|--------|--------|--------|--------|--------|--------|--------|--------|--------|
F#|--------|--------|--------|--------|--------|--------|--------|--------|--------|
 D|--------|--------|--------|--------|--------|--------|--------|--------|--------|
 A|--------|--------|--------|--------|--------|--------|--------|--------|--------|
 E|--------|--------|--------|--------|--------|--------|--------|--------|--------|
 B|--------|--------|--------|--------|--------|--------|--------|--------|--------|


 B|--------|--------|--------|--------|--------|--------|
F#|--------|--------|--------|--------|--------|--------|
 D|--------|--------|--------|--------|--------|--------|
 A|--------|--------|--------|--------|--------|--------|
 E|--------|--------|--------|--------|--------|--------|
 B|--------|--------|--------|--------|--------|--------|





Track 5: Gtr.3

 B|--------|--------|--------|--------|--------|--------|--------|--------|--------|
F#|--------|--------|--------|--------|--------|--------|--------|--------|--------|
 D|--------|--------|--------|--------|--------|--------|--------|--------|--------|
 A|--------|--------|--------|--------|--------|--------|--------|--------|--------|
 E|--------|--------|--------|--------|--------|--------|--------|--------|--------|
 B|--------|--------|--------|--------|--------|--------|--------|--------|--------|


 B|--------|--------|--------|--------|--------|--------|--------|--------|--------|
F#|--------|--------|--------|--------|--------|--------|--------|--------|--------|
 D|--------|--------|--------|--------|--------|--------|--------|--------|--------|
 A|--------|--------|--------|--------|--------|--------|--------|--------|--------|
 E|--------|--------|--------|--------|--------|--------|--------|--------|--------|
 B|--------|--------|--------|--------|--------|--------|--------|--------|--------|


 B|--------|--------|--------|--------|--------|--------|--------|--------|--------|
F#|--------|--------|--------|--------|--------|--------|--------|--------|--------|
 D|--------|--------|--------|--------|--------|--------|--------|--------|--------|
 A|--------|--------|--------|--------|--------|--------|--------|--------|--------|
 E|--------|--------|--------|--------|--------|--------|--------|--------|--------|
 B|--------|--------|--------|--------|--------|--------|--------|--------|--------|


 B|--------|--------|--------|--------|--------|--------|--------|--------|--------|
F#|--------|--------|--------|--------|--------|--------|--------|--------|--------|
 D|--------|--------|--------|--------|--------|--------|--------|--------|--------|
 A|--------|--------|--------|--------|--------|--------|--------|--------|--------|
 E|--------|--------|--------|--------|--------|--------|--------|--------|--------|
 B|--------|--------|--------|--------|--------|--------|--------|--------|--------|


 B|--------|--------|--------|--------|--------|--------|--------|--------|--------|
F#|--------|--------|--------|--------|--------|--------|--------|--------|--------|
 D|--------|--------|--------|--------|--------|--------|--------|--------|--------|
 A|--------|--------|--------|--------|--------|--------|--------|--------|--------|
 E|--------|--------|--------|--------|--------|--------|--------|--------|--------|
 B|--------|--------|--------|--------|--------|--------|--------|--------|--------|


 B|--------|--------|--------|--------|--------|--------|--------|-----------------|
F#|--------|--------|--------|--------|--------|--------|--------|-----------------|
 D|--------|--------|--------|--------|--------|--------|--------|-----------------|
 A|--------|--------|--------|--------|--------|--------|--------|-----------------|
 E|--------|--------|--------|--------|--------|--------|--------|-------12---9----|
 B|--------|--------|--------|--------|--------|--------|--------|-----------------|


 B|------------------|---------------------------|--------------------------|----------------|
F#|------------------|---------------------------|--------------------------|----------------|
 D|------------------|---------------------------|--------------------------|----------------|
 A|------------------|----7----7-----------------|----7----7----7-----7-----|----7----7------|
 E|-5------5---5-----|-7-----------0---0---------|-5------------------------|-7--------------|
 B|------------------|---------------------------|--------------------------|----------------|


 B|------------------------|---------------------------------|---------------------------------|
F#|------------------------|---------------------------------|---------------------------------|
 D|-4----------------------|-------------------------7-------|---------------------------------|
 A|----2----2--------------|---------7-----------5-------5---|---------7---------------7-------|
 E|--------------2---------|-----7-------7---3---------------|-----5-------5-------7-------7---|
 B|-------------------5----|-5-------------------------------|-3---------------5---------------|


 B|------------------------------|---------------------------------|---------------------------------|
F#|------------------------------|---------------------------------|---------------------------------|
 D|------------------------------|-------------------------7-------|---------------------------------|
 A|-7-------7---5---5------------|---------7-----------5-------5---|-----7-------7-----------7-------|
 E|-----7-------3---3------------|-----7-------7---3---------------|---------5-----------7-------7---|
 B|------------------------------|-5-------------------------------|-3---------------5---------------|


 B|---------------------------|--------|--------|--------|--------|-------------------------|
F#|---------------------------|--------|--------|--------|--------|-------------------------|
 D|---------------------------|--------|--------|--------|--------|-------------------------|
 A|-7-------7---7---7-----7---|-0------|-2------|-2------|-2------|-2-----2-----------------|
 E|-----7---7---7---7-----7---|-0------|--------|--------|--------|-------------------------|
 B|---------------------------|--------|--------|--------|--------|------------0--3--5---3--|


 B|-------------|--------|--------------------------------|--------|----------------|
F#|-------------|--------|--------------------------------|--------|----------------|
 D|-------------|--------|--------------------------------|-9------|-9------9-------|
 A|-------------|--------|-5----5---5--5--5--7----7----7--|--------|----------------|
 E|-------------|-2------|-3----3---3--3--3--5----5----5--|--------|----------------|
 B|-3----3------|-0------|--------------------------------|--------|----------------|


 B|-------------|--------|--------|--------|
F#|-------------|--------|--------|--------|
 D|-------------|--------|--------|-9------|
 A|-------------|--------|--------|--------|
 E|-------------|-2------|--------|--------|
 B|-3----3------|--------|--------|--------|





Track 6: Bass

D|--------|--------|--------|--------|--------|------------------------------|---------------------------------------|
A|--------|--------|--------|--------|--------|---------5---2---2------------|---------------------------------------|
E|--------|--------|--------|--------|--------|-----3---------------5----3---|-2--3--2-------------------------------|
B|--------|--------|--------|--------|--------|-5----------------------------|----------5---3--4--5----3--4--5---10--|


D|------------------------------|------------------------------------------|------------------------------|
A|---------5---2---2------------|------------------------------------------|------------------------------|
E|-----3---------------5----3---|-2--3--2-----------------------------3----|--------------3---3---3---3---|
B|-5----------------------------|----------5---3--4--5----5--5--4--3-------|-5----5----5------------------|


D|------------------------|----------------------------------|------------------------------|
A|------------------------|------------------5--5--5---------|------------------------------|
E|-----------5---5----5---|----------3---3---3--3--3--5--6---|--------------3---3---3---3---|
B|-3----3-----------------|-5----5-----------0--0--0---------|-5----5----5------------------|


D|------------------------|----------------------------------|----------------------------------|
A|------------------------|----------7---7---7--7--7--5--7---|----------------------------------|
E|-----------5---5----5---|------------------5--5--5---------|-5----5---5---5---5---5--4--5--6--|
B|-3----3-----------------|-5----0-----------5--5--5---------|----------------------------------|


D|----------------------------------|----------------------------------|--------------------------|
A|----------------------------------|----------------------------------|--------------------------|
E|-7----7---7---7---7---7--6--5--2--|-3----3---3--3--3--5----5---5--5--|--------------------------|
B|----------------------------------|----------------------------------|-5----5---5---5-----5--5--|


D|--------------------------------|----------------------------------|----------------------------------|
A|--------------------------------|----------------------------------|----------------------------------|
E|------------------10----10-12---|-5----5---5---5---5---5--4--5--6--|-7----7---7---7---7---7--6--5--2--|
B|-5----5---5---5-----------------|----------------------------------|----------------------------------|


D|----------------------------------|--------------------------|--------------------------------|
A|----------------------------------|--------------------------|--------------------------------|
E|-3----3---3--3--3--5----5---5--5--|--------------------------|------------------3-----3--5----|
B|----------------------------------|-5----5---5---5-----5--5--|-5----5---5---5-----------------|


D|---------12--9---9------------|------------------------------------|---------12--9---9------------|
A|-----10--------------12---10--|-9--10-9----------------------------|-----10--------------12---10--|
E|-12---------------------------|----------12--10-11-12---10-11-12---|-12---------------------------|
B|------------------------------|------------------------------------|------------------------------|


D|------------------------------------------|------------------------------|------------------------|
A|-9--10-9----------------------------------|------------------------------|------------------------|
E|----------12--10-11-12---12----------3----|--------------3---3---3---3---|-----------5---5----5---|
B|----------------------------5--4--3-------|-5----5----5------------------|-3----3-----------------|


D|----------------------------------|------------------------------|------------------------|
A|------------------5--5--5---------|------------------------------|------------------------|
E|----------3---3---3--3--3--5--6---|--------------3---3---3---3---|-----------5---5----5---|
B|-5----5-----------0--0--0---------|-5----5----5------------------|-3----3-----------------|


D|----------------------------------|----------------------------------|----------------------------------|
A|----------7---7---7--7--7--5--7---|----------------------------------|----------------------------------|
E|------------------5--5--5---------|-5----5---5---5---5---5--4--5--6--|-7----7---7---7---7---7--6--5--2--|
B|-5----0-----------5--5--5---------|----------------------------------|----------------------------------|


D|----------------------------------|--------------------------|--------------------------------|
A|----------------------------------|--------------------------|--------------------------------|
E|-3----3---3--3--3--5----5---5--5--|--------------------------|------------------10----10-12---|
B|----------------------------------|-5----5---5---5-----5--5--|-5----5---5---5-----------------|


D|----------------------------------|----------------------------------|----------------------------------|
A|----------------------------------|----------------------------------|----------------------------------|
E|-5----5---5---5---5---5--4--5--6--|-7----7---7---7---7---7--6--5--2--|-3----3---3--3--3--5----5---5--5--|
B|----------------------------------|----------------------------------|----------------------------------|


D|--------------------------|--------------------------------|-------------|--------|
A|--------------------------|--------------------------------|-------------|--------|
E|--------------------------|------------------3-----3--5----|-------------|--------|
B|-5----5---5---5-----5--5--|-5----5---5---5-----------------|-5-----------|--------|


D|--------|-----------------|-----------------------------|------------------------------|
A|--------|-----------15----|-----------------------------|-7----------------------------|
E|--------|-----------------|-------------8---8-----8--8--|------3---5---5---5---5-------|
B|--------|-----------------|-5----5--0-------------------|---------------------------0--|


D|-----------------------------|---------------------------|-------------------------------------------------|
A|-----------------------------|-7-------------------------|-------------------------------------------------|
E|-------------8---8-----8--8--|------3---5---5---5---5----|-------------------------------------------------|
B|-5----5--0-------------------|---------------------------|-3--3--3--3--3--3--3--3--3--3--3--3--3--3--3--3--|


D|-------------------------------------------------|-------------------------------------------------|
A|-------------------------------------------------|-------------------------------------------------|
E|-------------------------------------------------|-------------------------------------------------|
B|-5--5--5--5--5--5--5--5--5--5--5--5--5--5--5--5--|-3--3--3--3--3--3--3--3--3--3--3--3--3--3--3--3--|


D|-------------------------------------------------|-------------------------------------------------|
A|-------------------------------------------------|-------------------------------------------------|
E|-------------------------------------------------|----------------------------7--7-----5-----5--7--|
B|-5--5--5--5--5--5--5--5--5--5--5--5--5--5--5--5--|-0--0--0--0--0--0--0--0--0--------7-----7--------|


D|------------------------------|------------------------|----------------------------------|
A|------------------------------|------------------------|------------------5--5--5---------|
E|--------------3---3---3---3---|-----------5---5----5---|----------3---3---3--3--3--5--6---|
B|-5----5----5------------------|-3----3-----------------|-5----5-----------0--0--0---------|


D|------------------------------|------------------------|----------------------------------|
A|------------------------------|------------------------|----------7---7---7--7--7--5--7---|
E|--------------3---3---3---3---|-----------5---5----5---|------------------5--5--5---------|
B|-5----5----5------------------|-3----3-----------------|-5----0-----------5--5--5---------|


D|----------------------------------|----------------------------------|----------------------------------|
A|----------------------------------|----------------------------------|----------------------------------|
E|-5----5---5---5---5---5--4--5--6--|-7----7---7---7---7---7--6--5--2--|-3----3---3--3--3--5----5---5--5--|
B|----------------------------------|----------------------------------|----------------------------------|


D|--------------------------|--------------------------------|----------------------------------|
A|--------------------------|--------------------------------|----------------------------------|
E|--------------------------|------------------10----10-12---|-5----5---5---5---5---5--4--5--6--|
B|-5----5---5---5-----5--5--|-5----5---5---5-----------------|----------------------------------|


D|----------------------------------|----------------------------------|--------------------------|
A|----------------------------------|----------------------------------|--------------------------|
E|-7----7---7---7---7---7--6--5--2--|-3----3---3--3--3--5----5---5--5--|--------------------------|
B|----------------------------------|----------------------------------|-5----5---5---5-----5--5--|


D|--------------------------------|-------------|-------------|-----------------------------|
A|--------------------------------|-------------|-------------|-----------------------------|
E|------------------3-----3--5----|-5------5----|-7-----7-----|-3-----3--3--3--5----5---12--|
B|-5----5---5---5-----------------|-------------|-------------|-----------------------------|


D|-----------------|
A|-----------------|
E|-----------------|
B|-5-----5-----7---|