Menu:

 

Search:

 

trifear - fusion:

 



Title: Fusion
Artist: 
Album: 
Author: Ryan Jennings


Track 1: Synth

E|-7------|-5------|-3------|-2------|-7------|-5------|-3------|-2------|-7------|
B|--------|--------|--------|--------|--------|--------|--------|--------|--------|
G|--------|--------|--------|--------|--------|--------|--------|--------|--------|
D|--------|--------|--------|--------|--------|--------|--------|--------|--------|
A|--------|--------|--------|--------|--------|--------|--------|--------|--------|
E|--------|--------|--------|--------|--------|--------|--------|--------|--------|


E|-5------|-3------|-2------|-7------|-5------|-3------|-2------|-7------|-5------|
B|--------|--------|--------|--------|--------|--------|--------|--------|--------|
G|--------|--------|--------|--------|--------|--------|--------|--------|--------|
D|--------|--------|--------|--------|--------|--------|--------|--------|--------|
A|--------|--------|--------|--------|--------|--------|--------|--------|--------|
E|--------|--------|--------|--------|--------|--------|--------|--------|--------|


E|-3------|-2------|-------------|--------|-------------|--------|-7------|-5------|
B|--------|--------|-------3-----|--------|-------3-----|--------|--------|--------|
G|--------|--------|-0-----------|-2------|-0-----------|-2------|--------|--------|
D|--------|--------|-------------|--------|-------------|--------|--------|--------|
A|--------|--------|-------------|--------|-------------|--------|--------|--------|
E|--------|--------|-------------|--------|-------------|--------|--------|--------|


E|-3------|-2------|-7------|-5------|-3------|-2------|-7------|-5------|-3------|
B|--------|--------|--------|--------|--------|--------|--------|--------|--------|
G|--------|--------|--------|--------|--------|--------|--------|--------|--------|
D|--------|--------|--------|--------|--------|--------|--------|--------|--------|
A|--------|--------|--------|--------|--------|--------|--------|--------|--------|
E|--------|--------|--------|--------|--------|--------|--------|--------|--------|


E|-2------|-------------|--------|-------------|--------|-7------|-5------|-3------|
B|--------|-------3-----|--------|-------3-----|--------|--------|--------|--------|
G|--------|-0-----------|-2------|-0-----------|-2------|--------|--------|--------|
D|--------|-------------|--------|-------------|--------|--------|--------|--------|
A|--------|-------------|--------|-------------|--------|--------|--------|--------|
E|--------|-------------|--------|-------------|--------|--------|--------|--------|


E|-2------|-7------|-5------|-3------|-2------|-7------|-5------|-3------|-2------|
B|--------|--------|--------|--------|--------|--------|--------|--------|--------|
G|--------|--------|--------|--------|--------|--------|--------|--------|--------|
D|--------|--------|--------|--------|--------|--------|--------|--------|--------|
A|--------|--------|--------|--------|--------|--------|--------|--------|--------|
E|--------|--------|--------|--------|--------|--------|--------|--------|--------|


E|-7------|-5------|-3------|-2------|
B|--------|--------|--------|--------|
G|--------|--------|--------|--------|
D|--------|--------|--------|--------|
A|--------|--------|--------|--------|
E|--------|--------|--------|--------|





Track 2: Guitar

E|--------|--------|--------|--------|--------|--------|--------|------------------------|
B|--------|--------|--------|--------|--------|--------|--------|------------3--2--0--2--|
G|--------|--------|--------|--------|--------|--------|--------|------------------------|
D|--------|--------|--------|--------|--------|--------|--------|------------------------|
A|--------|--------|--------|--------|--------|--------|--------|------------------------|
E|--------|--------|--------|--------|--------|--------|--------|------------------------|


E|--------------------|-------------------------------|-----------------------------|
B|-0------0--2--3--3--|-2-----------------------2--2--|-------------------------0---|
G|--------------------|----2--2--2-----2--2--4--------|-4--0--0--0-----0--0--2------|
D|--------------------|-------------------------------|-----------------------------|
A|--------------------|-------------------------------|-----------------------------|
E|--------------------|-------------------------------|-----------------------------|


E|--------|--------------------|-------------------------------|-----------------------------|
B|--------|-0------0--2--3--3--|-2-----------------------2--2--|-------------------------0---|
G|-3------|--------------------|----2--2--2-----2--2--4--------|-4--0--0--0-----0--0--2------|
D|--------|--------------------|-------------------------------|-----------------------------|
A|--------|--------------------|-------------------------------|-----------------------------|
E|--------|--------------------|-------------------------------|-----------------------------|


E|--------|--------------2---|-0------------------|--------------------|--------|-------------|
B|--------|-0------2--3------|----2--2--2------2--|-3--0--0--0------0--|--------|-------3-----|
G|-3------|------------------|--------------------|--------------------|-3------|-0-----------|
D|--------|------------------|--------------------|--------------------|--------|-------------|
A|--------|------------------|--------------------|--------------------|--------|-------------|
E|--------|------------------|--------------------|--------------------|--------|-------------|


E|--------|-------------|--------------------|--------------------|-------------------------------|
B|--------|-------3-----|--------3--2--0--2--|-0------0--2--3--3--|-2-----------------------2--2--|
G|-2------|-0-----------|-2------------------|--------------------|----2--2--2-----2--2--4--------|
D|--------|-------------|--------------------|--------------------|-------------------------------|
A|--------|-------------|--------------------|--------------------|-------------------------------|
E|--------|-------------|--------------------|--------------------|-------------------------------|


E|-----------------------------|--------|--------------------|-------------------------------|
B|-------------------------0---|--------|-0------0--2--3--3--|-2-----------------------2--2--|
G|-4--0--0--0-----0--0--2------|-3------|--------------------|----2--2--2-----2--2--4--------|
D|-----------------------------|--------|--------------------|-------------------------------|
A|-----------------------------|--------|--------------------|-------------------------------|
E|-----------------------------|--------|--------------------|-------------------------------|


E|-----------------------------|--------|-----------------------------------------------|
B|-------------------------0---|--------|-5---3--5--0--0--0--0--3--3--3--3--0--0-----0--|
G|-4--0--0--0-----0--0--2------|-3------|-----------------------------------------2-----|
D|-----------------------------|--------|-----------------------------------------------|
A|-----------------------------|--------|-----------------------------------------------|
E|-----------------------------|--------|-----------------------------------------------|


E|-------------------------------|-----------------------------------------|--------|
B|-3--3--3--3--3--3--3--3--0-----|-5---3--0---------0--5---3--0---------0--|--------|
G|-------------------------------|---------------2-------------------2-----|-2------|
D|-------------------------------|------------4-------------------4--------|--------|
A|-------------------------------|-----------------------------------------|--------|
E|-------------------------------|-----------------------------------------|--------|


E|-------------|--------|-------------|--------------------|--------|--------|--------|
B|-------3-----|--------|-------3-----|--------3--2--0--2--|--------|--------|--------|
G|-0-----------|-2------|-0-----------|-2------------------|--------|--------|--------|
D|-------------|--------|-------------|--------------------|--------|--------|--------|
A|-------------|--------|-------------|--------------------|--------|--------|--------|
E|-------------|--------|-------------|--------------------|--------|--------|--------|


E|--------|--------|--------|--------|--------------------|--------------------|-------------------------------|
B|--------|--------|--------|--------|--------3--2--0--2--|-0------0--2--3--3--|-2-----------------------2--2--|
G|--------|--------|--------|--------|--------------------|--------------------|----2--2--2-----2--2--4--------|
D|--------|--------|--------|--------|--------------------|--------------------|-------------------------------|
A|--------|--------|--------|--------|--------------------|--------------------|-------------------------------|
E|--------|--------|--------|--------|--------------------|--------------------|-------------------------------|


E|-----------------------------|--------|--------------------|-------------------------------|
B|-------------------------0---|--------|-0------0--2--3--3--|-2-----------------------2--2--|
G|-4--0--0--0-----0--0--2------|-3------|--------------------|----2--2--2-----2--2--4--------|
D|-----------------------------|--------|--------------------|-------------------------------|
A|-----------------------------|--------|--------------------|-------------------------------|
E|-----------------------------|--------|--------------------|-------------------------------|


E|-----------------------------|--------|
B|-------------------------0---|--------|
G|-4--0--0--0-----0--0--2------|-3------|
D|-----------------------------|--------|
A|-----------------------------|--------|
E|-----------------------------|--------|





Track 3: Bass

G|--------|--------|--------|--------|--------|--------|--------|--------|--------|
D|--------|--------|--------|--------|--------|--------|--------|--------|--------|
A|--------|--------|--------|--------|--------|--------|--------|--------|--------|
E|--------|--------|--------|--------|--------|--------|--------|--------|--------|


G|--------|--------|--------|--------|--------|--------|----------------------|-----------------------------------|
D|--------|--------|--------|--------|--------|--------|------------0---------|-----------------------------------|
A|--------|--------|--------|--------|--------|--------|---------------0---1--|-2-------2-------2-------2---4--5--|
E|--------|--------|--------|--------|--------|--------|----------------------|-----------------------------------|


G|-----------------------------------|-----------------------------------|-----------------------------------|
D|-----------------------------------|-----------------------------------|-----------------------------------|
A|-0-------0-------0-------0---2--4--|-----------------------------------|-----------------------------------|
E|-----------------------------------|-3-------3-------3-------3---5--7--|-2-------2-------2-------2---2--2--|


G|-----------------------------------|-----------------------------------|-----------------------------------|
D|-----------------------------------|-----------------------------------|-----------------------------------|
A|-----------------------------0--2--|-0-------0-------0-------0---2--4--|-----------------------------0--2--|
E|-3-------3-------3-------3---------|-----------------------------------|-3-------3-------3-------3---------|


G|-----------------------------------|-----------------------------------|-----------------------------------|
D|-----------------------------------|-----------------------------------|-----------------------------------|
A|-0-------0-------0-------0---2--4--|-2-------2-------2-------2---4--5--|-0-------0-------0-------0---2--4--|
E|-----------------------------------|-----------------------------------|-----------------------------------|


G|-----------------------------------|-----------------------------------|-----------------------------------|
D|-----------------------------------|-----------------------------------|-----------------------------------|
A|-----------------------------------|-----------------------------------|-2-------2-------2-------2---4--5--|
E|-3-------3-------3-------3---5--7--|-2-------2-------2-------2---5--6--|-----------------------------------|


G|-----------------------------------|-----------------------------------|-----------------------------------|
D|-----------------------------------|-----------------------------------|-----------------------------------|
A|-0-------0-------0-------0---2--4--|-----------------------------------|-----------------------------------|
E|-----------------------------------|-3-------3-------3-------3---5--7--|-2-------2-------2-------2---5--6--|


G|-----------------------------------|-----------------------------------|-----------------------------------|
D|-----------------------------------|-----------------------------------|-----------------------------------|
A|-2-------2-------2-------2---4--5--|-0-------0-------0-------0---2--4--|-----------------------------------|
E|-----------------------------------|-----------------------------------|-3-------3-------3-------3---5--7--|


G|-----------------------------------|-----------------------------------|-----------------------------------|
D|-----------------------------------|-----------------------------------|-----------------------------------|
A|-----------------------------------|-----------------------------0--2--|-0-------0-------0-------0---2--4--|
E|-2-------2-------2-------2---5--6--|-3-------3-------3-------3---------|-----------------------------------|


G|-----------------------------------|-----------------------------------|-----------------------------------|
D|-----------------------------------|-----------------------------------|-----------------------------------|
A|-----------------------------0--2--|-0-------0-------0-------0---2--4--|-2-------2-------2-------2---4--5--|
E|-3-------3-------3-------3---------|-----------------------------------|-----------------------------------|


G|-----------------------------------|-----------------------------------|-----------------------------------|
D|-----------------------------------|-----------------------------------|-----------------------------------|
A|-0-------0-------0-------0---2--4--|-----------------------------------|-----------------------------------|
E|-----------------------------------|-3-------3-------3-------3---5--7--|-2-------2-------2-------2---5--6--|


G|-----------------------------------|-----------------------------------|-----------------------------------|
D|-----------------------------------|-----------------------------------|-----------------------------------|
A|-2-------2-------2-------2---4--5--|-0-------0-------0-------0---2--4--|-----------------------------------|
E|-----------------------------------|-----------------------------------|-3-------3-------3-------3---5--7--|


G|-----------------------------------|-----------------------------------|-----------------------------------|
D|-----------------------------------|-----------------------------------|-----------------------------------|
A|-----------------------------------|-2-------2-------2-------2---4--5--|-0-------0-------0-------0---2--4--|
E|-2-------2-------2-------2---5--6--|-----------------------------------|-----------------------------------|


G|-----------------------------------|-----------------------------------|-----------------------------------|
D|-----------------------------------|-----------------------------------|-----------------------------------|
A|-----------------------------------|-----------------------------------|-2-------2-------2-------2---4--5--|
E|-3-------3-------3-------3---5--7--|-2-------2-------2-------2---5--6--|-----------------------------------|


G|-----------------------------------|-----------------------------------|-----------------------------------|
D|-----------------------------------|-----------------------------------|-----------------------------------|
A|-0-------0-------0-------0---2--4--|-----------------------------------|-----------------------------------|
E|-----------------------------------|-3-------3-------3-------3---5--7--|-2-------2-------2-------2---5--6--|