Menu:

 

Search:

 

toto - daves gone skiing:

 



Title: Dave's Gone Skiing
Artist: 
Album: Tambu
Author: Steve Lukather, Mike Porcaro, Simon Phillips


Track 1: Steve Lukather - Dist. Gtr. #1

E|---------------------------|-----------------------------------------|----------------------------------|
B|---------------------------|-----------------------------------------|----------------------------------|
G|-------9---7---------------|-----------------------------------------|----------------------------------|
D|--------------9--7------5--|------9--7--5---------------7--5---------|----------------------------------|
A|---------------------------|---------------7--5--7------------7------|----5----5--7--5----------7--7----|
E|---------------------------|-------------------------------------7---|-7----------------7--3----5--5----|


E|----------------------------------|---------------------------------|-----------------------------------------|
B|----------------------------------|---------------------------------|-----------------------------------------|
G|----------------------------------|---------------------------------|-9---7-----------------------------------|
D|----------------------------7-----|-7-------------------------------|--------9--7------5-------9--7--5--------|
A|-7-----------------------4-----4--|----4----4----5--5----7--7-------|-----------------------------------7--5--|
E|-5----2--2----3--3----3-----------|---------------------------------|-----------------------------------------|


E|-----------------------------------------|------------------------------|----------------------------------|
B|-----------------------------------------|------------------------------|----------------------------------|
G|-----------------------------------------|------------------------------|----------------------------------|
D|--------7--5-----------------------------|------------------------------|------------7-----7---------------|
A|-7------------7---------5----5--7--5-----|------7--7----7---------------|---------4-----4-----4----4----5--|
E|-----------------7---7----------------7--|-3----5--5----5----2--2----3--|-3----3---------------------------|


E|-------------------------------------|-----------------------------------------|
B|-------------------------------------|-----------------------------------------|
G|-----------------9---7---------------|-----------------------------------------|
D|------------------------9--7------5--|------9--7--5---------------7--5---------|
A|-5----7--7---------------------------|---------------7--5--7------------7------|
E|-------------------------------------|-------------------------------------7---|


E|-------------------------------------|---------------------------------------|---------------------------------------|
B|-------------------------------------|---------------------------------------|---------------------------------------|
G|-------------------------------------|---------------------------------------|---------------------------------------|
D|-------------------------------------|-9----------------9--9-------------10--|--------------10-10------------9-------|
A|----5----5--7--5----------0--0---7---|-----7---0--8--8--------8--0---10------|-10--0--9--9--------9--0---7-------7---|
E|-7----------------7--3---------------|---------------------------------------|---------------------------------------|


E|-----------------------------------------|-----------------------------------------|
B|-----------------------------------------|-----------------------------------------|
G|-----------------------------------------|-------------9---7-----------------------|
D|----------9--9-------------10------------|----10-10-----------9--7------5-------9--|
A|-0--8--8--------8--0---10------10--0--9--|-9--------0------------------------------|
E|-----------------------------------------|-----------------------------------------|


E|-----------------------------------------|----------------------------------|----------------------------------|
B|-----------------------------------------|----------------------------------|----------------------------------|
G|-----------------------------------------|----------------------------------|----------------------------------|
D|-7--5---------------7--5-----------------|----------------------------------|--------------------7-----7-------|
A|-------7--5--7------------7---------5----|-5--7--5----------7--7----7-------|-----------------4-----4-----4----|
E|-----------------------------7---7-------|----------7--3----5--5----5----2--|-2----3--3----3-------------------|


E|-----------------------------------|-----------------------------------------|---------------------------------------|
B|-----------------------------------|-----------------------------------------|---------------------------------------|
G|-------------------------9---7-----|-----------------------------------------|---------------------------------------|
D|--------------------------------9--|-7------5-------9--7--5---------------7--|-5-------------------------------------|
A|-4----5--5----7--7-----------------|-------------------------7--5--7---------|----7---------5----5--7--5----------7--|
E|-----------------------------------|-----------------------------------------|-------7---7----------------7--3----5--|


E|---------------------------|-------------------------------------|-------------------------------------|
B|---------------------------|-------------------------------------|-------------------------------------|
G|---------------------------|-------------------------------------|---------9---7-----------------------|
D|---------------------------|-------7-----7-----------------------|----------------9--7------5-------9--|
A|-7----7--------------------|----4-----4-----4----4----5--5----7--|-7-----------------------------------|
E|-5----5----2--2----3--3----|-3-----------------------------------|-------------------------------------|


E|-----------------------------------------|-------------------------------------|
B|-----------------------------------------|-------------------------------------|
G|-----------------------------------------|-------------------------------------|
D|-7--5---------------7--5-----------------|-----------------------------9-------|
A|-------7--5--7------------7---------5----|-5--7--5----------0--0---7-------7---|
E|-----------------------------7---7-------|----------7--3-----------------------|


E|-----------------------------------------|-----------------------------------------|
B|-----------------------------------------|-----------------------------------------|
G|-----------------------------------------|-----------------------------------------|
D|----------9--9-------------10------------|----10-10------------9----------------9--|
A|-0--8--8--------8--0---10------10--0--9--|-9--------9--0---7-------7---0--8--8-----|
E|-----------------------------------------|-----------------------------------------|


E|-----------------------------------------|---------------------------------------|
B|-----------------------------------------|---------------------------------------|
G|-----------------------------------------|---------------------------------------|
D|-9-------------10---------------10-10----|---------9----------------9--9---------|
A|----8--0---10------10--0--9--9--------9--|-0---7-------7---0--8--8--------8--0---|
E|-----------------------------------------|---------------------------------------|


E|---------------------------------------|---------------------------------------|
B|---------------------------------------|---------------------------------------|
G|---------------------------------------|---------------------------------------|
D|-----10---------------10-10------------|-9----------------9--9-------------10--|
A|-10------10--0--9--9--------9--0---7---|-----7---0--8--8--------8--0---10------|
E|---------------------------------------|---------------------------------------|


E|-----------------------------0---|-0---------------------------|-----------------------------|
B|-----------------------------0---|-0---------------------------|-----------------------------|
G|---------------------------------|-------------------------2---|-2-----------------------4---|
D|--------------10-10----2-----2---|-2-----------------------2---|-2-----------------------4---|
A|-10--0--9--9--------9--2-----2---|-2-----------5----7--7---0---|-0-----------5----7--7---2---|
E|-----------------------0-----0---|-0-----5--7------------------|-------5--7------------------|


E|-------------------------------|-----------------------0---|-0---------------------------|
B|-------------------------------|-----------------------0---|-0---------------------------|
G|-4-----------------------------|---------------------------|-------------------------2---|
D|-4-----------------------------|-------------2---2-----2---|-2-----------------------2---|
A|-2-----------------------------|-------------2---2-----2---|-2-----------5----7--7---0---|
E|-------5--5--7---7--7--7---3---|-5----2--2---0---0-----0---|-0-----5--7------------------|


E|-----------------------------|-------------------------------|-----------------------0---|
B|-----------------------------|-------------------------------|-----------------------0---|
G|-2-----------------------4---|-4-----------------------------|---------------------------|
D|-2-----------------------4---|-4-----------------------------|-------------2---2-----2---|
A|-0-----------5----7--7---2---|-2-----------------------------|-------------2---2-----2---|
E|-------5--7------------------|-------5--5--7---7--7--7---3---|-5----2--2---0---0-----0---|


E|-0---------------------------|-----------------------------|-------------------------------|
B|-0---------------------------|-----------------------------|-------------------------------|
G|-------------------------2---|-2-----------------------4---|-4-----------------------------|
D|-2-----------------------2---|-2-----------------------4---|-4-----------------------------|
A|-2-----------5----7--7---0---|-0-----------5----7--7---2---|-2-----------------------------|
E|-0-----5--7------------------|-------5--7------------------|-------5--5--7---7--7--7---3---|


E|-----------------------0---|-0---------------------------|-----------------------------|
B|-----------------------0---|-0---------------------------|-----------------------------|
G|---------------------------|-------------------------2---|-2-----------------------4---|
D|-------------2---2-----2---|-2-----------------------2---|-2-----------------------4---|
A|-------------2---2-----2---|-2-----------5----7--7---0---|-0-----------5----7--7---2---|
E|-5----2--2---0---0-----0---|-0-----5--7------------------|-------5--7------------------|


E|-------------------------------|---------------------------------|-----------------|
B|-------------------------------|---------------------------------|-----------------|
G|-4-----------------------------|-----------------------------0---|-----------------|
D|-4-----------------------------|---------------------------------|-4----4----4-----|
A|-2-----------------------------|----------------------2--2-------|-----------------|
E|-------5--5--7---7--7--7---3---|-5----2--2---2---0---------------|-----------------|


E|-----------------------------0---|-0-----0-----|-------------------0---|-0----0----0----0----0----0----|
B|-----------------------------0---|-0-----0-----|-------------------0---|-0----0----0----0----0----0----|
G|-------------0-------------------|-------------|-----------------------|-------------------------------|
D|------0--0------------2--2-------|-------------|------------3--3-------|-------------------------------|
A|-----------------0---------------|-------------|-------0---------------|-------------------------------|
E|-3-------------------------------|-------------|-----------------------|-------------------------------|


E|-0-----------------0---|-0----0----0----0---0----0---0----|-0-----------------0---|
B|-0-----------------0---|-0----0----0----0---0----0---0----|-0-----------------0---|
G|-----------------------|----------------------------------|-------------------2---|
D|------------2--2-------|----------------------------------|------------0--0-------|
A|-------0---------------|----------------------------------|-----------------------|
E|-----------------------|----------------------------------|-------3---------------|


E|-0-----0-----|-------------------0---|-0-----0-----|-------------------0---|-0-----0-----|
B|-0-----0-----|-------------------0---|-0-----0-----|-------------------0---|-0-----0-----|
G|-2-----0-----|-----------------------|-------------|-----------------------|-------------|
D|-------------|------------2--2-------|-------------|------------3--3-------|-------------|
A|-------------|-------0---------------|-------------|-------0---------------|-------------|
E|-------------|-----------------------|-------------|-----------------------|-------------|


E|-------------------0---|-0-----0-----|-------------------0---|-0-----0-----|-----------------------|
B|-------------------0---|-0-----0-----|-------------------0---|-0-----0-----|-------------------0---|
G|-----------------------|-------------|-------------------2---|-2-----0-----|-------------------2---|
D|------------2--2-------|-------------|------------0--0-------|-------------|------------2--2-------|
A|-------0---------------|-------------|-----------------------|-------------|-------0---------------|
E|-----------------------|-------------|-------3---------------|-------------|-----------------------|


E|-------------|-----------------------|-------------|--------------------|-------------|
B|-0-----0-----|-------------------1---|-1-----1-----|-------1---1---1----|-------1-----|
G|-2-----2-----|-------------------2---|-2-----2-----|-------0---0---0----|-------0-----|
D|-------------|------------3--3-------|-------------|-------3---3---3----|-------3-----|
A|-------------|-----------------------|-------------|--------------------|-------------|
E|-------------|-------1---------------|-------------|--------------------|-------------|


E|---------------------------------|-----------------------------------------|-----------------------------------------|
B|-1-------------------------------|-----------------------------------------|-----------------------------------------|
G|-0-------------------------------|-----------------------------------------|-----------------------------------------|
D|-3-----------------------9-------|----------9--9-------------10------------|----10-10------------9----------------9--|
A|-----------------0---7-------7---|-0--8--8--------8--0---10------10--0--9--|-9--------9--0---7-------7---0--8--8-----|
E|------1--12---0------------------|-----------------------------------------|-----------------------------------------|


E|-----------------------------------------|---------------------------------------|
B|-----------------------------------------|---------------------------------------|
G|-----------------------------------------|---------------------------------------|
D|-9-------------10---------------10-10----|---------9----------------9--9---------|
A|----8--0---10------10--0--9--9--------9--|-0---7-------7---0--8--8--------8--0---|
E|-----------------------------------------|---------------------------------------|


E|---------------------------------------|---------------------------------------|
B|---------------------------------------|---------------------------------------|
G|---------------------------------------|---------------------------------------|
D|-----10---------------10-10------------|-9----------------9--9-------------10--|
A|-10------10--0--9--9--------9--0---7---|-----7---0--8--8--------8--0---10------|
E|---------------------------------------|---------------------------------------|


E|-----------------------------0---|-0-----0-----|--------|--------|--------|--------|
B|-----------------------------0---|-0-----0-----|--------|--------|--------|--------|
G|---------------------------------|-------------|--------|--------|--------|--------|
D|--------------10-10--------------|-------------|--------|--------|--------|--------|
A|-10--0--9--9--------9------------|-------------|--------|--------|--------|--------|
E|---------------------------------|-------------|--------|--------|--------|--------|


E|--------|--------|--------|--------|--------|--------|--------|--------|--------|
B|--------|--------|--------|--------|--------|--------|--------|--------|--------|
G|--------|--------|--------|--------|--------|--------|--------|--------|--------|
D|--------|--------|--------|--------|--------|--------|--------|--------|--------|
A|--------|--------|--------|--------|--------|--------|--------|--------|--------|
E|--------|--------|--------|--------|--------|--------|--------|--------|--------|


E|--------|--------|--------|--------|--------|--------|--------|--------|--------|
B|--------|--------|--------|--------|--------|--------|--------|--------|--------|
G|--------|--------|--------|--------|--------|--------|--------|--------|--------|
D|--------|--------|--------|--------|--------|--------|--------|--------|--------|
A|--------|--------|--------|--------|--------|--------|--------|--------|--------|
E|--------|--------|--------|--------|--------|--------|--------|--------|--------|


E|-------------0---|-0---------------------------|-----------------------------|-------------------------------|
B|-------------0---|-0---------------------------|-----------------------------|-------------------------------|
G|-----------------|-------------------------2---|-2-----------------------4---|-4-----------------------------|
D|-------2-----2---|-2-----------------------2---|-2-----------------------4---|-4-----------------------------|
A|-------2-----2---|-2-----------5----7--7---0---|-0-----------5----7--7---2---|-2-----------------------------|
E|-------0-----0---|-0-----5--7------------------|-------5--7------------------|-------5--5--7---7--7--7---3---|


E|-----------------------0---|-0---------------------------|-----------------------------|
B|-----------------------0---|-0---------------------------|-----------------------------|
G|---------------------------|-------------------------2---|-2-----------------------4---|
D|-------------2---2-----2---|-2-----------------------2---|-2-----------------------4---|
A|-------------2---2-----2---|-2-----------5----7--7---0---|-0-----------5----7--7---2---|
E|-5----2--2---0---0-----0---|-0-----5--7------------------|-------5--7------------------|


E|-------------------------------|-----------------------0---|-0---------------------------|
B|-------------------------------|-----------------------0---|-0---------------------------|
G|-4-----------------------------|---------------------------|-------------------------2---|
D|-4-----------------------------|-------------2---2-----2---|-2-----------------------2---|
A|-2-----------------------------|-------------2---2-----2---|-2-----------5----7--7---0---|
E|-------5--5--7---7--7--7---3---|-5----2--2---0---0-----0---|-0-----5--7------------------|


E|-----------------------------|-------------------------------|-----------------------0---|
B|-----------------------------|-------------------------------|-----------------------0---|
G|-2-----------------------4---|-4-----------------------------|---------------------------|
D|-2-----------------------4---|-4-----------------------------|-------------2---2-----2---|
A|-0-----------5----7--7---2---|-2-----------------------------|-------------2---2-----2---|
E|-------5--7------------------|-------5--5--7---7--7--7---3---|-5----2--2---0---0-----0---|


E|-0---------------------------|-----------------------------|-------------------------------|
B|-0---------------------------|-----------------------------|-------------------------------|
G|-------------------------2---|-2-----------------------4---|-4-----------------------------|
D|-2-----------------------2---|-2-----------------------4---|-4-----------------------------|
A|-2-----------5----7--7---0---|-0-----------5----7--7---2---|-2-----------------------------|
E|-0-----5--7------------------|-------5--7------------------|-------5--5--7---7--7--7---3---|


E|-----------------------5---|-5------|-5------|-----------------------------------------|
B|-----------------------6---|-6------|-6------|-----------------------------------------|
G|-----------------------5---|-5------|-5------|-9---7-----------------------------------|
D|---------------------------|--------|--------|--------9--7------5-------9--7--5--------|
A|---------------------------|--------|--------|-----------------------------------7--5--|
E|-5----2--2---2---0---------|--------|--------|-----------------------------------------|


E|-----------------------------------------|------------------------------|----------------------------------|
B|-----------------------------------------|------------------------------|----------------------------------|
G|-----------------------------------------|------------------------------|----------------------------------|
D|--------7--5-----------------------------|------------------------------|------------7-----7---------------|
A|-7------------7---------5----5--7--5-----|------7--7----7---------------|---------4-----4-----4----4----5--|
E|-----------------7---7----------------7--|-3----5--5----5----2--2----3--|-3----3---------------------------|


E|-------------------------------------|-----------------------------------------|
B|-------------------------------------|-----------------------------------------|
G|-----------------9---7---------------|-----------------------------------------|
D|------------------------9--7------5--|------9--7--5---------------7--5---------|
A|-5----7--7---------------------------|---------------7--5--7------------7------|
E|-------------------------------------|-------------------------------------7---|


E|----------------------------------|----------------------------------|---------------------------------|
B|----------------------------------|----------------------------------|---------------------------------|
G|----------------------------------|----------------------------------|---------------------------------|
D|----------------------------------|----------------------------7-----|-7-------------------------------|
A|----5----5--7--5----------7--7----|-7-----------------------4-----4--|----4----4----5--5----7--7-------|
E|-7----------------7--3----5--5----|-5----2--2----3--3----3-----------|---------------------------------|


E|-----------------------------------------|-----------------------------------------|
B|-----------------------------------------|-----------------------------------------|
G|-9---7-----------------------------------|-----------------------------------------|
D|--------9--7------5-------9--7--5--------|--------7--5-----------------------------|
A|-----------------------------------7--5--|-7------------7---------5----5--7--5-----|
E|-----------------------------------------|-----------------7---7----------------7--|


E|------------------------------|----------------------------------|-------------------------------------|
B|------------------------------|----------------------------------|-------------------------------------|
G|------------------------------|----------------------------------|-----------------9---7---------------|
D|------------------------------|------------7-----7---------------|------------------------9--7------5--|
A|------7--7----7---------------|---------4-----4-----4----4----5--|-5----7--7---------------------------|
E|-3----5--5----5----2--2----3--|-3----3---------------------------|-------------------------------------|


E|----------------------------------------------|--------------------------------------------------|
B|----------------------------------------------|--------------------------------------------------|
G|----------------------------------------------|--------------------------------------------------|
D|------9--7--5-----------7-8-7--5--7--7--5-----|-5--5---------------------------------------------|
A|---------------7--5------------------------7--|-------7--5--7--7--5-----5--5---------------------|
E|----------------------------------------------|----------------------7--------7--5--7--7-----5-6-|


E|-------------------------------|
B|-------------------------------|
G|-------------------------------|
D|-------------------7--9--------|
A|-------------------5--7--------|
E|-5--3--5--5--3--0--------------|





Track 2: David Paich - Piano

E|-------12--10--------------|-----------------------------------------|----------------------------------|
B|--------------12-10-----8--|------12-10-8---------------10-8---------|----------------------------------|
G|-------9---7---------------|---------------9--7--9------------9------|----7----7--9--7------------------|
D|--------------9--7------5--|------9--7--5---------------7--5-----9---|-9----------------9--5----7--7----|
A|---------------------------|---------------7--5--7------------7------|----5----5--7--5------------------|
E|---------------------------|-------------------------------------7---|-7----------------7--3----5--5----|


E|------------------------------|------------------------------|-12--10----------------------------------|
B|------------------------------|------------------------------|--------12-10-----8-------12-10-8--------|
G|------------------------------|-----------7--7----9--9-------|-9---7-----------------------------9--7--|
D|-7----4--4----5--5----5-------|------------------------------|--------9--7------5-------9--7--5--------|
A|------------------------------|-----------5--5----7--7-------|-----------------------------------7--5--|
E|-5----2--2----3--3----3-------|------------------------------|-----------------------------------------|


E|-----------------------------------------|------------------------------|---------------------------|
B|--------10-8-----------------------------|------------------------------|---------------------------|
G|-9------------9---------7----7--9--7-----|------------------------------|------------------------7--|
D|--------7--5-----9---9----------------9--|-5----7--7----7----4--4----5--|-5----5--------------------|
A|-7------------7---------5----5--7--5-----|------------------------------|------------------------5--|
E|-----------------7---7----------------7--|-3----5--5----5----2--2----3--|-3----3--------------------|


E|-----------------12--10--------------|-----------------------------------------|
B|------------------------12-10-----8--|------12-10-8---------------10-8---------|
G|-7----9--9-------9---7---------------|---------------9--7--9------------9------|
D|------------------------9--7------5--|------9--7--5---------------7--5-----9---|
A|-5----7--7---------------------------|---------------7--5--7------------7------|
E|-------------------------------------|-------------------------------------7---|


E|--------------------------17-17---|------------------|-----22---19-19--17----|--------------|
B|--------------------------17-17---|------------------|-----22---19-19--17----|--------------|
G|----7----7--9--7------------------|------------------|-----------------------|--------------|
D|-9----------------9--5----14-14---|------------------|-----19---16-16--14----|--------------|
A|----5----5--7--5------------------|------------------|-----------------------|--------------|
E|-7----------------7--3------------|------------------|-----------------------|--------------|


E|------12--10----------------------|-----------------------------------------|----------------------------------|
B|-------------12-10-----8-------12-|-10-8---------------10-8-----------------|----------------------------------|
G|------9---7-----------------------|-------9--7--9------------9---------7----|-7--9--7--------------------------|
D|-------------9--7------5-------9--|-7--5---------------7--5-----9---9-------|----------9--5----7--7----7----4--|
A|----------------------------------|-------7--5--7------------7---------5----|-5--7--5--------------------------|
E|----------------------------------|-----------------------------7---7-------|----------7--3----5--5----5----2--|


E|---------------------------|-------------------------12--10----|-----------------------------------------|
B|---------------------------|--------------------------------12-|-10-----8-------12-10-8---------------10-|
G|---------------------------|------7--7----9--9-------9---7-----|-------------------------9--7--9---------|
D|-4----5--5----5------------|--------------------------------9--|-7------5-------9--7--5---------------7--|
A|---------------------------|------5--5----7--7-----------------|-------------------------7--5--7---------|
E|-2----3--3----3------------|-----------------------------------|-----------------------------------------|


E|---------------------------------------|---------------------------|------------------------------|
B|-8-------------------------------------|---------------------------|------------------------------|
G|----9---------7----7--9--7-------------|---------------------------|-------------------7--7----9--|
D|-5-----9---9----------------9--5----7--|-7----7----4--4----5--5----|-5----------------------------|
A|----7---------5----5--7--5-------------|---------------------------|-------------------5--5----7--|
E|-------7---7----------------7--3----5--|-5----5----2--2----3--3----|-3----------------------------|


E|---------12--10----------------------|-----------------------------------------|
B|----------------12-10-----8-------12-|-10-8---------------10-8-----------------|
G|-9-------9---7-----------------------|-------9--7--9------------9---------7----|
D|----------------9--7------5-------9--|-7--5---------------7--5-----9---9-------|
A|-7-----------------------------------|-------7--5--7------------7---------5----|
E|-------------------------------------|-----------------------------7---7-------|


E|------------------17-17----|-------------22--|----19-19--17---------|-----20----22---19-19--|
B|------------------17-17----|-------------22--|----19-19--17---------|-----20----22---19-19--|
G|-7--9--7-------------------|-----------------|----------------------|-----------------------|
D|----------9--5----14-14----|-------------19--|----16-16--14---------|-----17----19---16-16--|
A|-5--7--5-------------------|-----------------|----------------------|-----------------------|
E|----------7--3-------------|-----------------|----------------------|-----------------------|


E|-17----------20--|-------22---19-19--17---|------------20----|-----22---19-19--------|
B|-17----------20--|-------22---19-19--17---|------------20----|-----22---19-19--------|
G|-----------------|------------------------|------------------|-----------------------|
D|-14----------17--|-------19---16-16--14---|------------17----|-----19---16-16--------|
A|-----------------|------------------------|------------------|-----------------------|
E|-----------------|------------------------|------------------|-----------------------|


E|-------------|-------------|-------------|-------------|-------12--12-----12--12-|
B|-------------|-------------|-------------|-------------|-------12--12-----12--12-|
G|-------------|-------------|-------------|-------------|-------14--14-----14--14-|
D|-------------|-------------|-------------|-------------|-------------------------|
A|-------------|-------------|-------------|-------------|-------------------------|
E|-------------|-------------|-------------|-------------|-------------------------|


E|-12--12--12--12-----12--12-12--12--|-12--12-----12--12-12--12--12--12--|----12--12-12--12--12--12-----12--12-|
B|-12--12--12--12-----12--12-12--12--|-12--12-----12--12-12--12--12--12--|----12--12-12--12--12--12-----12--12-|
G|-14--14--14--14-----14--14-14--14--|-14--14-----14--14-14--14--14--14--|----14--14-14--14--14--14-----14--14-|
D|-----------------------------------|-----------------------------------|-------------------------------------|
A|-----------------------------------|-----------------------------------|-------------------------------------|
E|-----------------------------------|-----------------------------------|-------------------------------------|


E|-12--12--12--12-----12--12-12--12--|-12--12-----12--12-12--12--12--12--|----12--12-12--12--12--12-----12--12-|
B|-12--12--12--12-----12--12-12--12--|-12--12-----12--12-12--12--12--12--|----12--12-12--12--12--12-----12--12-|
G|-14--14--14--14-----14--14-14--14--|-14--14-----14--14-14--14--14--14--|----14--14-14--14--14--14-----14--14-|
D|-----------------------------------|-----------------------------------|-------------------------------------|
A|-----------------------------------|-----------------------------------|-------------------------------------|
E|-----------------------------------|-----------------------------------|-------------------------------------|


E|-12--12--12--12-----12--12-12--12--|-15--15-----15--15-15--15--15--15--|----15--15-15--15--15--15-----15--15-|
B|-12--12--12--12-----12--12-12--12--|-15--15-----15--15-15--15--15--15--|----15--15-15--15--15--15-----15--15-|
G|-14--14--14--14-----14--14-14--14--|-14--14-----14--14-14--14--14--14--|----14--14-14--14--14--14-----14--14-|
D|-----------------------------------|-----------------------------------|-------------------------------------|
A|-----------------------------------|-----------------------------------|-------------------------------------|
E|-----------------------------------|-----------------------------------|-------------------------------------|


E|-15--15--15--15--------|-------------|-------------|-------------|-------------------------------------------------------------------------|
B|-15--15--15--15--------|-------------|-------------|-------------|-------------------------------------------------------------------------|
G|-14--14--14--14--------|-------------|-------------|-------------|-------------------------------------------------------------------------|
D|-----------------------|-------------|-------------|-------------|-9--10-9--10-9--10-9--10-9--10-9--10-9--10-9--10-9--10-9--10-9--10-9--10-|
A|-----------------------|-------------|-------------|-------------|-------------------------------------------------------------------------|
E|-----------------------|-------------|-------------|-------------|-------------------------------------------------------------------------|


E|---------------------------------------------------|--------------------------------|
B|---------------------------------------------------|--------------------------------|
G|---------------------------------------------------|--------------------9---9---9---|
D|-9--10-9--10-9--10-9-----7--9--10---9--9---7-------|-7-----7--7---7--7--------------|
A|----------------------7------------------------10--|--------------------------------|
E|---------------------------------------------------|--------------------------------|


E|-------------------------------------------------|---------------------|------------------------------------------|
B|-------------------------------------------------|-8-------------------|------------------8-----------------------|
G|-9---9---9---9---9---9---7---7---7---7---7---7---|-----7----7----7-----|------7-------7-------7-------------------|
D|-------------------------------------------------|---------------------|----------10--------------10--10--9---9---|
A|-------------------------------------------------|---------------------|------------------------------------------|
E|-------------------------------------------------|---------------------|------------------------------------------|


E|------------------------|-------------------------------------------------|-----------------------------------------------|
B|------------------------|-------12-13-12-12-13-12-13-12-13-12-13-12-10----|-13-12-10----13-12-10--------10-13-10----------|
G|------------------------|----------------------------------------------12-|----------12----------12--------------12-9-----|
D|-7---7---9---9----9-----|-9-----------------------------------------------|-------------------------12-----------------12-|
A|------------------------|-------------------------------------------------|-----------------------------------------------|
E|------------------------|-------------------------------------------------|-----------------------------------------------|


E|-----------------------------------------------------12--|-15--19--22-19--22-19-18-17----17-18-19-18-17----17-18-|
B|-10-----------------------------------------------13-----|----------------------------20----------------20-------|
G|----12-9---------------------------9--12-9--10-12--------|-------------------------------------------------------|
D|----------12-10--------10-12-10-12-----------------------|-------------------------------------------------------|
A|-----------------10-12-----------------------------------|-------------------------------------------------------|
E|---------------------------------------------------------|-------------------------------------------------------|


E|-19-18-17----17-18-19-18-17----17-18-19-18-17----17-18-19-18-17----17-18-|-19-18-17-----------------------|
B|----------20----------------20----------------20----------------20-------|----------20--17----------------|
G|-------------------------------------------------------------------------|-----------------19-17-16-------|
D|-------------------------------------------------------------------------|--------------------------19----|
A|-------------------------------------------------------------------------|--------------------------------|
E|-------------------------------------------------------------------------|--------------------------------|


E|-------20-22-27-22-20-------20-19----------|-----------------------------------------------|
B|----------------------20----------20-------|-20--------------------------------------------|
G|-------------------------19----------19-17-|----19-17-------17-16-------------16-16--------|
D|-19----------------------------------------|----------17-17-------17----17-19--------17-19-|
A|-------------------------------------------|-------------------------17--------------------|
E|-------------------------------------------|-----------------------------------------------|


E|----------------------22-29--|-------------------------------------------------|
B|-------------------22--------|----------13----------------15----------------15-|
G|-------------19-21-----------|-------14----14----------14----14----------14----|
D|-19----14-19----17-17----15--|-15-14-------14----12-14-------15----12-14-------|
A|-------19--------------------|----22----------12----22-22-------12----22-------|
E|-------12-------15-15----13--|-13-15-------12-------15-15----13----13-15-------|


E|---------------------24-20-------------------------20-24-|-20------------------------------------------------------|
B|----------------15---------22-------20----------22-------|----22-------20------------------------------------------|
G|-14----------14---------------22-21----22-21-22----------|-------22-21----22-21-19-21------------------------------|
D|-14----12-14---------------------------------------------|----------------------------22-19------------------------|
A|----12----22-22------------------------------------------|----------------------------------20-19-22-20-19---------|
E|-12-------15-15------------------------------------------|-------------------------------------------------22-20---|


E|------------------------------------------------19-222321-22-24-25-27-|-29-20-19-29-27-25-------------27-26-25--------------------------------|
B|------------------------------------------20-22-----------------------|-------------------29-27-28-29----------29--29-26----------------------|
G|-----------------------------171819-21-22-----------------------------|--------------------------------------------------26-------24----------|
D|--------------------17-19-21------------------------------------------|-----------------------------------------------------27-26----27-26-24-|
A|-----19-16-17-19-20---------------------------------------------------|-----------------------------------------------------------------------|
E|-20-------------------------------------------------------------------|-----------------------------------------------------------------------|


E|-------------------------------------------|-------------22--|----19-19--17---------|
B|-------------------------------------------|-------------22--|----19-19--17---------|
G|-------------------------------------------|-----------------|----------------------|
D|-23-26-24-23-22----------------------------|-------------19--|----16-16--14---------|
A|----------------24-------22----------------|-----------------|----------------------|
E|-------------------25-24----25-24-22-------|-----------------|----------------------|


E|-----20----22---19-19--|-17----------20--|-------22---19-19--17---|------------20----|
B|-----20----22---19-19--|-17----------20--|-------22---19-19--17---|------------20----|
G|-----------------------|-----------------|------------------------|------------------|
D|-----17----19---16-16--|-14----------17--|-------19---16-16--14---|------------17----|
A|-----------------------|-----------------|------------------------|------------------|
E|-----------------------|-----------------|------------------------|------------------|


E|-----22---19-19--------|-------------|-------------------------------------------------------------------------|
B|-----22---19-19--17----|-17----------|----------8-----------8-----------8-----------8-----------8-----------8--|
G|-----------------16----|-16----------|-------7-----------7-----------7-----------7-----------7-----------7-----|
D|-----19---16-16--14----|-14----------|----10----------10----------10----------10----------10----------10-------|
A|-----------------0-----|-0-----------|-0-----------0-----------0-----------0-----------0-----------0-----------|
E|-----------------------|-------------|-------------------------------------------------------------------------|


E|-------------------------------------------|-------19-------------|-19---19---19---19---19---19---|
B|----------8-----------8-----------8--------|----------20----------|-17---17---17---17---17---17---|
G|-------7-----------7-----------7-----------|-------------19-17----|-17---17---17---17---17---17---|
D|----10----------10----------10-------------|----------------------|-17---17---17---17---17---17---|
A|-0-----------0-----------0-----------------|----------------------|-------------------------------|
E|-------------------------------------------|----------------------|-------------------------------|


E|-19---19---19---19----|-------19----|-------------|-------------|-------------------------------------------------------------------------|
B|-17---17---17---17----|-------17----|-------------|-------------|-------------8--------------8--------------8--------------8--------------|
G|-17---17---17---17----|-------17----|-------------|-------------|-------7--9-----------7--9-----------7--9-----------7--9-----------7--9--|
D|-17---17---17---17----|-------17----|-------------|-------------|----10-------------10-------------10-------------10-------------10-------|
A|----------------------|-------------|-------0-----|-------0-----|-0--------------0--------------0--------------0--------------0-----------|
E|----------------------|-------------|-------------|-------------|-------------------------------------------------------------------------|


E|-------------------------------------------|-------10--10--10--10--10---|-10---10--10--10---10---10--10--10---|
B|-8--------------8--------------8-----------|-------10--10--10--10--10---|-10---10--10--10---10---10--10--10---|
G|----------7--9-----------7--9--------------|-------12--12--12--12--12---|-12---12--12--12---12---12--12--12---|
D|-------10-------------10-------------------|----------------------------|-------------------------------------|
A|----0--------------0--------------0--------|----------------------------|-------------------------------------|
E|-------------------------------------------|----------------------------|-------------------------------------|


E|-10---10--10-----------------|------------------------------|----------------------------------|
B|-10---10--10---8----8----8---|-----8----8----8----8----8----|-8----8----8----5----5---5--------|
G|-12---12--12---7----7----7---|-----7----7----7----7----7----|-7----7----7----5----5---5---5----|
D|---------------10---10---10--|-----10---10---10---10---10---|-10---10---10---7----7---7---7----|
A|-----------------------------|------------------------------|----------------0-----------------|
E|-----------------------------|------------------------------|----------------------------------|


E|----------7------7------7--|-----7--------7------7------7------7-----|----7------7------7------7--------7------|
B|-------------8------8------|-8------8--8-----8------8------8------8--|-8-----8------8------8------8--8-----8---|
G|-5-----5-----9------9------|-9------9--9-----9------9------9------9--|-9-----9------9------9------9--9-----9---|
D|-7-----7-------------------|-----------------------------------------|-----------------------------------------|
A|---------------------------|-----------------------------------------|-----------------------------------------|
E|---------------------------|-----------------------------------------|-----------------------------------------|


E|-7------7------7-----15---15---15--|-----15---15---15-------------|-------7----7----7----|
B|----8------8------8--17---17---17--|-----17---17---17-------------|-------8----8----8----|
G|----9------9------9--17---17---17--|-----17---17---17-------------|-------7----7----7----|
D|-----------------------------------|------------------------------|-17----9----9----9----|
A|-----------------------------------|--------------------17---15---|----------------------|
E|-----------------------------------|------------------------------|----------------------|


E|-7----7----7----7----7----7----|-7----7----7----------|-------------|--------|--------|
B|-8----8----8----8----8----8----|-8----8----8----------|-------------|--------|--------|
G|-7----7----7----7----7----7----|-7----7----7----------|-------------|--------|--------|
D|-9----9----9----9----9----9----|-9----9----9----------|-------------|--------|--------|
A|-------------------------------|----------------------|-------------|--------|--------|
E|-------------------------------|----------------------|-------------|--------|--------|


E|--------|--------|--------|--------|--------|--------|--------|--------|--------|
B|--------|--------|--------|--------|--------|--------|--------|--------|--------|
G|--------|--------|--------|--------|--------|--------|--------|--------|--------|
D|--------|--------|--------|--------|--------|--------|--------|--------|--------|
A|--------|--------|--------|--------|--------|--------|--------|--------|--------|
E|--------|--------|--------|--------|--------|--------|--------|--------|--------|


E|--------|--------|--------|--------|--------|--------|-12--10----------------------------------|
B|--------|--------|--------|--------|--------|--------|--------12-10-----8-------12-10-8--------|
G|--------|--------|--------|--------|--------|--------|-9---7-----------------------------9--7--|
D|--------|--------|--------|--------|--------|--------|--------9--7------5-------9--7--5--------|
A|--------|--------|--------|--------|--------|--------|-----------------------------------7--5--|
E|--------|--------|--------|--------|--------|--------|-----------------------------------------|


E|-----------------------------------------|------------------------------|---------------------------|
B|--------10-8-----------------------------|------------------------------|---------------------------|
G|-9------------9---------7----7--9--7-----|------------------------------|------------------------7--|
D|--------7--5-----9---9----------------9--|-5----7--7----7----4--4----5--|-5----5--------------------|
A|-7------------7---------5----5--7--5-----|------------------------------|------------------------5--|
E|-----------------7---7----------------7--|-3----5--5----5----2--2----3--|-3----3--------------------|


E|-----------------12--10--------------|-----------------------------------------|
B|------------------------12-10-----8--|------12-10-8---------------10-8---------|
G|-7----9--9-------9---7---------------|---------------9--7--9------------9------|
D|------------------------9--7------5--|------9--7--5---------------7--5-----9---|
A|-5----7--7---------------------------|---------------7--5--7------------7------|
E|-------------------------------------|-------------------------------------7---|


E|----------------------------------|------------------------------|------------------------------|
B|----------------------------------|------------------------------|------------------------------|
G|----7----7--9--7------------------|------------------------------|-----------7--7----9--9-------|
D|-9----------------9--5----7--7----|-7----4--4----5--5----5-------|------------------------------|
A|----5----5--7--5------------------|------------------------------|-----------5--5----7--7-------|
E|-7----------------7--3----5--5----|-5----2--2----3--3----3-------|------------------------------|


E|-12--10----------------------------------|-----------------------------------------|
B|--------12-10-----8-------12-10-8--------|--------10-8-----------------------------|
G|-9---7-----------------------------9--7--|-9------------9---------7----7--9--7-----|
D|--------9--7------5-------9--7--5--------|--------7--5-----9---9----------------9--|
A|-----------------------------------7--5--|-7------------7---------5----5--7--5-----|
E|-----------------------------------------|-----------------7---7----------------7--|


E|------------------------------|---------------------------|-----------------12--10--------------|
B|------------------------------|---------------------------|------------------------12-10-----8--|
G|------------------------------|------------------------7--|-7----9--9-------9---7---------------|
D|-5----7--7----7----4--4----5--|-5----5--------------------|------------------------9--7------5--|
A|------------------------------|------------------------5--|-5----7--7---------------------------|
E|-3----5--5----5----2--2----3--|-3----3--------------------|-------------------------------------|


E|----------------------------------------------|--------------------------------------------------|
B|------12-10-8-----------101110-8--10-10-8-----|-8--8---------------------------------------------|
G|---------------9--7------------------------9--|-------9--7--9--9--7-----7--7---------------------|
D|------9--7--5-----------7-8-7--5--7--7--5-----|-5--5-----------------9--------9--7--9--9-----7-8-|
A|---------------7--5------------------------7--|-------7--5--7--7--5-----5--5---------------------|
E|----------------------------------------------|----------------------7--------7--5--7--7-----5-6-|


E|-------------------------------|
B|-------------------------------|
G|-------------------------------|
D|-7--5--7--7--5-----------------|
A|----------------7--5--7--------|
E|-5--3--5--5--3--0--------------|





Track 3: David Paich - Organ

E|--------|--------|--------|--------|--------|--------|--------|--------|--------|
B|--------|--------|--------|--------|--------|--------|--------|--------|--------|
G|--------|--------|--------|--------|--------|--------|--------|--------|--------|
D|--------|--------|--------|--------|--------|--------|--------|--------|--------|
A|--------|--------|--------|--------|--------|--------|--------|--------|--------|
E|--------|--------|--------|--------|--------|--------|--------|--------|--------|


E|--------|--------|--------|--------|--------|--------|--------|--------|--------|
B|--------|--------|--------|--------|--------|--------|--------|--------|--------|
G|--------|--------|--------|--------|--------|--------|--------|--------|--------|
D|--------|--------|--------|--------|--------|--------|--------|--------|--------|
A|--------|--------|--------|--------|--------|--------|--------|--------|--------|
E|--------|--------|--------|--------|--------|--------|--------|--------|--------|


E|--------|--------|--------|--------|--------|--------|--------|--------|--------|
B|--------|--------|--------|--------|--------|--------|--------|--------|--------|
G|--------|--------|--------|--------|--------|--------|--------|--------|--------|
D|--------|--------|--------|--------|--------|--------|--------|--------|--------|
A|--------|--------|--------|--------|--------|--------|--------|--------|--------|
E|--------|--------|--------|--------|--------|--------|--------|--------|--------|


E|--------|--------|--------|--------|-------------|-----------------|-------------|
B|--------|--------|--------|--------|-------------|-----------------|-------------|
G|--------|--------|--------|--------|-------------|-----------------|-------------|
D|--------|--------|--------|--------|-------------|-----------------|-------------|
A|--------|--------|--------|--------|-------------|-----------------|-------------|
E|--------|--------|--------|--------|-------------|-----------------|-------------|


E|-------------|-------------|-------------|-------------12--|-12----12--------|-------------|
B|-------------|-------------|-------------|-------------12--|-12----12--------|-------------|
G|-------------|-------------|-------------|-------------14--|-14----14--------|-------------|
D|-------------|-------------|-------------|-------------14--|-14----14--------|-------------|
A|-------------|-------------|-------------|-----------------|-----------------|-------------|
E|-------------|-------------|-------------|-----------------|-----------------|-------------|


E|-------------|-------------12--|-12----12----|-------12----|-------12----|-------12----15--|
B|-------------|-------------12--|-12----12----|-------12----|-------12----|-------12----15--|
G|-------------|-------------14--|-14----14----|-------14----|-------14----|-------14----14--|
D|-------------|-------------14--|-14----14----|-------14----|-------14----|-------14--------|
A|-------------|-----------------|-------------|-------------|-------------|-----------------|
E|-------------|-----------------|-------------|-------------|-------------|-----------------|


E|-15----15----|-------15----|-------------|-------------|-------------|--------|--------|
B|-15----15----|-------15----|-------------|-------------|-------------|--------|--------|
G|-14----14----|-------14----|-------------|-------------|-------------|--------|--------|
D|-------------|-------------|-------------|-------------|-------------|--------|--------|
A|-------------|-------------|-------------|-------------|-------------|--------|--------|
E|-------------|-------------|-------------|-------------|-------------|--------|--------|


E|--------|--------|--------|--------|--------|--------|--------|--------|--------|
B|--------|--------|--------|--------|--------|--------|--------|--------|--------|
G|--------|--------|--------|--------|--------|--------|--------|--------|--------|
D|--------|--------|--------|--------|--------|--------|--------|--------|--------|
A|--------|--------|--------|--------|--------|--------|--------|--------|--------|
E|--------|--------|--------|--------|--------|--------|--------|--------|--------|


E|--------|--------|--------|--------|--------|--------|--------|--------|--------|
B|--------|--------|--------|--------|--------|--------|--------|--------|--------|
G|--------|--------|--------|--------|--------|--------|--------|--------|--------|
D|--------|--------|--------|--------|--------|--------|--------|--------|--------|
A|--------|--------|--------|--------|--------|--------|--------|--------|--------|
E|--------|--------|--------|--------|--------|--------|--------|--------|--------|


E|--------|--------|--------|--------|--------|--------|--------|--------|--------|
B|--------|--------|--------|--------|--------|--------|--------|--------|--------|
G|--------|--------|--------|--------|--------|--------|--------|--------|--------|
D|--------|--------|--------|--------|--------|--------|--------|--------|--------|
A|--------|--------|--------|--------|--------|--------|--------|--------|--------|
E|--------|--------|--------|--------|--------|--------|--------|--------|--------|


E|--------|--------|--------|--------|--------|--------|--------|--------|--------|
B|--------|--------|--------|--------|--------|--------|--------|--------|--------|
G|--------|--------|--------|--------|--------|--------|--------|--------|--------|
D|--------|--------|--------|--------|--------|--------|--------|--------|--------|
A|--------|--------|--------|--------|--------|--------|--------|--------|--------|
E|--------|--------|--------|--------|--------|--------|--------|--------|--------|


E|--------|--------|--------|--------|--------|--------|--------|--------|--------|
B|--------|--------|--------|--------|--------|--------|--------|--------|--------|
G|--------|--------|--------|--------|--------|--------|--------|--------|--------|
D|--------|--------|--------|--------|--------|--------|--------|--------|--------|
A|--------|--------|--------|--------|--------|--------|--------|--------|--------|
E|--------|--------|--------|--------|--------|--------|--------|--------|--------|


E|--------|--------|--------|--------|--------|--------|--------|--------|-------------|
B|--------|--------|--------|--------|--------|--------|--------|--------|-------------|
G|--------|--------|--------|--------|--------|--------|--------|--------|-------------|
D|--------|--------|--------|--------|--------|--------|--------|--------|-------------|
A|--------|--------|--------|--------|--------|--------|--------|--------|-------------|
E|--------|--------|--------|--------|--------|--------|--------|--------|-------------|


E|-------------|-------------12--|-12----12--------|-------------|-------------|-------------12--|
B|-------------|-------------12--|-12----12--------|-------------|-------------|-------------12--|
G|-------------|-------------14--|-14----14--------|-------------|-------------|-------------14--|
D|-------------|-------------14--|-14----14--------|-------------|-------------|-------------14--|
A|-------------|-----------------|-----------------|-------------|-------------|-----------------|
E|-------------|-----------------|-----------------|-------------|-------------|-----------------|


E|-12----12----|-------12----|-------12----|-------12----15--|-15---15-15--15-15--15--15--15--|
B|-12----12----|-------12----|-------12----|-------12----15--|-15---15-15--15-15--15--15--15--|
G|-14----14----|-------14----|-------14----|-------14----14--|-14---14-14--14-14--14--14--14--|
D|-14----14----|-------14----|-------14----|-------14--------|--------------------------------|
A|-------------|-------------|-------------|-----------------|--------------------------------|
E|-------------|-------------|-------------|-----------------|--------------------------------|


E|----15--15-15--15--15--15-----15--15-|-15--15--15--15--------|-------------|--------|
B|----15--15-15--15--15--15-----15--15-|-15--15--15--15--------|-------------|--------|
G|----14--14-14--14--14--14-----14--14-|-14--14--14--14--------|-------------|--------|
D|-------------------------------------|-----------------------|-------------|--------|
A|-------------------------------------|-----------------------|-------------|--------|
E|-------------------------------------|-----------------------|-------------|--------|


E|--------|--------|--------|--------|--------|--------|--------|--------|--------|
B|--------|--------|--------|--------|--------|--------|--------|--------|--------|
G|--------|--------|--------|--------|--------|--------|--------|--------|--------|
D|--------|--------|--------|--------|--------|--------|--------|--------|--------|
A|--------|--------|--------|--------|--------|--------|--------|--------|--------|
E|--------|--------|--------|--------|--------|--------|--------|--------|--------|


E|--------|--------|--------|--------|--------|--------|--------|--------|--------|
B|--------|--------|--------|--------|--------|--------|--------|--------|--------|
G|--------|--------|--------|--------|--------|--------|--------|--------|--------|
D|--------|--------|--------|--------|--------|--------|--------|--------|--------|
A|--------|--------|--------|--------|--------|--------|--------|--------|--------|
E|--------|--------|--------|--------|--------|--------|--------|--------|--------|





Track 4: Steve Lukather - Dist. Gtr. #2

E|--------|--------|--------|--------|--------|--------|--------|--------|--------|
B|--------|--------|--------|--------|--------|--------|--------|--------|--------|
G|--------|--------|--------|--------|--------|--------|--------|--------|--------|
D|--------|--------|--------|--------|--------|--------|--------|--------|--------|
A|--------|--------|--------|--------|--------|--------|--------|--------|--------|
E|--------|--------|--------|--------|--------|--------|--------|--------|--------|


E|--------|--------|--------|--------|--------|--------|--------|--------|--------|
B|--------|--------|--------|--------|--------|--------|--------|--------|--------|
G|--------|--------|--------|--------|--------|--------|--------|--------|--------|
D|--------|--------|--------|--------|--------|--------|--------|--------|--------|
A|--------|--------|--------|--------|--------|--------|--------|--------|--------|
E|--------|--------|--------|--------|--------|--------|--------|--------|--------|


E|--------|--------|--------|--------|--------|--------|--------|--------|--------|
B|--------|--------|--------|--------|--------|--------|--------|--------|--------|
G|--------|--------|--------|--------|--------|--------|--------|--------|--------|
D|--------|--------|--------|--------|--------|--------|--------|--------|--------|
A|--------|--------|--------|--------|--------|--------|--------|--------|--------|
E|--------|--------|--------|--------|--------|--------|--------|--------|--------|


E|--------|--------|--------|--------|--------|--------|--------|--------|--------|
B|--------|--------|--------|--------|--------|--------|--------|--------|--------|
G|--------|--------|--------|--------|--------|--------|--------|--------|--------|
D|--------|--------|--------|--------|--------|--------|--------|--------|--------|
A|--------|--------|--------|--------|--------|--------|--------|--------|--------|
E|--------|--------|--------|--------|--------|--------|--------|--------|--------|


E|--------|--------|--------|--------|--------|--------|--------|--------|--------|
B|--------|--------|--------|--------|--------|--------|--------|--------|--------|
G|--------|--------|--------|--------|--------|--------|--------|--------|--------|
D|--------|--------|--------|--------|--------|--------|--------|--------|--------|
A|--------|--------|--------|--------|--------|--------|--------|--------|--------|
E|--------|--------|--------|--------|--------|--------|--------|--------|--------|


E|--------|--------|--------|--------|--------|--------|--------|--------|--------|
B|--------|--------|--------|--------|--------|--------|--------|--------|--------|
G|--------|--------|--------|--------|--------|--------|--------|--------|--------|
D|--------|--------|--------|--------|--------|--------|--------|--------|--------|
A|--------|--------|--------|--------|--------|--------|--------|--------|--------|
E|--------|--------|--------|--------|--------|--------|--------|--------|--------|


E|--------|--------|--------|--------|--------|--------|--------|--------|--------|
B|--------|--------|--------|--------|--------|--------|--------|--------|--------|
G|--------|--------|--------|--------|--------|--------|--------|--------|--------|
D|--------|--------|--------|--------|--------|--------|--------|--------|--------|
A|--------|--------|--------|--------|--------|--------|--------|--------|--------|
E|--------|--------|--------|--------|--------|--------|--------|--------|--------|


E|--------|--------|--------|--------|--------|--------|--------|--------|--------|
B|--------|--------|--------|--------|--------|--------|--------|--------|--------|
G|--------|--------|--------|--------|--------|--------|--------|--------|--------|
D|--------|--------|--------|--------|--------|--------|--------|--------|--------|
A|--------|--------|--------|--------|--------|--------|--------|--------|--------|
E|--------|--------|--------|--------|--------|--------|--------|--------|--------|


E|--------|--------|--------|--------|--------|--------|--------|--------|-------------|
B|--------|--------|--------|--------|--------|--------|--------|--------|-------------|
G|--------|--------|--------|--------|--------|--------|--------|--------|-------------|
D|--------|--------|--------|--------|--------|--------|--------|--------|-------------|
A|--------|--------|--------|--------|--------|--------|--------|--------|-------------|
E|--------|--------|--------|--------|--------|--------|--------|--------|-------------|


E|---------------------------------------|--------------------------------|---------------------------------|
B|---------------------------------------|-------------------8---8---8----|------8---6---5---6--5-----------|
G|---------------------------------------|-9----7---7---5-----------------|------------------------7---7----|
D|------------------7----9---7---9---10--|--------------------------------|---------------------------------|
A|----------5---7------------------------|--------------------------------|---------------------------------|
E|---------------------------------------|--------------------------------|---------------------------------|


E|-----------------------------------|-------------------------------------|---------------------------------------|
B|-------------------10--10--10--8---|-8---10---12---10--10--12---13---12--|-12--13---15--13--15--15--15--15--15---|
G|-----5-----------------------------|-------------------------------------|---------------------------------------|
D|-----------------------------------|-------------------------------------|---------------------------------------|
A|-----------------------------------|-------------------------------------|---------------------------------------|
E|-----------------------------------|-------------------------------------|---------------------------------------|


E|------15--15-------------------|-------------------15--15--15---|-15---15--15---15---15--15--13--12--|
B|-15-----------15--15-151717----|------17------------------------|------------------------------------|
G|-------------------------------|--------------------------------|------------------------------------|
D|-------------------------------|--------------------------------|------------------------------------|
A|-------------------------------|--------------------------------|------------------------------------|
E|-------------------------------|--------------------------------|------------------------------------|


E|-15-13-12----13-12-------12-------------------------------------------|-----------------------------------------------------|
B|----------15-------15-13----15-13-12-15-13-12----13-12----------------|-----------------------------------------------------|
G|----------------------------------------------14-------14-12----12----|-----------------------------------------------------|
D|-------------------------------------------------------------14----14-|-12-14-12--------------------------------------------|
A|----------------------------------------------------------------------|----------15-14-12-151413-12-10-12-------------------|
E|----------------------------------------------------------------------|-----------------------------------10-12--1212--12---|


E|-------------------------------------------------|-------------12------17--19---19-19---181715|
B|---------------------------------12--------------|---------15------12-------------------------|
G|-------------------------------------12--14------|-12--14-------------------------------------|
D|---------12--------------12--14--------------16--|--------------------------------------------|
A|-----12------12--5---12--------------------------|--------------------------------------------|
E|-12----------------------------------------------|--------------------------------------------|


E|-17---17---15131215--141312111012---11108-|-10---8-7-5-8---8-8-7-6-------------------------|
B|------------------------------------------|------------------------8-----------------------|
G|------------------------------------------|----------------------------7---5---4-----------|
D|------------------------------------------|----------------------------------------5-------|
A|------------------------------------------|--------------------------------------------7---|
E|------------------------------------------|------------------------------------------------|


E|-------------------------------|--------------------------------|-------------------15---17---19---|
B|-------------------------------|--------------------------------|---------15---17------------------|
G|-------------------------------|----------------------14---12---|-14--14---------------------------|
D|-------------------------------|-----------------14-------------|----------------------------------|
A|-5---3---2---------------------|-------------12-----------------|----------------------------------|
E|-------------5---3---5---5-----|-5------------------------------|----------------------------------|


E|-19--19--19--19--17--15--17---17--14131211|-10------12--10--12----------------------------------------|
B|------------------------------------------|-----13--------------12--10--12-10-------10----------10----|
G|------------------------------------------|-----------------------------------12-10----12-10-9-----9--|
D|------------------------------------------|-----------------------------------------------------------|
A|------------------------------------------|-----------------------------------------------------------|
E|------------------------------------------|-----------------------------------------------------------|


E|----------------------------10-12--13-1211108---10------|----------------------------------|
B|-------------------------13-------------------------10--|-10--10-10-10---10--13--13-13-13--|
G|-12-10-9--9--9-----9--10--------------------------------|----------------------------------|
D|----------------12--------------------------------------|----------------------------------|
A|--------------------------------------------------------|----------------------------------|
E|--------------------------------------------------------|----------------------------------|


E|--------------------------12-17-------12--17--|-------12--17--------12--15--15--15--15--15--12------|
B|-15--15-15-15---15--15-15-------15-15---------|-15-15---------15-15-----------------------------15--|
G|----------------------------------------------|-----------------------------------------------------|
D|----------------------------------------------|-----------------------------------------------------|
A|----------------------------------------------|-----------------------------------------------------|
E|----------------------------------------------|-----------------------------------------------------|


E|-12----12-----------|-------------|--------|--------|--------|--------|--------|
B|--------------------|-------------|--------|--------|--------|--------|--------|
G|--------------------|-------------|--------|--------|--------|--------|--------|
D|--------------------|-------------|--------|--------|--------|--------|--------|
A|--------------------|-------------|--------|--------|--------|--------|--------|
E|--------------------|-------------|--------|--------|--------|--------|--------|


E|--------|--------|--------|--------|--------|--------|--------|--------|--------|
B|--------|--------|--------|--------|--------|--------|--------|--------|--------|
G|--------|--------|--------|--------|--------|--------|--------|--------|--------|
D|--------|--------|--------|--------|--------|--------|--------|--------|--------|
A|--------|--------|--------|--------|--------|--------|--------|--------|--------|
E|--------|--------|--------|--------|--------|--------|--------|--------|--------|


E|--------|--------|--------|--------|--------|--------|--------|--------|--------|
B|--------|--------|--------|--------|--------|--------|--------|--------|--------|
G|--------|--------|--------|--------|--------|--------|--------|--------|--------|
D|--------|--------|--------|--------|--------|--------|--------|--------|--------|
A|--------|--------|--------|--------|--------|--------|--------|--------|--------|
E|--------|--------|--------|--------|--------|--------|--------|--------|--------|


E|--------|--------|--------|--------|--------|--------|--------|--------|--------|
B|--------|--------|--------|--------|--------|--------|--------|--------|--------|
G|--------|--------|--------|--------|--------|--------|--------|--------|--------|
D|--------|--------|--------|--------|--------|--------|--------|--------|--------|
A|--------|--------|--------|--------|--------|--------|--------|--------|--------|
E|--------|--------|--------|--------|--------|--------|--------|--------|--------|


E|--------|
B|--------|
G|--------|
D|--------|
A|--------|
E|--------|





Track 5: Steve Lukather - Dist. Gtr. #1

E|--------|--------|--------|--------|--------|--------|--------|--------|--------|
B|--------|--------|--------|--------|--------|--------|--------|--------|--------|
G|--------|--------|--------|--------|--------|--------|--------|--------|--------|
D|--------|--------|--------|--------|--------|--------|--------|--------|--------|
A|--------|--------|--------|--------|--------|--------|--------|--------|--------|
E|--------|--------|--------|--------|--------|--------|--------|--------|--------|


E|--------|--------|--------|--------|--------|--------|--------|--------|--------|
B|--------|--------|--------|--------|--------|--------|--------|--------|--------|
G|--------|--------|--------|--------|--------|--------|--------|--------|--------|
D|--------|--------|--------|--------|--------|--------|--------|--------|--------|
A|--------|--------|--------|--------|--------|--------|--------|--------|--------|
E|--------|--------|--------|--------|--------|--------|--------|--------|--------|


E|--------|--------|--------|--------|--------|--------|--------|--------|--------|
B|--------|--------|--------|--------|--------|--------|--------|--------|--------|
G|--------|--------|--------|--------|--------|--------|--------|--------|--------|
D|--------|--------|--------|--------|--------|--------|--------|--------|--------|
A|--------|--------|--------|--------|--------|--------|--------|--------|--------|
E|--------|--------|--------|--------|--------|--------|--------|--------|--------|


E|--------|--------|--------|--------|--------|--------|--------|--------|--------|
B|--------|--------|--------|--------|--------|--------|--------|--------|--------|
G|--------|--------|--------|--------|--------|--------|--------|--------|--------|
D|--------|--------|--------|--------|--------|--------|--------|--------|--------|
A|--------|--------|--------|--------|--------|--------|--------|--------|--------|
E|--------|--------|--------|--------|--------|--------|--------|--------|--------|


E|--------|--------|--------|--------|--------|--------|--------|--------|--------|
B|--------|--------|--------|--------|--------|--------|--------|--------|--------|
G|--------|--------|--------|--------|--------|--------|--------|--------|--------|
D|--------|--------|--------|--------|--------|--------|--------|--------|--------|
A|--------|--------|--------|--------|--------|--------|--------|--------|--------|
E|--------|--------|--------|--------|--------|--------|--------|--------|--------|


E|--------|--------|--------|--------|--------|--------|--------|--------|--------|
B|--------|--------|--------|--------|--------|--------|--------|--------|--------|
G|--------|--------|--------|--------|--------|--------|--------|--------|--------|
D|--------|--------|--------|--------|--------|--------|--------|--------|--------|
A|--------|--------|--------|--------|--------|--------|--------|--------|--------|
E|--------|--------|--------|--------|--------|--------|--------|--------|--------|


E|--------|--------|--------|--------|--------|--------|--------|--------|--------|
B|--------|--------|--------|--------|--------|--------|--------|--------|--------|
G|--------|--------|--------|--------|--------|--------|--------|--------|--------|
D|--------|--------|--------|--------|--------|--------|--------|--------|--------|
A|--------|--------|--------|--------|--------|--------|--------|--------|--------|
E|--------|--------|--------|--------|--------|--------|--------|--------|--------|


E|--------|--------|--------|--------|--------|--------|--------|--------|--------|
B|--------|--------|--------|--------|--------|--------|--------|--------|--------|
G|--------|--------|--------|--------|--------|--------|--------|--------|--------|
D|--------|--------|--------|--------|--------|--------|--------|--------|--------|
A|--------|--------|--------|--------|--------|--------|--------|--------|--------|
E|--------|--------|--------|--------|--------|--------|--------|--------|--------|


E|--------|--------|--------|--------|--------|--------|--------|--------|--------|
B|--------|--------|--------|--------|--------|--------|--------|--------|--------|
G|--------|--------|--------|--------|--------|--------|--------|--------|--------|
D|--------|--------|--------|--------|--------|--------|--------|--------|--------|
A|--------|--------|--------|--------|--------|--------|--------|--------|--------|
E|--------|--------|--------|--------|--------|--------|--------|--------|--------|


E|--------|--------|--------|--------|--------|--------|--------|--------|--------|
B|--------|--------|--------|--------|--------|--------|--------|--------|--------|
G|--------|--------|--------|--------|--------|--------|--------|--------|--------|
D|--------|--------|--------|--------|--------|--------|--------|--------|--------|
A|--------|--------|--------|--------|--------|--------|--------|--------|--------|
E|--------|--------|--------|--------|--------|--------|--------|--------|--------|


E|--------|--------|--------|--------|--------|--------|--------|--------|--------|
B|--------|--------|--------|--------|--------|--------|--------|--------|--------|
G|--------|--------|--------|--------|--------|--------|--------|--------|--------|
D|--------|--------|--------|--------|--------|--------|--------|--------|--------|
A|--------|--------|--------|--------|--------|--------|--------|--------|--------|
E|--------|--------|--------|--------|--------|--------|--------|--------|--------|


E|--------|--------|--------|--------|--------|--------|--------|-------------|-------------|
B|--------|--------|--------|--------|--------|--------|--------|-------------|-------------|
G|--------|--------|--------|--------|--------|--------|--------|-------------|-------------|
D|--------|--------|--------|--------|--------|--------|--------|-------------|-------------|
A|--------|--------|--------|--------|--------|--------|--------|-------------|-------------|
E|--------|--------|--------|--------|--------|--------|--------|-------------|-------------|


E|-------------|-------12--12-----12--12-|-12--12--12--12-----12--12-12--12--|-12--12-----12--12-12--12--12--12--|
B|-------------|-------12--12-----12--12-|-12--12--12--12-----12--12-12--12--|-12--12-----12--12-12--12--12--12--|
G|-------------|-------14--14-----14--14-|-14--14--14--14-----14--14-14--14--|-14--14-----14--14-14--14--14--14--|
D|-------------|-------------------------|-----------------------------------|-----------------------------------|
A|-------------|-------------------------|-----------------------------------|-----------------------------------|
E|-------------|-------------------------|-----------------------------------|-----------------------------------|


E|----12--12-12--12--12--12-----12--12-|-12--12--12--12-----12--12-12--12--|-12--12-----12--12-12--12--12--12--|
B|----12--12-12--12--12--12-----12--12-|-12--12--12--12-----12--12-12--12--|-12--12-----12--12-12--12--12--12--|
G|----14--14-14--14--14--14-----14--14-|-14--14--14--14-----14--14-14--14--|-14--14-----14--14-14--14--14--14--|
D|-------------------------------------|-----------------------------------|-----------------------------------|
A|-------------------------------------|-----------------------------------|-----------------------------------|
E|-------------------------------------|-----------------------------------|-----------------------------------|


E|----12--12-12--12--12--12-----12--12-|-12--12--12--12-----12--12-12--12--|-15--15-----15--15-15--15--15--15--|
B|----12--12-12--12--12--12-----12--12-|-12--12--12--12-----12--12-12--12--|-15--15-----15--15-15--15--15--15--|
G|----14--14-14--14--14--14-----14--14-|-14--14--14--14-----14--14-14--14--|-14--14-----14--14-14--14--14--14--|
D|-------------------------------------|-----------------------------------|-----------------------------------|
A|-------------------------------------|-----------------------------------|-----------------------------------|
E|-------------------------------------|-----------------------------------|-----------------------------------|


E|----15--15-15--15--15--15-----15--15-|-15--15--15--15--------|-------------|----------------------------------25-27-29-29----|
B|----15--15-15--15--15--15-----15--15-|-15--15--15--15--------|-------------|-------------------------20-22-25----------------|
G|----14--14-14--14--14--14-----14--14-|-14--14--14--14--------|-------------|----------------------22-------------------------|
D|-------------------------------------|-----------------------|-------------|-------------15-17-19----------------------------|
A|-------------------------------------|-----------------------|-------------|----------15-------------------------------------|
E|-------------------------------------|-----------------------|-------------|-13-15-17----------------------------------------|


E|-29-----|--------|--------|--------|--------|--------|--------|--------|--------|
B|--------|--------|--------|--------|--------|--------|--------|--------|--------|
G|--------|--------|--------|--------|--------|--------|--------|--------|--------|
D|--------|--------|--------|--------|--------|--------|--------|--------|--------|
A|--------|--------|--------|--------|--------|--------|--------|--------|--------|
E|--------|--------|--------|--------|--------|--------|--------|--------|--------|


E|--------|--------|--------|--------|--------|--------|--------|--------|--------|
B|--------|--------|--------|--------|--------|--------|--------|--------|--------|
G|--------|--------|--------|--------|--------|--------|--------|--------|--------|
D|--------|--------|--------|--------|--------|--------|--------|--------|--------|
A|--------|--------|--------|--------|--------|--------|--------|--------|--------|
E|--------|--------|--------|--------|--------|--------|--------|--------|--------|





Track 6: Mike Porcaro - El. Bass

G|-------9---7---------------|-----------------------------------------|----------------------------------|
D|--------------9--7------5--|------9--7--5---------------7--5---------|----------------------------------|
A|---------------------------|---------------7--5--7------------7------|----5----5--7--5------------------|
E|---------------------------|-------------------------------------7---|-7----------------7--3----5--5----|
B|---------------------------|-----------------------------------------|----------------------------------|


G|----------------------------------|---------------------------------|-9---7-----------------------------------|
D|----------------------------------|---------------------------------|--------9--7------5-------9--7--5--------|
A|----------------------------------|---------------------------------|-----------------------------------7--5--|
E|-5----2--2----3--3----3-----5-----|-5-------------------------------|-----------------------------------------|
B|-------------------------2-----2--|----2----2----3--3----5--5-------|-----------------------------------------|


G|-----------------------------------------|------------------------------|----------------------------------|
D|--------7--5-----------------------------|------------------------------|----------------------------------|
A|-7------------7---------5----5--7--5-----|------------------------------|----------------------------------|
E|-----------------7---7----------------7--|-3----5--5----5----2--2----3--|-3----3-----5-----5---------------|
B|-----------------------------------------|------------------------------|---------2-----2-----2----2----3--|


G|-----------------9---7---------------|-----------------------------------------|
D|------------------------9--7------5--|------9--7--5---------------7--5---------|
A|-------------------------------------|---------------7--5--7------------7------|
E|-------------------------------------|-------------------------------------7---|
B|-3----5--5---------------------------|-----------------------------------------|


G|-------------------------------------|---------------------------------------|---------------------------------------|
D|-------------------------------------|-7----------------9--9-------------10--|--------------10-10------------7-------|
A|----5----5--7--5----------0--0---7---|-----7---0--8--8--------8--0---10------|-10--0--9--9--------9--0---7-------7---|
E|-7----------------7--3---------------|---------------------------------------|---------------------------------------|
B|-------------------------------------|---------------------------------------|---------------------------------------|


G|-----------------------------------------|-------------9---7-----------------------|
D|----------9--9-------------10------------|----10-10-----------9--7------5-------9--|
A|-0--8--8--------8--0---10------10--0--9--|-9--------0------------------------------|
E|-----------------------------------------|-----------------------------------------|
B|-----------------------------------------|-----------------------------------------|


G|-----------------------------------------|----------------------------------|----------------------------------|
D|-7--5---------------7--5-----------------|----------------------------------|----------------------------------|
A|-------7--5--7------------7---------5----|-5--7--5--------------------------|----------------------------------|
E|-----------------------------7---7-------|----------7--3----5--5----5----2--|-2----3--3----3-----5-----5-------|
B|-----------------------------------------|----------------------------------|-----------------2-----2-----2----|


G|-------------------------9---7-----|-----------------------------------------|---------------------------------------|
D|--------------------------------9--|-7------5-------9--7--5---------------7--|-5-------------------------------------|
A|-----------------------------------|-------------------------7--5--7---------|----7---------5----5--7--5-------------|
E|-----------------------------------|-----------------------------------------|-------7---7----------------7--3----5--|
B|-2----3--3----5--5-----------------|-----------------------------------------|---------------------------------------|


G|---------------------------|-------------------------------------|---------9---7-----------------------|
D|---------------------------|-------------------------------------|----------------9--7------5-------9--|
A|---------------------------|-------------------------------------|-------------------------------------|
E|-5----5----2--2----3--3----|-3-----5-----5-----------------------|-------------------------------------|
B|---------------------------|----2-----2-----2----2----3--3----5--|-5-----------------------------------|


G|-----------------------------------------|-------------------------------------|
D|-7--5---------------7--5-----------------|-----------------------------7-------|
A|-------7--5--7------------7---------5----|-5--7--5----------0--0---7-------7---|
E|-----------------------------7---7-------|----------7--3-----------------------|
B|-----------------------------------------|-------------------------------------|


G|-----------------------------------------|-----------------------------------------|
D|----------9--9-------------10------------|----10-10------------7----------------9--|
A|-0--8--8--------8--0---10------10--0--9--|-9--------9--0---7-------7---0--8--8-----|
E|-----------------------------------------|-----------------------------------------|
B|-----------------------------------------|-----------------------------------------|


G|-----------------------------------------|---------------------------------------|
D|-9-------------10---------------10-10----|---------7----------------9--9---------|
A|----8--0---10------10--0--9--9--------9--|-0---7-------7---0--8--8--------8--0---|
E|-----------------------------------------|---------------------------------------|
B|-----------------------------------------|---------------------------------------|


G|---------------------------------------|---------------------------------------|
D|-----10---------------10-10------------|-7----------------9--9-------------10--|
A|-10------10--0--9--9--------9--0---7---|-----7---0--8--8--------8--0---10------|
E|---------------------------------------|---------------------------------------|
B|---------------------------------------|---------------------------------------|


G|-----------------------------|-----------------------------|-----------------------------|
D|--------------10-10----------|-----------------------------|-----------------------------|
A|-10--0--9--9--------9--------|-------------5----7--7-------|-------------5----7--7-------|
E|-----------------------0-----|-------5--7--------------5---|-5-----5--7--------------7---|
B|-----------------------------|-----------------------------|-----------------------------|


G|-------------------------------|-------------------------------7---|-7----7-------------------------|
D|-------------------------------|----------------------------5------|--------------------------------|
A|-------------------------------|-------------------------7---------|----------------5----7--7-------|
E|-7-----5--5--7---7--7--7---3---|-5----2--2---0---0----7------------|----------5--7--------------5---|
B|-------------------------------|-----------------------------------|--------------------------------|


G|-----------------------------|-------------------------------|-------------------------------7---|
D|-----------------------------|-------------------------------|----------------------------5------|
A|-------------5----7--7-------|-------------------------------|-------------------------7---------|
E|-5-----5--7--------------7---|-7-----5--5--7---7--7--7---3---|-5----2--2---0---0----7------------|
B|-----------------------------|-------------------------------|-----------------------------------|


G|-7----7-------------------------|-----------------------------|-------------------------------|
D|--------------------------------|-----------------------------|-------------------------------|
A|----------------5----7--7-------|-------------5----7--7-------|-------------------------------|
E|----------5--7--------------5---|-5-----5--7--------------7---|-7-----5--5--7---7--7--7---3---|
B|--------------------------------|-----------------------------|-------------------------------|


G|-------------------------------7---|-7----7-------------------------|-----------------------------|
D|----------------------------5------|--------------------------------|-----------------------------|
A|-------------------------7---------|----------------5----7--7-------|-------------5----7--7-------|
E|-5----2--2---0---0----7------------|----------5--7--------------5---|-5-----5--7--------------7---|
B|-----------------------------------|--------------------------------|-----------------------------|


G|-------------------------------|-----------------------|-------------|------------------------|
D|-------------------------------|-----------------------|-------------|-5-----5---7----7--7----|
A|-------------------------------|-----------------------|-------------|------------------------|
E|-7-----5--5--7---7--7--7---3---|-5----2--2---2---0-----|-------0-----|------------------------|
B|-------------------------------|-----------------------|-------------|------------------------|


G|-------------|--------------------------|-------------|------------------------|
D|-------7-----|-------7--9--7----7--7----|-------7-----|-7----------------------|
A|-------------|--------------------------|-------------|------------------------|
E|-------------|--------------------------|-------------|-----12----5----5--5----|
B|-------------|--------------------------|-------------|------------------------|


G|----------------|--------------------|----------------|------------------------|
D|----------------|-7-----5----5--5----|-------5--5-----|-10---9----7----7--7----|
A|-------------7--|--------------------|----------------|------------------------|
E|-------5--------|--------------------|----------------|------------------------|
B|----------------|--------------------|----------------|------------------------|


G|------------------------|-----------------------------|--------------------|-----------------------------|
D|------7-----------------|----------7--9--7----7--7----|--------------------|-----------------------------|
A|------------------------|-----------------------------|--------------------|-----------------------------|
E|-----------5----5--5----|------5----------------------|-------5----5--5----|------5---0--3--5----5--5----|
B|------------------------|-----------------------------|--------------------|-----------------------------|


G|-----------------------------|--------------------|-----------------------|---------------------------|
D|-----------------------------|--------------------|-------5----5--5---5---|-9----9---9---7----7--7----|
A|-----------------------------|--------------------|-----------------------|---------------------------|
E|------5---0--3--5----5--5----|-------3----3--3----|-----------------------|---------------------------|
B|-----------------------------|--------------------|-----------------------|---------------------------|


G|--------------------|------------------------|--------------------|------------------------|
D|-------7----7--7----|-7---9------------------|-------3----3--3----|------2-----------------|
A|--------------------|------------------------|--------------------|-----------5----5--5----|
E|--------------------|-----------1----1--1----|--------------------|------------------------|
B|--------------------|------------------------|--------------------|------------------------|


G|-------------|-----------------------|-----------------------------------------|
D|-------------|---------------7-------|----------9--9-------------10------------|
A|-------5-----|-------0---7-------7---|-0--8--8--------8--0---10------10--0--9--|
E|-------------|-----------------------|-----------------------------------------|
B|-------------|-----------------------|-----------------------------------------|


G|-----------------------------------------|-----------------------------------------|
D|----10-10------------7----------------9--|-9-------------10---------------10-10----|
A|-9--------9--0---7-------7---0--8--8-----|----8--0---10------10--0--9--9--------9--|
E|-----------------------------------------|-----------------------------------------|
B|-----------------------------------------|-----------------------------------------|


G|---------------------------------------|---------------------------------------|
D|---------7----------------9--9---------|-----10---------------10-10------------|
A|-0---7-------7---0--8--8--------8--0---|-10------10--0--9--9--------9--0---7---|
E|---------------------------------------|---------------------------------------|
B|---------------------------------------|---------------------------------------|


G|---------------------------------------|-----------------------------|-------------|
D|-7----------------9--9-------------10--|--------------10-10----------|-------------|
A|-----7---0--8--8--------8--0---10------|-10--0--9--9--------9--0-----|-------0-----|
E|---------------------------------------|-----------------------------|-------------|
B|---------------------------------------|-----------------------------|-------------|


G|-------------------|-------------|-----------------|-------------|-------------|
D|-------7--9--7-----|-------7-----|-7---------------|-------------|-------------|
A|-------------------|-------------|-----------------|-------------|-------------|
E|-------------------|-------------|-----12----5-----|-------5-----|-------3-----|
B|-------------------|-------------|-----------------|-------------|-------------|


G|-------------|--------------------|-------------|-------------------|-------------|
D|-------------|--------------------|-------------|-------7--9--7-----|-------7-----|
A|-------------|-----2---2----0-----|-------0-----|-------------------|-------------|
E|-------3-----|-3------------------|-------------|-------------------|-------------|
B|-------------|--------------------|-------------|-------------------|-------------|


G|-----------------|-------------|-------------|-------------|-------------|-----------------------|
D|-7---------------|-------------|-------------|-------------|-------------|-------7----7--7---7---|
A|-----------------|-------------|-------------|-------------|-2-----0-----|-----------------------|
E|-----12----5-----|-------5-----|-------3-----|-------3-----|-------------|-----------------------|
B|-----------------|-------------|-------------|-------------|-------------|-----------------------|


G|-----------------|-------------|-----------------------|-------------|-------------|
D|-7----7----3-----|-------3-----|-3---3---3--2----------|-------------|-------9-----|
A|-----------------|-------------|-----------------5-----|-------5-----|-------------|
E|-----------------|-------------|-----------------------|-------------|-------------|
B|-----------------|-------------|-----------------------|-------------|-------------|


G|-------------|-----------------------|-----------------------------|-----------------------------|
D|-------9-----|-9---9---9---9---------|-----------------------------|-----------------------------|
A|-------------|-----------------------|-------------5----7--7-------|-------------5----7--7-------|
E|-------------|-----------------0-----|-------5--7--------------5---|-5-----5--7--------------7---|
B|-------------|-----------------------|-----------------------------|-----------------------------|


G|-------------------------------|-------------------------------7---|-7----7-------------------------|
D|-------------------------------|----------------------------5------|--------------------------------|
A|-------------------------------|-------------------------7---------|----------------5----7--7-------|
E|-7-----5--5--7---7--7--7---3---|-5----2--2---0---0----7------------|----------5--7--------------5---|
B|-------------------------------|-----------------------------------|--------------------------------|


G|-----------------------------|-------------------------------|-------------------------------7---|
D|-----------------------------|-------------------------------|----------------------------5------|
A|-------------5----7--7-------|-------------------------------|-------------------------7---------|
E|-5-----5--7--------------7---|-7-----5--5--7---7--7--7---3---|-5----2--2---0---0----7------------|
B|-----------------------------|-------------------------------|-----------------------------------|


G|-7----7-------------------------|-----------------------------|-------------------------------|
D|--------------------------------|-----------------------------|-------------------------------|
A|----------------5----7--7-------|-------------5----7--7-------|-------------------------------|
E|----------5--7--------------5---|-5-----5--7--------------7---|-7-----5--5--7---7--7--7---3---|
B|--------------------------------|-----------------------------|-------------------------------|


G|-------------------------------7---|-7----7-------------------------|-----------------------------|
D|----------------------------5------|--------------------------------|-----------------------------|
A|-------------------------7---------|----------------5----7--7-------|-------------5----7--7-------|
E|-5----2--2---0---0----7------------|----------5--7--------------5---|-5-----5--7--------------7---|
B|-----------------------------------|--------------------------------|-----------------------------|


G|-------------------------------|-----------------------|--------|--------|-9---7-----------------------------------|
D|-------------------------------|-----------------------|--------|--------|--------9--7------5-------9--7--5--------|
A|-------------------------------|-----------------------|--------|--------|-----------------------------------7--5--|
E|-7-----5--5--7---7--7--7---3---|-5----2--2---2---0-----|--------|-0------|-----------------------------------------|
B|-------------------------------|-----------------------|--------|--------|-----------------------------------------|


G|-----------------------------------------|------------------------------|----------------------------------|
D|--------7--5--------------------2--0-----|------------------------------|----------------------------------|
A|-7------------7---------5--5----------2--|------------------------------|----------------------------------|
E|-----------------7---7-------------------|-3----5--5----5----2--2----3--|-3----3-----5-----5---------------|
B|-----------------------------------------|------------------------------|---------2-----2-----2----2----3--|


G|-----------------9---7---------------|-----------------------------------------|
D|------------------------9--7------5--|------9--7--5---------------7--5---------|
A|-------------------------------------|---------------7--5--7------------7------|
E|-------------------------------------|-------------------------------------7---|
B|-3----5--5---------------------------|-----------------------------------------|


G|----------------------------------|----------------------------------|---------------------------------|
D|------------2--0------------------|----------------------------------|---------------------------------|
A|----5--5----------2---------------|----------------------------------|---------------------------------|
E|-7-------------------3----5--5----|-5----2--2----3--3----3-----5-----|-5-------------------------------|
B|----------------------------------|-------------------------2-----2--|----2----2----3--3----5--5-------|


G|-9---7-----------------------------------|-----------------------------------------|
D|--------9--7------5-------9--7--5--------|--------7--5--------------------2--0-----|
A|-----------------------------------7--5--|-7------------7---------5--5----------2--|
E|-----------------------------------------|-----------------7---7-------------------|
B|-----------------------------------------|-----------------------------------------|


G|------------------------------|----------------------------------|-----------------9---7---------------|
D|------------------------------|----------------------------------|------------------------9--7------5--|
A|------------------------------|----------------------------------|-------------------------------------|
E|-3----5--5----5----2--2----3--|-3----3-----5-----5---------------|-------------------------------------|
B|------------------------------|---------2-----2-----2----2----3--|-3----5--5---------------------------|


G|----------------------------------------------|--------------------------------------------------|
D|------9--7--5-----------7-8-7--5--7--7--5-----|-5--5---------------------------------------------|
A|---------------7--5------------------------7--|-------7--5--7--7--5-----5--5---------------------|
E|----------------------------------------------|----------------------7--------7--5--7--7-----5-6-|
B|----------------------------------------------|--------------------------------------------------|


G|-------------------------------|
D|-------------------------------|
A|-------------------------------|
E|-5--3--5--5--3-----------------|
B|----------------5--3--5--------|