Menu:

 

Search:

 

toto - childs anthem:

 



Title: Child's Anthem
Artist: 
Album: Toto
Author: David Paich


Track 1: overdriven

E|------------------------------------------|------------------------------------------|
B|------------------------------------------|------------------------------------------|
G|------------------------------------------|------------------------------------------|
D|-----6---6---6---6---6---6----------------|-----6---6---6---6---6---6----------------|
A|-----4---4---4---4---4---4---6-------6----|-----4---4---4---4---4---4---6-------6----|
E|-----------------------------4-------4----|-----------------------------4-------4----|


E|------------------------------------------|------------------------------------------|
B|------------------------------------------|------------------------------------------|
G|------------------------------------------|------------------------------------------|
D|-----6---6---6---6---6---6----------------|-----6---6---6---6---6---6----------------|
A|-----4---4---4---4---4---4---6-------6----|-----4---4---4---4---4---4---6-------6----|
E|-----------------------------4-------4----|-----------------------------4-------4----|


E|--------|------------------------|--------|------------------------|--------|-------------|
B|--------|------------------------|-9------|-9-----10---10--9---10--|-12-----|-10----9-----|
G|-9------|-9-----11---11--9---11--|-9------|-9-----11---11--9---11--|-13-----|-11----9-----|
D|-11-----|-11----13---13--11--13--|--------|------------------------|--------|-------------|
A|--------|------------------------|--------|------------------------|--------|-------------|
E|--------|------------------------|--------|------------------------|--------|-------------|


E|-----------------|------------------------|--------|------------------------|--------|
B|-9-----7---7-----|-------9----9-------9---|-10-----|-10----12---12--10--12--|-14-----|
G|-9-----8---8-----|-11----9----9---11--9---|-11-----|-11----13---13--11--13--|-14-----|
D|-----------------|-13-------------13------|--------|------------------------|--------|
A|-----------------|------------------------|--------|------------------------|--------|
E|-----------------|------------------------|--------|------------------------|--------|


E|------------------------|--------|-------------|-----------------|------------------------|
B|-14----15---15--14--15--|-17-----|-15----14----|-14----12--12----|-12----14---14--12--14--|
G|-14----16---16--14--16--|-18-----|-16----14----|-14----13--13----|-13----14---14--13--14--|
D|------------------------|--------|-------------|-----------------|------------------------|
A|------------------------|--------|-------------|-----------------|------------------------|
E|------------------------|--------|-------------|-----------------|------------------------|


E|--------|-------------|--------|--------|---------------------|---------------------|
B|-15-----|-15----14----|-12-----|-15-----|-14------------------|-13------------------|
G|-16-----|-16----14----|-12-----|-16-----|-15------------------|-13------------------|
D|--------|-------------|--------|--------|---------------------|---------------------|
A|--------|-------------|--------|--------|---------------------|---------------------|
E|--------|-------------|--------|--------|-5----5----5----5----|-5----5----5----5----|


E|---------------------|---------------------|------------------------------------------|
B|-13------------------|-12------------------|------------------------------------------|
G|-12------------------|-12------------------|------------------------------------------|
D|---------------------|---------------------|-----6---6---6---6---6---6----------------|
A|---------------------|---------------------|-----4---4---4---4---4---4---6-------6----|
E|-4----4----4----4----|-4----4----4----4----|-----------------------------4-------4----|


E|------------------------------------------|------------------------------------------|
B|------------------------------------------|------------------------------------------|
G|------------------------------------------|------------------------------------------|
D|-----6---6---6---6---6---6----------------|-----6---6---6---6---6---6----------------|
A|-----4---4---4---4---4---4---6-------6----|-----4---4---4---4---4---4---6-------6----|
E|-----------------------------4-------4----|-----------------------------4-------4----|


E|------------------------------------------|--------|
B|------------------------------------------|--------|
G|------------------------------------------|--------|
D|-----6---6---6---6---6---6----------------|--------|
A|-----4---4---4---4---4---4---6-------6----|-6------|
E|-----------------------------4-------4----|-4------|





Track 2: Keyboards arr. for guitar

E|------------------------------------------|------------------------------------------|
B|------------------------------------------|------------------------------------------|
G|-----9---9---9---9---9---8---6-------4----|-----9---9---9---9---9---8---6-------4----|
D|-----11--11--11--11--11--11--9-------6----|-----11--11--11--11--11--11--9-------6----|
A|------------------------------------------|------------------------------------------|
E|------------------------------------------|------------------------------------------|


E|------------------------------------------|------------------------------------------|
B|------------------------------------------|-----9---9---9---9---9---7---5-------4----|
G|-----9---9---9---9---9---8---6-------4----|-----9---9---9---9---9---8---6-------4----|
D|-----11--11--11--11--11--11--9-------6----|-----11--11--11--11--11--11--9-------6----|
A|------------------------------------------|------------------------------------------|
E|------------------------------------------|------------------------------------------|


E|-------------------------------------------------|-------------------------------------------------|
B|-5-----------5-----------5-----------5-----------|-5-----------5-----------7-----------7-----------|
G|-----6-----------6-----------6-----------6-------|-----6-----------6-----------8-----------8-------|
D|---------6-----------6-----------6-----------6---|---------6-----------6-----------9-----------9---|
A|-4-----------------------------------------------|-4-----------------------6-----------------------|
E|-------------------------------------------------|-------------------------------------------------|


E|-4-----------4-----------4-----------4-----------|-4-----------4-----------5-----------5-----------|
B|-----5-----------5-----------5-----------5-------|-----5-----------5-----------5-----------5-------|
G|---------4-----------4-----------4-----------4---|---------4-----------4-----------6-----------6---|
D|-2-----------------------------------------------|-2-----------------------4-----------------------|
A|-------------------------------------------------|-------------------------------------------------|
E|-0-----------------------------------------------|-0-----------------------2-----------------------|


E|-7-----------7-----------7-----------7-----------|-7-----------7-----------5-----------5-----------|
B|-----9-----------9-----------9-----------9-------|-----9-----------9-----------5-----------5-------|
G|---------9-----------9-----------9-----------9---|---------9-----------9-----------6-----------6---|
D|-6-----------------------------------------------|-6-----------------------7-----------------------|
A|-------------------------------------------------|-------------------------------------------------|
E|-4-----------------------------------------------|-4-----------------------5-----------------------|


E|-2-----------2-----------2-----------2-----------|-2-----------2-----------4-----------4-----------|
B|-----4-----------4-----------4-----------4-------|-----4-----------4-----------5-----------5-------|
G|---------4-----------4-----------4-----------4---|---------4-----------4-----------4-----------4---|
D|-------------------------------------------------|-------------------------------------------------|
A|-2-----------------------------------------------|-2-----------------------4-----------------------|
E|-------------------------------------------------|-------------------------------------------------|


E|-5-----------5-----------5-----------5-----------|-5-----------5-----------7-----------7-----------|
B|-----7-----------7-----------7-----------7-------|-----7-----------7-----------9-----------9-------|
G|---------6-----------6-----------6-----------6---|---------6-----------6-----------9-----------9---|
D|-------------------------------------------------|-------------------------------------------------|
A|-------------------------------------------------|-------------------------------------------------|
E|-2-----------------------------------------------|-2-----------------------0-----------------------|


E|-9-----------9-----------9-----------9-----------|-9-----------9-----------10----------10----------|
B|-----10----------10----------10----------10------|-----10----------10----------10----------10------|
G|---------9-----------9-----------9-----------9---|---------9-----------9-----------9-----------9---|
D|-------------------------------------------------|-------------------------------------------------|
A|-------------------------------------------------|-------------------------------------------------|
E|-5-----------------------------------------------|-5-----------------------7-----------------------|


E|-12----------12----------12----------12----------|-10----------10----------9-----------9-----------|
B|-----14----------14----------14----------14------|-----10----------10----------10----------10------|
G|---------14----------14----------14----------14--|---------11----------11----------9-----------9---|
D|-------------------------------------------------|-------------------------------------------------|
A|-------------------------------------------------|-------------------------------------------------|
E|-9-----------------------------------------------|-10----------------------12----------------------|


E|-7-----------7-----------7-----------7-----------|-7-----------7-----------9-----------9-----------|
B|-----9-----------9-----------9-----------9-------|-----9-----------9-----------10----------10------|
G|---------9-----------9-----------9-----------9---|---------9-----------9-----------9-----------9---|
D|-------------------------------------------------|-------------------------------------------------|
A|-7-----------------------------------------------|-7-----------------------9-----------------------|
E|-------------------------------------------------|-------------------------------------------------|


E|-10----------10----------10----------10----------|-10----------10----------9-----------9-----------|
B|-----12----------12----------12----------12------|-----12----------12----------10----------10------|
G|---------11----------11----------11----------11--|---------11----------11----------9-----------9---|
D|-------------------------------------------------|-------------------------------------------------|
A|-------------------------------------------------|-------------------------------------------------|
E|-7-----------------------------------------------|-7-----------------------2-----------------------|


E|-7-----------7-----------7-----------7-----------|-10----------10----------10----------10----------|
B|-----8-----------8-----------8-----------8-------|-----12----------12----------12----------12------|
G|---------7-----------7-----------7-----------7---|---------12----------12----------12----------12--|
D|-------------------------------------------------|-------------------------------------------------|
A|-------------------------------------------------|-------------------------------------------------|
E|-3-----------------------------------------------|-7-----------------------------------------------|


E|-10----------10----------10----------10----------|-9-----------9-----------9-----------9-----------|
B|-----12----------12----------12----------12------|-----10----------10----------10----------10------|
G|---------12----------12----------12----------12--|---------9-----------9-----------9-----------9---|
D|-------------------------------------------------|-------------------------------------------------|
A|-0-----------0-----------0-----------0-----------|-------------------------------------------------|
E|-------------------------------------------------|-5-----------5-----------5-----------5-----------|


E|-9-----------9-----------9-----------9-----------|-8-----------8-----------8-----------8-----------|
B|-----9-----------9-----------9-----------9-------|-----9-----------9-----------9-----------9-------|
G|---------9-----------9-----------9-----------9---|---------8-----------8-----------8-----------8---|
D|-------------------------------------------------|-------------------------------------------------|
A|-------------------------------------------------|-------------------------------------------------|
E|-4-----------4-----------4-----------4-----------|-4-----------4-----------4-----------4-----------|


E|------------------------------------------|------------------------------------------|
B|------------------------------------------|------------------------------------------|
G|-----9---9---9---9---9---8---6-------4----|-----9---9---9---9---9---8---6-------4----|
D|-----11--11--11--11--11--11--9-------6----|-----11--11--11--11--11--11--9-------6----|
A|------------------------------------------|------------------------------------------|
E|------------------------------------------|------------------------------------------|


E|------------------------------------------|------------------------------------------|
B|------------------------------------------|-----9---9---9---9---9---7---5-------4----|
G|-----9---9---9---9---9---8---6-------4----|-----9---9---9---9---9---8---6-------4----|
D|-----11--11--11--11--11--11--9-------6----|-----11--11--11--11--11--11--9-------6----|
A|------------------------------------------|------------------------------------------|
E|------------------------------------------|------------------------------------------|


E|--------|
B|-4------|
G|-4------|
D|-6------|
A|--------|
E|--------|





Track 3: Untitled

G|--------|--------|--------|--------|--------|--------|--------|--------|--------|
D|--------|--------|--------|--------|--------|--------|--------|--------|--------|
A|--------|--------|--------|--------|--------|--------|--------|--------|--------|
E|--------|--------|--------|--------|--------|--------|--------|--------|--------|


G|--------|--------|--------|--------|--------|--------|--------|--------|--------|
D|--------|--------|--------|--------|--------|--------|--------|--------|--------|
A|--------|--------|--------|--------|--------|--------|--------|--------|--------|
E|--------|--------|--------|--------|--------|--------|--------|--------|--------|


G|--------|--------|--------|--------|--------|--------|--------|--------|--------|
D|--------|--------|--------|--------|--------|--------|--------|--------|--------|
A|--------|--------|--------|--------|--------|--------|--------|--------|--------|
E|--------|--------|--------|--------|--------|--------|--------|--------|--------|


G|--------|--------|--------|--------|--------|--------|
D|--------|--------|--------|--------|--------|--------|
A|--------|--------|--------|--------|--------|--------|
E|--------|--------|--------|--------|--------|--------|