Menu:

 

Search:

 

the sky is falling - sunsets and suicide:

 



Title: Sunsets and Suicide
Artist: 
Album: 
Author: The Sky Is Falling


Track 1: Rythem

D|---------------------------------|---------------------------------|---------------------------------|
A|---------------------------------|---------------------------------|---------------------------------|
F|---------------------------------|---------------------------------|---------------------------------|
C|-----------------7---7---7---7---|---------------------------------|---------------------------------|
G|---------------------------------|-----------------8---8---8---8---|-----------------7---8-----------|
C|-0---0---0---0-------------------|-0---0---0---0-------------------|-8---8---8---8-----------8---8---|


D|---------------------------------|---------------------------------|---------------------------------|
A|---------------------------------|---------------------------------|---------------------------------|
F|---------------------------------|---------------------------------|---------------------------------|
C|---------------------------------|-----------------7---7---7---7---|---------------------------------|
G|-10--8-----------8---7-----------|---------------------------------|-----------------8---8---8---8---|
C|---------8---8-----------8---8---|-0---0---0---0-------------------|-0---0---0---0-------------------|


D|---------------------------------|---------------------------------|---------------------------------|
A|---------------------------------|---------------------------------|---------------------------------|
F|---------------------------------|---------------------------------|---------------------------------|
C|---------------------------------|---------------------------------|-----------------7---7---7---7---|
G|-----------------10--8---7---8---|-----------------8---7---5---7---|---------------------------------|
C|-10--10--10--10------------------|-8---8---8---8-------------------|-0---0---0---0-------------------|


D|---------------------------------|-----------------------------------|-----------------------------------|
A|---------------------------------|-----------------------------------|-----------------------------------|
F|---------------------------------|-----------------------------------|-----------------------------------|
C|---------------------------------|-----------5-------7-------8---7---|-----------------------------------|
G|-----------------8---8---8---8---|-----------------------------------|-------------------8---10--7-------|
C|-0---0---0---0-------------------|-5--5--5-------5-------5-----------|-7---7---7--7--7---------------10--|


D|---------------------------------|---------------------------------|---------------------------------|
A|---------------------------------|---------------------------------|---------------------------------|
F|---------------------------------|---------------------------------|---------------------------------|
C|-----------------7---7---7---7---|---------------------------------|---------------------------------|
G|---------------------------------|-----------------8---8---8---8---|-----------------7---8-----------|
C|-0---0---0---0-------------------|-0---0---0---0-------------------|-8---8---8---8-----------8---8---|


D|---------------------------------|---------------------------------|---------------------------------|
A|---------------------------------|---------------------------------|---------------------------------|
F|---------------------------------|---------------------------------|---------------------------------|
C|---------------------------------|-----------------7---7---7---7---|---------------------------------|
G|-10--8-----------8---7-----------|---------------------------------|-----------------8---8---8---8---|
C|---------8---8-----------8---8---|-0---0---0---0-------------------|-0---0---0---0-------------------|


D|---------------------------------|---------------------------------|---------------------------------|
A|---------------------------------|---------------------------------|---------------------------------|
F|---------------------------------|---------------------------------|---------------------------------|
C|---------------------------------|---------------------------------|-----------------7---7---7---7---|
G|-----------------10--8---7---8---|-----------------8---7---5---7---|---------------------------------|
C|-10--10--10--10------------------|-8---8---8---8-------------------|-0---0---0---0-------------------|


D|---------------------------------|-----------------------------------|-----------------------------------|
A|---------------------------------|-----------------------------------|-----------------------------------|
F|---------------------------------|-----------------------------------|-----------------------------------|
C|---------------------------------|-----------5-------7-------8---7---|-----------------------------------|
G|-----------------8---8---8---8---|-----------------------------------|-------------------8---10--7-------|
C|-0---0---0---0-------------------|-5--5--5-------5-------5-----------|-7---7---7--7--7---------------10--|


D|---------------------------------|---------------------------------|-----------------------------------|
A|---------------------------------|---------------------------------|-----------------------------------|
F|---------------------------------|---------------------------------|-----------------------------------|
C|---------------------------------|---------------------------------|-----------------7--8--7-----------|
G|-0---0---0---0---0---0---0---0---|-0---0---0---0---8---10--7-------|-8---8---8---8-------------10--8---|
C|-0---0---0---0---0---0---0---0---|-0---0---0---0---------------10--|-8---8---8---8---------------------|


D|---------------------------------|---------------------------------|---------------------------------|
A|---------------------------------|---------------------------------|---------------------------------|
F|---------------------------------|---------------------------------|---------------------------------|
C|---------------------------------|---------------------------------|-----------------8---7-----------|
G|-10--10--10--10--12--10--7---8---|-0---0---0---0---0---0---0---0---|-0---0---0---0-----------10--8---|
C|-10--10--10--10------------------|-0---0---0---0---0---0---0---0---|-0---0---0---0-------------------|


D|---------------------------------|---------------------------------|---------------------------------|
A|---------------------------------|---------------------------------|---------------------------------|
F|---------------------------------|---------------------------------|---------------------------------|
C|---------7-------8-------10--8---|---------------------------------|---------------------------------|
G|---------------------------------|-----------------10--8---7-------|-0---0---0---0---0---0---0---0---|
C|-8---8-------8-------8-----------|-7---7---7---7---------------10--|-0---0---0---0---0---0---0---0---|


D|-----------------------------------|---------------------------------|---------------------------------|
A|-----------------------------------|---------------------------------|---------------------------------|
F|-----------------------------------|---------------------------------|---------------------------------|
C|-----------------7--8--7---10--8---|---------5-----------------------|---------12--------------7---8---|
G|-0---0---0---0---------------------|-----------------7-------7---8---|-------------10------------------|
C|-0---0---0---0---------------------|-5---5-------5-------5-----------|-10--10----------7---7-----------|


D|---------------------------------|---------------------------------|---------------------------------|
A|---------------------------------|---------------------------------|---------------------------------|
F|---------------------------------|---------------------------------|---------------------------------|
C|---------------------------------|-----------------8---7-----------|---------7-------8-------10--8---|
G|-0---0---0---0---0---0---0---0---|-0---0---0---0-----------10--8---|---------------------------------|
C|-0---0---0---0---0---0---0---0---|-0---0---0---0-------------------|-8---8-------8-------8-----------|


D|---------------------------------|---------------------------------|---------------------------------|
A|---------------------------------|---------------------------------|---------------------------------|
F|---------------------------------|---------------------------------|---------------------------------|
C|---------------------------------|-8---8---8---8---8---8---8---8---|-5---5---5---5---5---5---5---5---|
G|-----------------10--8---7-------|-8---8---8---8---8---8---8---8---|-5---5---5---5---5---5---5---5---|
C|-7---7---7---7---------------10--|-8---8---8---8---8---8---8---8---|-5---5---5---5---5---5---5---5---|


D|---------------------------------|---------------------------------|---------------------------------|
A|---------------------------------|---------------------------------|---------------------------------|
F|---------------------------------|---------------------------------|---------------------------------|
C|-0---0---0---0---0---0---0---0---|-7---7---7---7---10--10--10--10--|-8---8---8---8---8---8---8---8---|
G|-0---0---0---0---0---0---0---0---|-7---7---7---7---10--10--10--10--|-8---8---8---8---8---8---8---8---|
C|-0---0---0---0---0---0---0---0---|-7---7---7---7---10--10--10--10--|-8---8---8---8---8---8---8---8---|


D|---------------------------------|---------------------------------|---------------------------------|
A|---------------------------------|---------------------------------|---------------------------------|
F|---------------------------------|---------------------------------|---------------------------------|
C|-5---5---5---5---5---5---5---5---|-0---0---0---0---0---0---0---0---|-10--10--10--10--7---7---7---7---|
G|-5---5---5---5---5---5---5---5---|-0---0---0---0---0---0---0---0---|-10--10--10--10--7---7---7---7---|
C|-5---5---5---5---5---5---5---5---|-0---0---0---0---0---0---0---0---|-10--10--10--10--7---7---7---7---|


D|---------------------------------|---------------------------------|---------------------------------|
A|---------------------------------|---------------------------------|---------------------------------|
F|---------------------------------|---------------------------------|---------------------------------|
C|-8---8---8---8---8---8---8---8---|-5---5---5---5---5---5---5---5---|-0---0---0---0---0---0---0---0---|
G|-8---8---8---8---8---8---8---8---|-5---5---5---5---5---5---5---5---|-0---0---0---0---0---0---0---0---|
C|-8---8---8---8---8---8---8---8---|-5---5---5---5---5---5---5---5---|-0---0---0---0---0---0---0---0---|


D|---------------------------------|---------------------------------|---------------------------------|
A|---------------------------------|---------------------------------|---------------------------------|
F|---------------------------------|---------------------------------|---------------------------------|
C|-7---7---7---7---10--10--10--10--|-8---8---8---8---8---8---8---8---|-5---5---5---5---5---5---5---5---|
G|-7---7---7---7---10--10--10--10--|-8---8---8---8---8---8---8---8---|-5---5---5---5---5---5---5---5---|
C|-7---7---7---7---10--10--10--10--|-8---8---8---8---8---8---8---8---|-5---5---5---5---5---5---5---5---|


D|---------------------------------|---------------------------------|---------------------------------|
A|---------------------------------|---------------------------------|---------------------------------|
F|---------------------------------|---------------------------------|---------------------------------|
C|-0---0---0---0---0---0---0---0---|-10--10--10--10--7---7---7---7---|-8---8---8---8---8---8---8---8---|
G|-0---0---0---0---0---0---0---0---|-10--10--10--10--7---7---7---7---|-8---8---8---8---8---8---8---8---|
C|-0---0---0---0---0---0---0---0---|-10--10--10--10--7---7---7---7---|-8---8---8---8---8---8---8---8---|


D|---------------------------------|---------------------------------|---------------------|
A|---------------------------------|---------------------------------|---------------------|
F|---------------------------------|---------------------------------|---------------------|
C|-5---5---5---5---5---5---5---5---|-3---3---3---3---2---2---2---2---|-0----0----0----0----|
G|-5---5---5---5---5---5---5---5---|-3---3---3---3---3---3---3---3---|-0----0----0----0----|
C|-5---5---5---5---5---5---5---5---|-3---3---3---3---2---2---2---2---|-0----0----0----0----|


D|---------------------|-----------------------------------------|---------------------------|
A|---------------------|-----------------------------------------|---------------------------|
F|---------------------|-----------------------------------------|---------------------------|
C|-0----0----0----0----|-----------------------------------------|---------------------------|
G|-0----0----0----0----|-0---0---------------------0---------0---|-------------------0---0---|
C|-0----0----0----0----|-0---0---0---0---0---0--0--0---0--0--0---|-------0--0--0--0--0---0---|


D|---------------------------|-----------------------------------------|---------------------------|
A|---------------------------|-----------------------------------------|---------------------------|
F|---------------------------|-----------------------------------------|---------------------------|
C|---------------------------|-----------------------------------------|---------------------------|
G|------0---0---7---8---5----|-0---0---------------------0---------0---|-------------------0---0---|
C|------0---0---7---8---5----|-0---0---0---0---0---0--0--0---0--0--0---|-------0--0--0--0--0---0---|


D|---------------------------|-----------------------------------------|---------------------------|
A|---------------------------|-----------------------------------------|---------------------------|
F|---------------------------|-----------------------------------------|---------------------------|
C|---------------------------|-----------------------------------------|---------------------------|
G|------0---0---7---8---5----|-0---0---------------------0---------0---|-------------------0---0---|
C|------0---0---7---8---5----|-0---0---0---0---0---0--0--0---0--0--0---|-------0--0--0--0--0---0---|


D|---------------------------|-----------------------------------------|---------------------------|
A|---------------------------|-----------------------------------------|---------------------------|
F|---------------------------|-----------------------------------------|---------------------------|
C|---------------------------|-----------------------------------------|---------------------------|
G|------0---0---7---8---5----|-0---0---------------------0---------0---|-------------------0---0---|
C|------0---0---7---8---5----|-0---0---0---0---0---0--0--0---0--0--0---|-------0--0--0--0--0---0---|


D|---------------------------|---------------------------------|---------------------------------|
A|---------------------------|---------------------------------|---------------------------------|
F|---------------------------|---------------------------------|---------------------------------|
C|---------------------------|-----------------7---7---7---7---|---------------------------------|
G|------0---0---7---8---5----|---------------------------------|-----------------8---8---8---8---|
C|------0---0---7---8---5----|-0---0---0---0-------------------|-0---0---0---0-------------------|


D|---------------------------------|---------------------------------|---------------------------------|
A|---------------------------------|---------------------------------|---------------------------------|
F|---------------------------------|---------------------------------|---------------------------------|
C|---------------------------------|---------------------------------|-----------------7---7---7---7---|
G|-----------------7---8-----------|-10--8-----------8---7-----------|---------------------------------|
C|-8---8---8---8-----------8---8---|---------8---8-----------8---8---|-0---0---0---0-------------------|


D|---------------------------------|---------------------------------|---------------------------------|
A|---------------------------------|---------------------------------|---------------------------------|
F|---------------------------------|---------------------------------|---------------------------------|
C|---------------------------------|---------------------------------|---------------------------------|
G|-----------------8---8---8---8---|-----------------10--8---7---8---|-----------------8---7---5---7---|
C|-0---0---0---0-------------------|-10--10--10--10------------------|-8---8---8---8-------------------|


D|---------------------------------|---------------------------------|-----------------------------------|
A|---------------------------------|---------------------------------|-----------------------------------|
F|---------------------------------|---------------------------------|-----------------------------------|
C|-----------------7---7---7---7---|---------------------------------|-----------5-------7-------8---7---|
G|---------------------------------|-----------------8---8---8---8---|-----------------------------------|
C|-0---0---0---0-------------------|-0---0---0---0-------------------|-5--5--5-------5-------5-----------|


D|-----------------------------------|-------------------------------|---------------------------|
A|-----------------------------------|-------------------------------|---------------------------|
F|-----------------------------------|-------------------------------|---------------------------|
C|-----------------------------------|-------------------------------|-----------7-----------8---|
G|-------------------8---10--7-------|-0---0---------------0----0----|-0----0--------8-----------|
C|-7---7---7--7--7---------------10--|-0---0---0--0--0--0--0----0----|-0----0------------0-------|


D|---------------------------------|---------------------------|--------------------------6---|
A|---------------------------------|----------6---5---6---5----|-5---8---6---5---6----6-------|
F|---------------------------------|-7----7--------------------|------------------------------|
C|---------10------12------14------|---------------------------|------------------------------|
G|-10----------12------13------15--|---------------------------|------------------------------|
C|-----0---------------------------|---------------------------|------------------------------|


D|-6---5---3---5---3---3---1---3---1---1---|---------------------------|--------------------------6---|
A|-----------------------------------------|----------6---5---6---5----|-5---8---6---5---6----6-------|
F|-----------------------------------------|-7----7--------------------|------------------------------|
C|-----------------------------------------|---------------------------|------------------------------|
G|-----------------------------------------|---------------------------|------------------------------|
C|-----------------------------------------|---------------------------|------------------------------|


D|-6---5---3---5---3---3---1---3---1---1---|---------------------------|--------------------------6---|
A|-----------------------------------------|----------6---5---6---5----|-5---8---6---5---6----6-------|
F|-----------------------------------------|-7----7--------------------|------------------------------|
C|-----------------------------------------|---------------------------|------------------------------|
G|-----------------------------------------|---------------------------|------------------------------|
C|-----------------------------------------|---------------------------|------------------------------|


D|-6---5---3---5---3---3---1---3---1---1---|---------------------------|--------------------------6---|
A|-----------------------------------------|----------6---5---6---5----|-5---8---6---5---6----6-------|
F|-----------------------------------------|-7----7--------------------|------------------------------|
C|-----------------------------------------|---------------------------|------------------------------|
G|-----------------------------------------|---------------------------|------------------------------|
C|-----------------------------------------|---------------------------|------------------------------|


D|-6---5---3---5---3---3---1---3---1---1---|---------------------------------|---------------------------------|
A|-----------------------------------------|-3---3---3---3---3---3---3---3---|-3---3---3---3---3---3---3---3---|
F|-----------------------------------------|-3---3---3---3---3---3---3---3---|-3---3---3---3---3---3---3---3---|
C|-----------------------------------------|-3---3---3---3---3---3---3---3---|-3---3---3---3---3---3---3---3---|
G|-----------------------------------------|-1---1---1---1---1---1---1---1---|-1---1---1---1---1---1---1---1---|
C|-----------------------------------------|---------------------------------|---------------------------------|


D|---------------------------------|---------------------------------|---------------------------------|
A|-3---3---3---3---3---3---3---3---|-6---6---6---6---6---6---6---6---|-6---6---6---6---6---6---6---6---|
F|-3---3---3---3---3---3---3---3---|-5---5---5---5---5---5---5---5---|-5---5---5---5---5---5---5---5---|
C|-3---3---3---3---3---3---3---3---|-5---5---5---5---5---5---5---5---|-5---5---5---5---5---5---5---5---|
G|-1---1---1---1---1---1---1---1---|-3---3---3---3---3---3---3---3---|-3---3---3---3---3---3---3---3---|
C|---------------------------------|---------------------------------|---------------------------------|


D|---------------------------------|------------------------------|------------------------------|
A|-6---6---6---6---6---6---6---6---|------------------------------|------------------------------|
F|-5---5---5---5---5---5---5---5---|------------------------------|------------------------------|
C|-5---5---5---5---5---5---5---5---|------------------------------|------------------------------|
G|-3---3---3---3---3---3---3---3---|-0--------5-------5---7---5---|-8--------7-------7---8---7---|
C|---------------------------------|-0----0-------0---------------|-8----8-------8---------------|


D|------------------------------|------------------------------|------------------------------|
A|------------------------------|------------------------------|------------------------------|
F|------------------------------|------------------------------|------------------------------|
C|------------------------------|------------------------------|------------------------------|
G|-10-------8-------8---10--8---|-7--------12--10--8---7---8---|-0--------5-------5---7---5---|
C|-10---10------10--------------|-7----7-----------------------|-0----0-------0---------------|


D|------------------------------|------------------------------|------------------------------|
A|------------------------------|------------------------------|------------------------------|
F|------------------------------|------------------------------|------------------------------|
C|------------------------------|------------------------------|------------------------------|
G|-8--------7-------7---8---7---|-10-------8-------8---10--8---|-7--------12--10--8---7---8---|
C|-8----8-------8---------------|-10---10------10--------------|-7----7-----------------------|


D|------------------------------|------------------------------|------------------------------|
A|------------------------------|------------------------------|------------------------------|
F|------------------------------|------------------------------|------------------------------|
C|------------------------------|------------------------------|------------------------------|
G|-0--------5-------5---7---5---|-8--------7-------7---8---7---|-10-------8-------8---10--8---|
C|-0----0-------0---------------|-8----8-------8---------------|-10---10------10--------------|


D|------------------------------|------------------------------|------------------------------|
A|------------------------------|------------------------------|------------------------------|
F|------------------------------|------------------------------|------------------------------|
C|------------------------------|------------------------------|------------------------------|
G|-7--------12--10--8---7---8---|-0--------5-------5---7---5---|-8--------7-------7---8---7---|
C|-7----7-----------------------|-0----0-------0---------------|-8----8-------8---------------|


D|------------------------------|------------------------------|------------------------------|
A|------------------------------|------------------------------|------------------------------|
F|------------------------------|------------------------------|------------------------------|
C|------------------------------|------------------------------|------------------------------|
G|-10-------8-------8---10--8---|-7--------12--10--8---7---8---|-5--------10--8---7---5---7---|
C|-10---10------10--------------|-7----7-----------------------|-5----5-----------------------|


D|---------------------------|--------|--------|--------|--------|--------|--------|
A|---------------------------|--------|--------|--------|--------|--------|--------|
F|---------------------------|--------|--------|--------|--------|--------|--------|
C|------3---2--------2---0---|-0------|-0------|--------|--------|--------|--------|
G|-3------------3------------|-0------|-0------|--------|--------|--------|--------|
C|-3------------2------------|-0------|-0------|--------|--------|--------|--------|


D|--------|--------|--------|--------|--------|--------|--------|--------|--------|
A|--------|--------|--------|--------|--------|--------|--------|--------|--------|
F|--------|--------|--------|--------|--------|--------|--------|--------|--------|
C|--------|--------|--------|--------|--------|--------|--------|--------|--------|
G|--------|--------|--------|--------|--------|--------|--------|--------|--------|
C|--------|--------|--------|--------|--------|--------|--------|--------|--------|


D|--------|--------|--------|--------|--------|--------|--------|--------|--------|
A|--------|--------|--------|--------|--------|--------|--------|--------|--------|
F|--------|--------|--------|--------|--------|--------|--------|--------|--------|
C|--------|--------|--------|--------|--------|--------|--------|--------|--------|
G|--------|--------|--------|--------|--------|--------|--------|--------|--------|
C|--------|--------|--------|--------|--------|--------|--------|--------|--------|


D|--------|--------|--------|--------|--------|--------|--------|--------|--------|
A|--------|--------|--------|--------|--------|--------|--------|--------|--------|
F|--------|--------|--------|--------|--------|--------|--------|--------|--------|
C|--------|--------|--------|--------|--------|--------|--------|--------|--------|
G|--------|--------|--------|--------|--------|--------|--------|--------|--------|
C|--------|--------|--------|--------|--------|--------|--------|--------|--------|


D|--------|--------|--------|--------|--------|--------|--------|--------|--------|
A|--------|--------|--------|--------|--------|--------|--------|--------|--------|
F|--------|--------|--------|--------|--------|--------|--------|--------|--------|
C|--------|--------|--------|--------|--------|--------|--------|--------|--------|
G|--------|--------|--------|--------|--------|--------|--------|--------|--------|
C|--------|--------|--------|--------|--------|--------|--------|--------|--------|


D|--------|--------|--------|--------|--------|--------|--------|--------|--------|
A|--------|--------|--------|--------|--------|--------|--------|--------|--------|
F|--------|--------|--------|--------|--------|--------|--------|--------|--------|
C|--------|--------|--------|--------|--------|--------|--------|--------|--------|
G|--------|--------|--------|--------|--------|--------|--------|--------|--------|
C|--------|--------|--------|--------|--------|--------|--------|--------|--------|


D|--------|--------|--------|--------|--------|--------|--------|--------|--------|
A|--------|--------|--------|--------|--------|--------|--------|--------|--------|
F|--------|--------|--------|--------|--------|--------|--------|--------|--------|
C|--------|--------|--------|--------|--------|--------|--------|--------|--------|
G|--------|--------|--------|--------|--------|--------|--------|--------|--------|
C|--------|--------|--------|--------|--------|--------|--------|--------|--------|


D|--------|--------|--------|--------|--------|--------|--------|--------|--------|
A|--------|--------|--------|--------|--------|--------|--------|--------|--------|
F|--------|--------|--------|--------|--------|--------|--------|--------|--------|
C|--------|--------|--------|--------|--------|--------|--------|--------|--------|
G|--------|--------|--------|--------|--------|--------|--------|--------|--------|
C|--------|--------|--------|--------|--------|--------|--------|--------|--------|


D|--------|--------|--------|--------|--------|--------|--------|--------|--------|
A|--------|--------|--------|--------|--------|--------|--------|--------|--------|
F|--------|--------|--------|--------|--------|--------|--------|--------|--------|
C|--------|--------|--------|--------|--------|--------|--------|--------|--------|
G|--------|--------|--------|--------|--------|--------|--------|--------|--------|
C|--------|--------|--------|--------|--------|--------|--------|--------|--------|


D|--------|--------|--------|--------|--------|--------|--------|--------|--------|
A|--------|--------|--------|--------|--------|--------|--------|--------|--------|
F|--------|--------|--------|--------|--------|--------|--------|--------|--------|
C|--------|--------|--------|--------|--------|--------|--------|--------|--------|
G|--------|--------|--------|--------|--------|--------|--------|--------|--------|
C|--------|--------|--------|--------|--------|--------|--------|--------|--------|


D|--------|--------|--------|--------|--------|--------|--------|--------|--------|
A|--------|--------|--------|--------|--------|--------|--------|--------|--------|
F|--------|--------|--------|--------|--------|--------|--------|--------|--------|
C|--------|--------|--------|--------|--------|--------|--------|--------|--------|
G|--------|--------|--------|--------|--------|--------|--------|--------|--------|
C|--------|--------|--------|--------|--------|--------|--------|--------|--------|


D|------------------------|----------------------------|---------------------------------|
A|------------------------|----------------------------|---------------------------------|
F|------------------------|----------------------------|---------------------------------|
C|------------------------|----------------------------|---------------------------------|
G|-0--0--0--0-------------|---------0--0--0--0---------|-0--0--0--0----0--0--0--0--------|
C|-0--0--0--0-------------|---------0--0--0--0---------|-0--0--0--0----0--0--0--0--------|


D|------------------|------------------|---------------------------------|-----------------------------------|
A|------------------|------------------|---------------------------------|-----------------------------------|
F|------------------|------------------|---------------------------------|-----------------------------------|
C|-------12---------|------------------|---------------------------------|-3--2--3-------------------5-------|
G|-------------10---|-------12----13---|-3---5-------------------3---5---|-----------------------------------|
C|-10---------------|-8----------------|---------0---0---0---0-----------|-----------0---0---0---0-------0---|


D|---------------------------------|---------------------------------|---------------------------------|
A|---------------------------------|---------------------------------|---------------------------------|
F|---------------------------------|---------------------------------|---------------------------------|
C|-----3-------2-------3-------0---|---------3-------2---3---2---0---|---------------------------------|
G|---------------------------------|-1---1-------1-------------------|-3---5-------------------3---5---|
C|-0-------0-------0-------0-------|---------------------------------|---------0---0---0---0-----------|


D|-----------------------------------|---------------------------------|---------------------------------|
A|-----------------------------------|---------------------------------|---------------------------------|
F|-----------------------------------|---------------------------------|---------------------------------|
C|-3--2--3-------------------5-------|-----3-------2-------3-------0---|---------3-------2---3---2---0---|
G|-----------------------------------|---------------------------------|-1---1-------1-------------------|
C|-----------0---0---0---0-------0---|-0-------0-------0-------0-------|---------------------------------|


D|---------------------------------|-----------------------------------|---------------------------------|
A|---------------------------------|-----------------------------------|---------------------------------|
F|---------------------------------|-----------------------------------|---------------------------------|
C|---------------------------------|-3--2--3-------------------5-------|-----3-------2-------3-------0---|
G|-3---5-------------------3---5---|-----------------------------------|---------------------------------|
C|---------0---0---0---0-----------|-----------0---0---0---0-------0---|-0-------0-------0-------0-------|


D|---------------------------------|---------------------------------|-----------------------------------|
A|---------------------------------|---------------------------------|-----------------------------------|
F|---------------------------------|---------------------------------|-----------------------------------|
C|---------3-------2---3---2---0---|---------------------------------|-3--2--3-------------------5-------|
G|-1---1-------1-------------------|-3---5-------------------3---5---|-----------------------------------|
C|---------------------------------|---------0---0---0---0-----------|-----------0---0---0---0-------0---|


D|---------------------------------|---------------------------------|---------------------------------|
A|---------------------------------|---------------------------------|---------------------------------|
F|---------------------------------|---------------------------------|---------------------------------|
C|-----3-------2-------3-------0---|---------3-------2---3---2---0---|---------------------------------|
G|---------------------------------|-1---1-------1-------------------|-3---5-------------------3---5---|
C|-0-------0-------0-------0-------|---------------------------------|---------0---0---0---0-----------|


D|-----------------------------------|---------------------------------|---------------------------------|
A|-----------------------------------|---------------------------------|---------------------------------|
F|-----------------------------------|---------------------------------|---------------------------------|
C|-3--2--3-------------------5-------|-----3-------2-------3-------0---|---------3-------2---3---2---0---|
G|-----------------------------------|---------------------------------|-1---1-------1-------------------|
C|-----------0---0---0---0-------0---|-0-------0-------0-------0-------|---------------------------------|


D|---------------------------------|-----------------------------------|---------------------------------|
A|---------------------------------|-----------------------------------|---------------------------------|
F|---------------------------------|-----------------------------------|---------------------------------|
C|---------------------------------|-3--2--3-------------------5-------|-----3-------2-------3-------0---|
G|-3---5-------------------3---5---|-----------------------------------|---------------------------------|
C|---------0---0---0---0-----------|-----------0---0---0---0-------0---|-0-------0-------0-------0-------|


D|---------------------------------|---------------------------------|---------------------------------|
A|---------------------------------|---------------------------------|---------------------------------|
F|---------------------------------|---------------------------------|---------------------------------|
C|---------3-------2---3---2---0---|---------------------------------|---------------------------------|
G|-1---1-------1-------------------|-3---5---5---5---5---5---3---5---|-5---5---5---5---3---5---5---5---|
C|---------------------------------|-0---0---0---0---0---0---0---0---|-0---0---0---0---0---0---0---0---|


D|---------------------------------|---------------------------------|---------------------------------|
A|---------------------------------|---------------------------------|---------------------------------|
F|---------------------------------|---------------------------------|---------------------------------|
C|---------------------------------|---------------------------------|---------------------------------|
G|-5---5---3---5---5---5---5---5---|-5---7---7---7---7---7---5---7---|-7---7---7---7---7---8---8---8---|
C|-0---0---0---0---0---0---0---0---|-8---8---8---8---8---8---8---8---|-8---8---8---8---10--10--10--10--|


D|---------------------------------|---------------------------------|---------------------------------|
A|---------------------------------|---------------------------------|---------------------------------|
F|---------------------------------|---------------------------------|---------------------------------|
C|---------------------------------|---------------------------------|---------------------------------|
G|-8---8---8---7---7---7---7---7---|-3---5---5---5---5---5---3---5---|-5---5---5---5---3---5---5---5---|
C|-10--10--10--10--10--10--10--10--|-0---0---0---0---0---0---0---0---|-0---0---0---0---0---0---0---0---|


D|---------------------------------|---------------------------------|---------------------------------|
A|---------------------------------|---------------------------------|---------------------------------|
F|---------------------------------|---------------------------------|---------------------------------|
C|---------------------------------|---------------------------------|---------------------------------|
G|-5---5---3---5---5---5---5---5---|-5---7---7---7---7---7---5---7---|-7---7---7---7---7---8---8---8---|
C|-0---0---0---0---0---0---0---0---|-8---8---8---8---8---8---8---8---|-8---8---8---8---10--10--10--10--|


D|---------------------------------|-------------|-------------------|---------------------------|
A|---------------------------------|-------------|-------------------|---------------------------|
F|---------------------------------|-------------|-------------------|-9---9---10---10--10--12---|
C|---------------------------------|-------------|-------------------|---------------------------|
G|-8---8---8---7---7---7---7---7---|-0-----------|-0-----0-----0-----|---------------------------|
C|-10--10--10--10--10--10--10--10--|-0-----------|-0-----0-----0-----|---------------------------|


D|--------------------------------|---------------------------------|---------------------------------|
A|-10-11-10-----------------------|---------------------------------|---------------------------------|
F|-----------12--9---10--9--------|---------------------------------|---------------------------------|
C|---------------------------12---|-----------------7---7---7---7---|---------------------------------|
G|--------------------------------|---------------------------------|-----------------8---8---8---8---|
C|--------------------------------|-0---0---0---0-------------------|-0---0---0---0-------------------|


D|---------------------------------|---------------------------------|---------------------------------|
A|---------------------------------|---------------------------------|---------------------------------|
F|---------------------------------|---------------------------------|---------------------------------|
C|---------------------------------|---------------------------------|-----------------7---7---7---7---|
G|-----------------7---8-----------|-10--8-----------8---7-----------|---------------------------------|
C|-8---8---8---8-----------8---8---|---------8---8-----------8---8---|-0---0---0---0-------------------|


D|---------------------------------|---------------------------------|---------------------------------|
A|---------------------------------|---------------------------------|---------------------------------|
F|---------------------------------|---------------------------------|---------------------------------|
C|---------------------------------|---------------------------------|---------------------------------|
G|-----------------8---8---8---8---|-----------------10--8---7---8---|-----------------8---7---5---7---|
C|-0---0---0---0-------------------|-10--10--10--10------------------|-8---8---8---8-------------------|


D|---------------------------------|---------------------------------|-----------------------------------|
A|---------------------------------|---------------------------------|-----------------------------------|
F|---------------------------------|---------------------------------|-----------------------------------|
C|-----------------7---7---7---7---|---------------------------------|-----------5-------7-------8---7---|
G|---------------------------------|-----------------8---8---8---8---|-----------------------------------|
C|-0---0---0---0-------------------|-0---0---0---0-------------------|-5--5--5-------5-------5-----------|


D|-----------------------------------|------------------------------|------------------------------|
A|-----------------------------------|------------------------------|------------------------------|
F|-----------------------------------|------------------------------|------------------------------|
C|-----------------------------------|------------------------------|------------------------------|
G|-------------------8---10--7-------|-0---0---0---0---0---0---0----|------0---0---0---0---0---0---|
C|-7---7---7--7--7---------------10--|-0---0---0---0---0---0---0----|------0---0---0---0---0---0---|


D|-----------------|--------|------------------------------|------------------------------|
A|-----------------|--------|------------------------------|------------------------------|
F|-----------------|--------|------------------------------|------------------------------|
C|-----------------|--------|------------------------------|------------------------------|
G|-0----0----0-----|--------|-0---0---0---0---0---0---0----|------0---0---0---0---0---0---|
C|-0----0----0-----|--------|-0---0---0---0---0---0---0----|------0---0---0---0---0---0---|


D|-----------------|--------|------------------------------|------------------------------|
A|-----------------|--------|------------------------------|------------------------------|
F|-----------------|--------|------------------------------|------------------------------|
C|-----------------|--------|-10--10--10--10--10--10--10---|------12--12--12--12--12--12--|
G|-0----0----0-----|--------|-8---8---8---8---8---8---8----|------8---8---8---8---8---8---|
C|-0----0----0-----|--------|-8---8---8---8---8---8---8----|------8---8---8---8---8---8---|


D|-----------------|--------|------------------------------|------------------------------|
A|-----------------|--------|------------------------------|------------------------------|
F|-10---10---10----|--------|------------------------------|------------------------------|
C|-8----8----8-----|--------|-15--15--15--15--15--15--15---|------14--14--14--14--14--14--|
G|-8----8----8-----|--------|-10--10--10--10--10--10--10---|------10--10--10--10--10--10--|
C|-8----8----8-----|--------|-10--10--10--10--10--10--10---|------10--10--10--10--10--10--|


D|-----------------|--------|------------------------------|------------------------------|
A|-----------------|--------|------------------------------|------------------------------|
F|-----------------|--------|------------------------------|------------------------------|
C|-12---10---12----|--------|------------------------------|------------------------------|
G|-10---10---10----|--------|-0---0---0---0---0---0---0----|------0---0---0---0---0---0---|
C|-10---10---10----|--------|-0---0---0---0---0---0---0----|------0---0---0---0---0---0---|


D|-----------------|--------|------------------------------|------------------------------|
A|-----------------|--------|------------------------------|------------------------------|
F|-----------------|--------|------------------------------|------------------------------|
C|-----------------|--------|------------------------------|------------------------------|
G|-0----0----0-----|--------|-0---0---0---0---0---0---0----|------0---0---0---0---0---0---|
C|-0----0----0-----|--------|-0---0---0---0---0---0---0----|------0---0---0---0---0---0---|


D|-----------------|--------|------------------------------|------------------------------|
A|-----------------|--------|------------------------------|------------------------------|
F|-----------------|--------|------------------------------|------------------------------|
C|-----------------|--------|-10--10--10--10--10--10--10---|------12--12--12--12--12--12--|
G|-0----0----0-----|--------|-8---8---8---8---8---8---8----|------8---8---8---8---8---8---|
C|-0----0----0-----|--------|-8---8---8---8---8---8---8----|------8---8---8---8---8---8---|


D|-----------------|--------|------------------------------|------------------------------|
A|-----------------|--------|------------------------------|------------------------------|
F|-10---10---10----|--------|------------------------------|------------------------------|
C|-8----8----8-----|--------|-15--15--15--15--15--15--15---|------14--14--14--14--14--14--|
G|-8----8----8-----|--------|-10--10--10--10--10--10--10---|------10--10--10--10--10--10--|
C|-8----8----8-----|--------|-10--10--10--10--10--10--10---|------10--10--10--10--10--10--|


D|-----------------|--------|------------------------------|------------------------------|
A|-----------------|--------|------------------------------|------------------------------|
F|-----------------|--------|------------------------------|------------------------------|
C|-12---10---12----|--------|------------------------------|------------------------------|
G|-10---10---10----|--------|-8---0---7---0---8---0---10---|------12--0---10--0---8---0---|
C|-10---10---10----|--------|-0---0---0---0---0---0---0----|------0---0---0---0---0---0---|


D|-----------------|--------|------------------------------|------------------------------|
A|-----------------|--------|------------------------------|------------------------------|
F|-----------------|--------|------------------------------|------------------------------|
C|-----------------|--------|------------------------------|------------------------------|
G|-7----3----5-----|--------|-8---0---7---0---8---0---10---|------12--0---13--0---15--0---|
C|-0----0----0-----|--------|-0---0---0---0---0---0---0----|------0---0---0---0---0---0---|


D|-----------------|--------|------------------------------|------------------------------|
A|-----------------|--------|------------------------------|------------------------------|
F|-----------------|--------|------------------------------|------------------------------|
C|-----------------|--------|-10--10--10--10--10--10--10---|------12--12--12--12--12--12--|
G|-10---12---8-----|--------|-8---8---8---8---8---8---8----|------8---8---8---8---8---8---|
C|-0----0----0-----|--------|-8---8---8---8---8---8---8----|------8---8---8---8---8---8---|


D|-----------------|--------|------------------------------|------------------------------|
A|-----------------|--------|------------------------------|------------------------------|
F|-10---10---10----|--------|------------------------------|------------------------------|
C|-8----8----8-----|--------|-15--15--15--15--15--15--15---|------14--14--14--14--14--14--|
G|-8----8----8-----|--------|-10--10--10--10--10--10--10---|------10--10--10--10--10--10--|
C|-8----8----8-----|--------|-10--10--10--10--10--10--10---|------10--10--10--10--10--10--|


D|-----------------|--------|------------------------------|------------------------------|
A|-----------------|--------|------------------------------|------------------------------|
F|-----------------|--------|------------------------------|------------------------------|
C|-12---10---12----|--------|------------------------------|------------------------------|
G|-10---10---10----|--------|-8---0---7---0---8---0---10---|------12--0---10--0---8---0---|
C|-10---10---10----|--------|-0---0---0---0---0---0---0----|------0---0---0---0---0---0---|


D|-----------------|--------|------------------------------|------------------------------|
A|-----------------|--------|------------------------------|------------------------------|
F|-----------------|--------|------------------------------|------------------------------|
C|-----------------|--------|------------------------------|------------------------------|
G|-7----3----5-----|--------|-8---0---7---0---8---0---10---|------12--0---13--0---15--0---|
C|-0----0----0-----|--------|-0---0---0---0---0---0---0----|------0---0---0---0---0---0---|


D|-----------------|--------|------------------------------|------------------------------|
A|-----------------|--------|------------------------------|------------------------------|
F|-----------------|--------|------------------------------|------------------------------|
C|-----------------|--------|-10--10--10--10--10--10--10---|------12--12--12--12--12--12--|
G|-10---12---8-----|--------|-8---8---8---8---8---8---8----|------8---8---8---8---8---8---|
C|-0----0----0-----|--------|-8---8---8---8---8---8---8----|------8---8---8---8---8---8---|


D|-----------------|--------|------------------------------|------------------------------|
A|-----------------|--------|------------------------------|------------------------------|
F|-10---10---10----|--------|------------------------------|------------------------------|
C|-8----8----8-----|--------|-15--15--15--15--15--15--15---|------14--14--14--14--14--14--|
G|-8----8----8-----|--------|-10--10--10--10--10--10--10---|------10--10--10--10--10--10--|
C|-8----8----8-----|--------|-10--10--10--10--10--10--10---|------10--10--10--10--10--10--|


D|-----------------|--------|------------------------------|------------------------------|
A|-----------------|--------|------------------------------|------------------------------|
F|-----------------|--------|------------------------------|------------------------------|
C|-12---10---12----|--------|------------------------------|------------------------------|
G|-10---10---10----|--------|-8---0---7---0---8---0---10---|------12--0---10--0---8---0---|
C|-10---10---10----|--------|-0---0---0---0---0---0---0----|------0---0---0---0---0---0---|


D|-----------------|--------|-----------------|--------|-----------------|--------|
A|-----------------|--------|-----------------|--------|-----------------|--------|
F|-----------------|--------|-----------------|--------|-----------------|--------|
C|-----------------|--------|-----------------|--------|-----------------|--------|
G|-0----0----0-----|--------|-0----0----0-----|--------|-0----0----0-----|--------|
C|-0----0----0-----|--------|-0----0----0-----|--------|-0----0----0-----|--------|


D|-----------------|--------|-----------------|--------|--------|--------|--------|
A|-----------------|--------|-----------------|--------|--------|--------|--------|
F|-----------------|--------|-----------------|--------|--------|--------|--------|
C|-----------------|--------|-----------------|--------|--------|--------|--------|
G|-0----0----0-----|--------|-0----0----0-----|--------|--------|--------|--------|
C|-0----0----0-----|--------|-0----0----0-----|--------|--------|--------|--------|


D|--------|--------|--------|--------|--------|--------|--------|--------|--------|
A|--------|--------|--------|--------|--------|--------|--------|--------|--------|
F|--------|--------|--------|--------|--------|--------|--------|--------|--------|
C|--------|--------|--------|--------|--------|--------|--------|--------|--------|
G|--------|--------|--------|--------|--------|--------|--------|--------|--------|
C|--------|--------|--------|--------|--------|--------|--------|--------|--------|


D|--------|--------|--------|--------|--------|--------|--------|--------|--------|
A|--------|--------|--------|--------|--------|--------|--------|--------|--------|
F|--------|--------|--------|--------|--------|--------|--------|--------|--------|
C|--------|--------|--------|--------|--------|--------|--------|--------|--------|
G|--------|--------|--------|--------|--------|--------|--------|--------|--------|
C|--------|--------|--------|--------|--------|--------|--------|--------|--------|


D|--------|--------|--------|--------|--------|--------|
A|--------|--------|--------|--------|--------|--------|
F|--------|--------|--------|--------|--------|--------|
C|--------|--------|--------|--------|--------|--------|
G|--------|--------|--------|--------|--------|--------|
C|--------|--------|--------|--------|--------|--------|





Track 2: Lead

D|-------------|--------|-------------|--------|-------------|--------|------------------|
A|-------------|--------|-------------|--------|-------------|--------|------------------|
F|-------------|--------|-------------|--------|-------------|--------|------------------|
C|-------------|--------|-------------|--------|-------------|--------|-------12---------|
G|-0-----------|-0------|-8-----------|-8------|-0-----------|-0------|-10----------10---|
C|-0-----------|-0------|-8-----------|-8------|-0-----------|-0------|-10---------------|


D|------------------|-------------|--------|-----------------------------------|-----------------------------------|
A|------------------|-------------|--------|-----------------------------------|-----------------------------------|
F|------------------|-------------|--------|-----------------------------------|-----------------------------------|
C|------------------|-------------|--------|-----------------------------------|-------------------0---2-----------|
G|-8-----12----13---|-0-----------|-0------|-----------7-------8-------10--8---|-0---0---0--0--0-----------3---0---|
C|-8----------------|-0-----------|-0------|-5--5--5-------5-------5-----------|-----------------------------------|


D|---------------------------------|---------------------------------|---------------------------------|
A|---------------------------------|---------------------------------|---------------------------------|
F|---------------------------------|---------------------------------|---------------------------------|
C|---------------------------------|---------------------------------|---------------------------------|
G|-----------------8---8---8---8---|-----------------5---5---5---5---|---------------------------------|
C|-0---0---0---0-------------------|-0---0---0---0-------------------|-8---8---8---8---10--12--8---8---|


D|---------------------------------|---------------------------------|---------------------------------|
A|---------------------------------|---------------------------------|---------------------------------|
F|---------------------------------|---------------------------------|---------------------------------|
C|---------------------------------|---------------------------------|---------------------------------|
G|---------------------------------|-----------------8---8---8---8---|-----------------5---5---5---5---|
C|-14--12--8---8---12--10--8---8---|-0---0---0---0-------------------|-0---0---0---0-------------------|


D|---------------------------------|---------------------------------|---------------------------------|
A|---------------------------------|---------------------------------|---------------------------------|
F|---------------------------------|---------------------------------|---------------------------------|
C|---------------------------------|---------------------------------|---------------------------------|
G|---------------------------------|---------------------------------|-----------------8---8---8---8---|
C|-10--10--10--10--14--12--10--12--|-8---8---8---8---12--10--8---10--|-0---0---0---0-------------------|


D|---------------------------------|-----------------------------------|-----------------------------------|
A|---------------------------------|-----------------------------------|-----------------------------------|
F|---------------------------------|-----------------------------------|-----------------------------------|
C|---------------------------------|-----------------------------------|-------------------0---2-----------|
G|-----------------5---5---5---5---|-----------7-------8-------10--8---|-0---0---0--0--0-----------3---0---|
C|-0---0---0---0-------------------|-5--5--5-------5-------5-----------|-----------------------------------|


D|---------------------------------|---------------------------------|-----------------------------------|
A|---------------------------------|---------------------------------|-----------------------------------|
F|---------------------------------|---------------------------------|-----------------------------------|
C|-0-------------------------------|---------------------------------|-----------------10-12-10----------|
G|-----0---0---0---0---0---0---0---|-0---0---0---0---12--13--10--7---|-8---8---8---8-------------13--12--|
C|---------0---0---0---0---0---0---|-0---0---0---0-------------------|-8---8---8---8---------------------|


D|---------------------------------|---------------------------------|---------------------------------|
A|---------------------------------|---------------------------------|---------------------------------|
F|---------------------------------|---------------------------------|---------------------------------|
C|-----------------10--8-------7---|---------------------------------|-----------------12--10----------|
G|-10--10--10--10----------10------|-0---0---0---0---0---0---0---0---|-0---0---0---0-----------13--12--|
C|-10--10--10--10------------------|-0---0---0---0---0---0---0---0---|-0---0---0---0-------------------|


D|---------------------------------|---------------------------------|---------------------------------|
A|---------------------------------|---------------------------------|---------------------------------|
F|-------------------------9-------|---------------------------------|---------------------------------|
C|---------10------12----------12--|-----------------8---7-----------|---------------------------------|
G|---------------------------------|-------------------------10--7---|-0---0---0---0---0---0---0---0---|
C|-8---8-------8-------8-----------|-7---7---7---7-------------------|-0---0---0---0---0---0---0---0---|


D|-----------------------------------|---------------------------------|---------------------------------|
A|-----------------------------------|---------------------------------|---------------------------------|
F|---------------------------9-------|---------------------------------|---------------------------------|
C|-----------------10-12-10------12--|---------8-------5-------5---7---|---------15--------------10--12--|
G|-0---0---0---0---------------------|---------------------------------|-------------13------------------|
C|-0---0---0---0---------------------|-5---5-------5-------5-----------|-10--10----------7---7-----------|


D|---------------------------------|---------------------------------|---------------------------------|
A|---------------------------------|---------------------------------|---------------------------------|
F|---------------------------------|---------------------------------|-------------------------9-------|
C|---------------------------------|-----------------12--10----------|---------10------12----------12--|
G|-0---0---0---0---0---0---0---0---|-0---0---0---0-----------13--12--|---------------------------------|
C|-0---0---0---0---0---0---0---0---|-0---0---0---0-------------------|-8---8-------8-------8-----------|


D|---------------------------------|-------------5---5---5-----------|-6---6---6-----------------------|
A|---------------------------------|-------------------------5---5---|-------------6---6---6---6---8---|
F|---------------------------------|-7---7---7-----------------------|---------------------------------|
C|-----------------8---7-----------|---------------------------------|---------------------------------|
G|-------------------------10--7---|---------------------------------|---------------------------------|
C|-7---7---7---7-------------------|---------------------------------|---------------------------------|


D|-------------5---5---5-----------|---------------------------------|-------------5---5---5-----------|
A|-------------------------6---6---|-----------------5---5---5---5---|-------------------------5---5---|
F|-7---7---7-----------------------|-5---5---5---5-------------------|-7---7---7-----------------------|
C|---------------------------------|---------------------------------|---------------------------------|
G|---------------------------------|---------------------------------|---------------------------------|
C|---------------------------------|---------------------------------|---------------------------------|


D|-6---6---6-------------------5---|---------------------------------|---------------------------------|
A|-------------6---6---6---6-------|-------------5---5---5---6---6---|-5---5---5---5-------------------|
F|---------------------------------|-7---7---7-----------------------|-----------------5---5---5---5---|
C|---------------------------------|---------------------------------|---------------------------------|
G|---------------------------------|---------------------------------|---------------------------------|
C|---------------------------------|---------------------------------|---------------------------------|


D|-------------5---5---5-----------|-6---6---6-----------------------|-------------5---5---5-----------|
A|-------------------------5---5---|-------------6---6---6---6---8---|-------------------------6---6---|
F|-7---7---7-----------------------|---------------------------------|-7---7---7-----------------------|
C|---------------------------------|---------------------------------|---------------------------------|
G|---------------------------------|---------------------------------|---------------------------------|
C|---------------------------------|---------------------------------|---------------------------------|


D|---------------------------------|-------------5---5---5-----------|-6---6---6-------------------5---|
A|-----------------5---5---5---5---|-------------------------5---5---|-------------6---6---6---6-------|
F|-5---5---5---5-------------------|-7---7---7-----------------------|---------------------------------|
C|---------------------------------|---------------------------------|---------------------------------|
G|---------------------------------|---------------------------------|---------------------------------|
C|---------------------------------|---------------------------------|---------------------------------|


D|---------------------------------|---------------------------------|---------------------------------|
A|-------------5---5---5---6---6---|-5---5---5---5-------------------|---------------------------------|
F|-7---7---7-----------------------|-----------------5---5---5---5---|-10--10--10--10--10--10--10--10--|
C|---------------------------------|---------------------------------|---------------------------------|
G|---------------------------------|---------------------------------|-8---8---8---8---8---8---8---8---|
C|---------------------------------|---------------------------------|---------------------------------|


D|---------------------------------|---------------------------------|---------------------|
A|---------------------------------|---------------------------------|---------------------|
F|-12--12--12--12--12--12--12--12--|-14--14--14--14--15--15--15--15--|-7----7----7----7----|
C|---------------------------------|---------------------------------|---------------------|
G|-10--10--10--10--10--10--10--10--|-12--12--12--12--13--13--13--13--|-5----5----5----5----|
C|---------------------------------|---------------------------------|---------------------|


D|---------------------|--------|--------|--------|--------|--------|--------|--------|
A|---------------------|--------|--------|--------|--------|--------|--------|--------|
F|-7----7----7----7----|--------|--------|--------|--------|--------|--------|--------|
C|---------------------|--------|--------|--------|--------|--------|--------|--------|
G|-5----5----5----5----|--------|--------|--------|--------|--------|--------|--------|
C|---------------------|--------|--------|--------|--------|--------|--------|--------|


D|--------|--------|--------|--------|--------|---------------------------------|---------------------------------|
A|--------|--------|--------|--------|--------|---------------------------------|---------------------------------|
F|--------|--------|--------|--------|--------|---------------------------------|---------------------------------|
C|--------|--------|--------|--------|--------|---------------------------------|---------------------------------|
G|--------|--------|--------|--------|--------|-----------------8---8---8---8---|-----------------5---5---5---5---|
C|--------|--------|--------|--------|--------|-0---0---0---0-------------------|-0---0---0---0-------------------|


D|---------------------------------|---------------------------------|---------------------------------|
A|---------------------------------|---------------------------------|---------------------------------|
F|---------------------------------|---------------------------------|---------------------------------|
C|---------------------------------|---------------------------------|---------------------------------|
G|---------------------------------|---------------------------------|-----------------8---8---8---8---|
C|-8---8---8---8---10--12--8---8---|-14--12--8---8---12--10--8---8---|-0---0---0---0-------------------|


D|---------------------------------|---------------------------------|---------------------------------|
A|---------------------------------|---------------------------------|---------------------------------|
F|---------------------------------|---------------------------------|---------------------------------|
C|---------------------------------|---------------------------------|---------------------------------|
G|-----------------5---5---5---5---|---------------------------------|---------------------------------|
C|-0---0---0---0-------------------|-10--10--10--10--14--12--10--12--|-8---8---8---8---12--10--8---10--|


D|---------------------------------|---------------------------------|-----------------------------------|
A|---------------------------------|---------------------------------|-----------------------------------|
F|---------------------------------|---------------------------------|-----------------------------------|
C|---------------------------------|---------------------------------|-----------------------------------|
G|-----------------8---8---8---8---|-----------------5---5---5---5---|-----------7-------8-------10--8---|
C|-0---0---0---0-------------------|-0---0---0---0-------------------|-5--5--5-------5-------5-----------|


D|-----------------------------------|-------------------------------|---------------------------|
A|-----------------------------------|-------------------------------|---------------------------|
F|-----------------------------------|-------------------------------|---------------------------|
C|-------------------0---2-----------|-------------------------------|---------------------------|
G|-0---0---0--0--0-----------3---0---|-0---0---------------0----0----|-0----0----8---8---8---8---|
C|-----------------------------------|-0---0---0--0--0--0--0----0----|-0----0----8---8---8---8---|


D|---------------------------------|--------|--------|--------|--------|--------|--------|
A|---------------------------------|--------|--------|--------|--------|--------|--------|
F|---------------------------------|--------|--------|--------|--------|--------|--------|
C|---------------------------------|--------|--------|--------|--------|--------|--------|
G|-8---8---10--10--10--10--10--10--|--------|--------|--------|--------|--------|--------|
C|-8---8---10--10--10--10--10--10--|--------|--------|--------|--------|--------|--------|


D|--------|--------|--------|--------|--------|--------|--------|--------|--------|
A|--------|--------|--------|--------|--------|--------|--------|--------|--------|
F|--------|--------|--------|--------|--------|--------|--------|--------|--------|
C|--------|--------|--------|--------|--------|--------|--------|--------|--------|
G|--------|--------|--------|--------|--------|--------|--------|--------|--------|
C|--------|--------|--------|--------|--------|--------|--------|--------|--------|


D|--------|--------|--------|--------|--------|--------|--------|--------|--------|
A|--------|--------|--------|--------|--------|--------|--------|--------|--------|
F|--------|--------|--------|--------|--------|--------|--------|--------|--------|
C|--------|--------|--------|--------|--------|--------|--------|--------|--------|
G|--------|--------|--------|--------|--------|--------|--------|--------|--------|
C|--------|--------|--------|--------|--------|--------|--------|--------|--------|


D|--------|--------|--------|--------|--------|--------|--------|--------|--------|
A|--------|--------|--------|--------|--------|--------|--------|--------|--------|
F|--------|--------|--------|--------|--------|--------|--------|--------|--------|
C|--------|--------|--------|--------|--------|--------|--------|--------|--------|
G|--------|--------|--------|--------|--------|--------|--------|--------|--------|
C|--------|--------|--------|--------|--------|--------|--------|--------|--------|


D|--------|--------|--------|--------|--------|--------|--------|--------|--------|
A|--------|--------|--------|--------|--------|--------|--------|--------|--------|
F|--------|--------|--------|--------|--------|--------|--------|--------|--------|
C|--------|--------|--------|--------|--------|--------|--------|--------|--------|
G|--------|--------|--------|--------|--------|--------|--------|--------|--------|
C|--------|--------|--------|--------|--------|--------|--------|--------|--------|


D|--------|--------|--------|--------|--------|--------|--------|--------|--------|
A|--------|--------|--------|--------|--------|--------|--------|--------|--------|
F|--------|--------|--------|--------|--------|--------|--------|--------|--------|
C|--------|--------|--------|--------|--------|--------|--------|--------|--------|
G|--------|--------|--------|--------|--------|--------|--------|--------|--------|
C|--------|--------|--------|--------|--------|--------|--------|--------|--------|


D|--------|--------|--------|--------|--------|--------|--------|--------|--------|
A|--------|--------|--------|--------|--------|--------|--------|--------|--------|
F|--------|--------|--------|--------|--------|--------|--------|--------|--------|
C|--------|--------|--------|--------|--------|--------|--------|--------|--------|
G|--------|--------|--------|--------|--------|--------|--------|--------|--------|
C|--------|--------|--------|--------|--------|--------|--------|--------|--------|


D|--------|--------|--------|--------|--------|--------|--------|--------|--------|
A|--------|--------|--------|--------|--------|--------|--------|--------|--------|
F|--------|--------|--------|--------|--------|--------|--------|--------|--------|
C|--------|--------|--------|--------|--------|--------|--------|--------|--------|
G|--------|--------|--------|--------|--------|--------|--------|--------|--------|
C|--------|--------|--------|--------|--------|--------|--------|--------|--------|


D|--------|--------|--------|--------|--------|--------|--------|--------|--------|
A|--------|--------|--------|--------|--------|--------|--------|--------|--------|
F|--------|--------|--------|--------|--------|--------|--------|--------|--------|
C|--------|--------|--------|--------|--------|--------|--------|--------|--------|
G|--------|--------|--------|--------|--------|--------|--------|--------|--------|
C|--------|--------|--------|--------|--------|--------|--------|--------|--------|


D|--------|--------|--------|--------|--------|--------|--------|--------|--------|
A|--------|--------|--------|--------|--------|--------|--------|--------|--------|
F|--------|--------|--------|--------|--------|--------|--------|--------|--------|
C|--------|--------|--------|--------|--------|--------|--------|--------|--------|
G|--------|--------|--------|--------|--------|--------|--------|--------|--------|
C|--------|--------|--------|--------|--------|--------|--------|--------|--------|


D|--------|--------|--------|--------|--------|--------|--------|--------|--------|
A|--------|--------|--------|--------|--------|--------|--------|--------|--------|
F|--------|--------|--------|--------|--------|--------|--------|--------|--------|
C|--------|--------|--------|--------|--------|--------|--------|--------|--------|
G|--------|--------|--------|--------|--------|--------|--------|--------|--------|
C|--------|--------|--------|--------|--------|--------|--------|--------|--------|


D|--------|--------|--------|--------|--------|--------|--------|--------|--------|
A|--------|--------|--------|--------|--------|--------|--------|--------|--------|
F|--------|--------|--------|--------|--------|--------|--------|--------|--------|
C|--------|--------|--------|--------|--------|--------|--------|--------|--------|
G|--------|--------|--------|--------|--------|--------|--------|--------|--------|
C|--------|--------|--------|--------|--------|--------|--------|--------|--------|


D|--------|--------|--------|--------|--------|--------|--------|--------|--------|
A|--------|--------|--------|--------|--------|--------|--------|--------|--------|
F|--------|--------|--------|--------|--------|--------|--------|--------|--------|
C|--------|--------|--------|--------|--------|--------|--------|--------|--------|
G|--------|--------|--------|--------|--------|--------|--------|--------|--------|
C|--------|--------|--------|--------|--------|--------|--------|--------|--------|


D|--------|--------|--------|--------|--------|--------|--------|--------|--------|
A|--------|--------|--------|--------|--------|--------|--------|--------|--------|
F|--------|--------|--------|--------|--------|--------|--------|--------|--------|
C|--------|--------|--------|--------|--------|--------|--------|--------|--------|
G|--------|--------|--------|--------|--------|--------|--------|--------|--------|
C|--------|--------|--------|--------|--------|--------|--------|--------|--------|


D|--------|--------|--------|--------|--------|--------|--------|--------|--------|
A|--------|--------|--------|--------|--------|--------|--------|--------|--------|
F|--------|--------|--------|--------|--------|--------|--------|--------|--------|
C|--------|--------|--------|--------|--------|--------|--------|--------|--------|
G|--------|--------|--------|--------|--------|--------|--------|--------|--------|
C|--------|--------|--------|--------|--------|--------|--------|--------|--------|


D|------------------------|----------------------------|---------------------------------|
A|------------------------|----------------------------|---------------------------------|
F|------------------------|----------------------------|---------------------------------|
C|------------------------|----------------------------|---------------------------------|
G|-0--0--0--0-------------|---------0--0--0--0---------|-0--0--0--0----0--0--0--0--------|
C|-0--0--0--0-------------|---------0--0--0--0---------|-0--0--0--0----0--0--0--0--------|


D|------------------|------------------|-------------|--------|--------|--------|-------------|
A|------------------|------------------|-------------|--------|--------|--------|-------------|
F|-------10---------|------------------|-------------|--------|--------|--------|-------------|
C|-------------8----|-0-----10----12---|-------------|--------|--------|-3------|-------------|
G|-7----------------|------------------|-0-----------|--------|--------|-1------|-0-----------|
C|------------------|------------------|-0-----------|--------|--------|--------|-0-----------|


D|--------|-10-----|-13--12--13--15--13--------------|---------------------------------|
A|--------|-10-----|---------------------15----------|---------------------------------|
F|--------|--------|-------------------------14------|---------------------------------|
C|--------|--------|-----------------------------12--|-2---3-------------------2---3---|
G|--------|--------|---------------------------------|---------------------------------|
C|--------|--------|---------------------------------|---------0---0---0---0-----------|


D|-----------------------------------|---------------------------------|---------------------------------|
A|-----------------------------------|---------------------------------|---------------------------------|
F|-----------------------------------|---------------------------------|---------2-------0---2---0-------|
C|-7--5--7-------------------8-------|-----7-------5-------7-----------|-----------------------------3---|
G|-----------------------------------|-----------------------------8---|-1---1-------1-------------------|
C|-----------0---0---0---0-------0---|-0-------0-------0-------0-------|---------------------------------|


D|---------------------------------|-----------------------------------|---------------------------------|
A|---------------------------------|-----------------------------------|---------------------------------|
F|---------------------------------|-----------------------------------|---------------------------------|
C|-2---3-------------------2---3---|-7--5--7-------------------8-------|-----7-------5-------7-----------|
G|---------------------------------|-----------------------------------|-----------------------------8---|
C|---------0---0---0---0-----------|-----------0---0---0---0-------0---|-0-------0-------0-------0-------|


D|---------------------------------|---------------------------------|-----------------------------------|
A|---------------------------------|---------------------------------|-----------------------------------|
F|---------2-------0---2---0-------|---------------------------------|-----------------------------------|
C|-----------------------------3---|-2---3-------------------2---3---|-7--5--7-------------------8-------|
G|-1---1-------1-------------------|---------------------------------|-----------------------------------|
C|---------------------------------|---------0---0---0---0-----------|-----------0---0---0---0-------0---|


D|---------------------------------|---------------------------------|---------------------------------|
A|---------------------------------|---------------------------------|---------------------------------|
F|---------------------------------|---------2-------0---2---0-------|---------------------------------|
C|-----7-------5-------7-----------|-----------------------------3---|-2---3-------------------2---3---|
G|-----------------------------8---|-1---1-------1-------------------|---------------------------------|
C|-0-------0-------0-------0-------|---------------------------------|---------0---0---0---0-----------|


D|-----------------------------------|---------------------------------|---------------------------------|
A|-----------------------------------|---------------------------------|---------------------------------|
F|-----------------------------------|---------------------------------|---------2-------0---2---0-------|
C|-7--5--7-------------------8-------|-----7-------5-------7-----------|-----------------------------3---|
G|-----------------------------------|-----------------------------8---|-1---1-------1-------------------|
C|-----------0---0---0---0-------0---|-0-------0-------0-------0-------|---------------------------------|


D|---------------------------------|-----10--------------------------|---------------------------------|
A|---------------------------------|-11------10----------------------|-----------------13--11--10--11--|
F|-9---10--10--10--10--10--9---10--|-------------12--9---10--10--10--|-10--10--9---10------------------|
C|---------------------------------|---------------------------------|---------------------------------|
G|---------------------------------|---------------------------------|---------------------------------|
C|---------------------------------|---------------------------------|---------------------------------|


D|---------------------------------|-----13--10----------------------|---------------------------------|
A|---------------------------------|-11----------10------------------|---------------------------------|
F|-9---10--10--10--10--10--9---10--|-----------------9---10--10--10--|-10--10--9---10--9---9---7---9---|
C|---------------------------------|---------------------------------|---------------------------------|
G|---------------------------------|---------------------------------|---------------------------------|
C|---------------------------------|---------------------------------|---------------------------------|


D|---------------------------------|-----10--------------------------|---------------------------------|
A|---------------------------------|-11------10----------------------|-----------------13--11--10--11--|
F|-9---10--10--10--10--10--9---10--|-------------12--9---10--10--10--|-10--10--9---10------------------|
C|---------------------------------|---------------------------------|---------------------------------|
G|---------------------------------|---------------------------------|---------------------------------|
C|---------------------------------|---------------------------------|---------------------------------|


D|---------------------------------|-----13--10----------------------|---------------------------------|
A|---------------------------------|-11----------10------------------|---------------------------------|
F|-9---10--10--10--10--10--9---10--|-----------------9---10--10--10--|-10--10--9---10--9---9---7---9---|
C|---------------------------------|---------------------------------|---------------------------------|
G|---------------------------------|---------------------------------|---------------------------------|
C|---------------------------------|---------------------------------|---------------------------------|


D|-------------|-------------------|---------------------------|-8--10-8------------------------|
A|-------------|-------------------|-8---8---10---10--10--11---|-----------11--8---10--8--------|
F|-------------|-------------------|---------------------------|---------------------------10---|
C|-------------|-------------------|---------------------------|--------------------------------|
G|-0-----------|-0-----0-----0-----|---------------------------|--------------------------------|
C|-0-----------|-0-----0-----0-----|---------------------------|--------------------------------|


D|-------------|--------|-------------|--------|-------------|--------|------------------|
A|-------------|--------|-------------|--------|-------------|--------|------------------|
F|-------------|--------|-------------|--------|-------------|--------|------------------|
C|-------------|--------|-------------|--------|-------------|--------|-------12---------|
G|-0-----------|-0------|-8-----------|-8------|-0-----------|-0------|-10----------10---|
C|-0-----------|-0------|-8-----------|-8------|-0-----------|-0------|-10---------------|


D|------------------|-------------|--------|-----------------------------------|-----------------------------------|
A|------------------|-------------|--------|-----------------------------------|-----------------------------------|
F|------------------|-------------|--------|-----------------------------------|-----------------------------------|
C|------------------|-------------|--------|-----------------------------------|-------------------0---2-----------|
G|-8-----12----13---|-0-----------|-0------|-----------7-------8-------10--8---|-0---0---0--0--0-----------3---0---|
C|-8----------------|-0-----------|-0------|-5--5--5-------5-------5-----------|-----------------------------------|


D|--------|--------|--------|--------|--------|--------|--------|--------|--------|
A|--------|--------|--------|--------|--------|--------|--------|--------|--------|
F|--------|--------|--------|--------|--------|--------|--------|--------|--------|
C|--------|--------|--------|--------|--------|--------|--------|--------|--------|
G|--------|--------|--------|--------|--------|--------|--------|--------|--------|
C|--------|--------|--------|--------|--------|--------|--------|--------|--------|


D|--------|--------|--------|--------|--------|--------|--------|--------|--------|
A|--------|--------|--------|--------|--------|--------|--------|--------|--------|
F|--------|--------|--------|--------|--------|--------|--------|--------|--------|
C|--------|--------|--------|--------|--------|--------|--------|--------|--------|
G|--------|--------|--------|--------|--------|--------|--------|--------|--------|
C|--------|--------|--------|--------|--------|--------|--------|--------|--------|


D|--------|--------|--------|--------|--------|--------|--------|--------|--------|
A|--------|--------|--------|--------|--------|--------|--------|--------|--------|
F|--------|--------|--------|--------|--------|--------|--------|--------|--------|
C|--------|--------|--------|--------|--------|--------|--------|--------|--------|
G|--------|--------|--------|--------|--------|--------|--------|--------|--------|
C|--------|--------|--------|--------|--------|--------|--------|--------|--------|


D|--------|--------|--------|--------|--------|------------------------------|---------------------------------|
A|--------|--------|--------|--------|--------|------------------------------|---------------------------------|
F|--------|--------|--------|--------|--------|----------14--0---15--0---14--|-0---12--0---14--0---10--0---12--|
C|--------|--------|--------|--------|--------|-12---12----------------------|---------------------------------|
G|--------|--------|--------|--------|--------|------------------------------|---------------------------------|
C|--------|--------|--------|--------|--------|------------------------------|---------------------------------|


D|---------10---10----|--------|------------------------------|---------------------------------|
A|--------------------|--------|------------------------------|---------------------------------|
F|-9---10-------------|--------|----------14--0---15--0---14--|-0---12--0---14--0---10--0---12--|
C|--------------------|--------|-12---12----------------------|---------------------------------|
G|--------------------|--------|------------------------------|---------------------------------|
C|--------------------|--------|------------------------------|---------------------------------|


D|---------10---10----|--------|------------------------------|---------------------------------|
A|--------------------|--------|------------------------------|---------------------------------|
F|-9---10-------------|--------|----------14--0---15--0---14--|-0---12--0---14--0---10--0---12--|
C|--------------------|--------|-12---12----------------------|---------------------------------|
G|--------------------|--------|------------------------------|---------------------------------|
C|--------------------|--------|------------------------------|---------------------------------|


D|--------------------|--------|------------------------------|---------------------------------|
A|---------11---11----|--------|------------------------------|---------------------------------|
F|-9---10-------------|--------|----------14--0---15--0---14--|-0---12--0---14--0---10--0---12--|
C|--------------------|--------|-12---12----------------------|---------------------------------|
G|--------------------|--------|------------------------------|---------------------------------|
C|--------------------|--------|------------------------------|---------------------------------|


D|--------------------|--------|------------------------------|---------------------------------|
A|---------13---13----|--------|------------------------------|---------------------------------|
F|-9---10-------------|--------|----------14--0---15--0---14--|-0---12--0---14--0---10--0---12--|
C|--------------------|--------|-12---12----------------------|---------------------------------|
G|--------------------|--------|------------------------------|---------------------------------|
C|--------------------|--------|------------------------------|---------------------------------|


D|---------10---10----|--------|------------------------------|---------------------------------|
A|--------------------|--------|------------------------------|---------------------------------|
F|-9---10-------------|--------|----------14--0---15--0---14--|-0---12--0---14--0---10--0---12--|
C|--------------------|--------|-12---12----------------------|---------------------------------|
G|--------------------|--------|------------------------------|---------------------------------|
C|--------------------|--------|------------------------------|---------------------------------|


D|---------10---10----|--------|------------------------------|---------------------------------|
A|--------------------|--------|------------------------------|---------------------------------|
F|-9---10-------------|--------|----------14--0---15--0---14--|-0---12--0---14--0---10--0---12--|
C|--------------------|--------|-12---12----------------------|---------------------------------|
G|--------------------|--------|------------------------------|---------------------------------|
C|--------------------|--------|------------------------------|---------------------------------|


D|--------------------|--------|------------------------------|---------------------------------|
A|---------11---11----|--------|------------------------------|---------------------------------|
F|-9---10-------------|--------|----------14--0---15--0---14--|-0---12--0---14--0---10--0---12--|
C|--------------------|--------|-12---12----------------------|---------------------------------|
G|--------------------|--------|------------------------------|---------------------------------|
C|--------------------|--------|------------------------------|---------------------------------|


D|--------------------|--------|------------------------------|------------------------------|
A|---------13---13----|--------|------------------------------|------------------------------|
F|-9---10-------------|--------|------------------------------|------------------------------|
C|--------------------|--------|------------------------------|------------------------------|
G|--------------------|--------|-12--0---10--0---12--0---13---|------15--0---13--0---12--0---|
C|--------------------|--------|-0---0---0---0---0---0---0----|------0---0---0---0---0---0---|


D|-----------------|--------|--------|--------|--------|--------|--------|--------|
A|-----------------|--------|--------|--------|--------|--------|--------|--------|
F|-----------------|--------|--------|--------|--------|--------|--------|--------|
C|-----------------|--------|--------|--------|--------|--------|--------|--------|
G|-0----0----0-----|--------|--------|--------|--------|--------|--------|--------|
C|-0----0----0-----|--------|--------|--------|--------|--------|--------|--------|


D|--------|--------|--------|--------|--------|--------|--------|--------|--------|
A|--------|--------|--------|--------|--------|--------|--------|--------|--------|
F|--------|--------|--------|--------|--------|--------|--------|--------|--------|
C|--------|--------|--------|--------|--------|--------|--------|--------|--------|
G|--------|--------|--------|--------|--------|--------|--------|--------|--------|
C|--------|--------|--------|--------|--------|--------|--------|--------|--------|


D|--------|--------|--------|--------|--------|--------|--------|--------|--------|
A|--------|--------|--------|--------|--------|--------|--------|--------|--------|
F|--------|--------|--------|--------|--------|--------|--------|--------|--------|
C|--------|--------|--------|--------|--------|--------|--------|--------|--------|
G|--------|--------|--------|--------|--------|--------|--------|--------|--------|
C|--------|--------|--------|--------|--------|--------|--------|--------|--------|


D|--------|--------|--------|--------|--------|--------|--------|--------|--------|
A|--------|--------|--------|--------|--------|--------|--------|--------|--------|
F|--------|--------|--------|--------|--------|--------|--------|--------|--------|
C|--------|--------|--------|--------|--------|--------|--------|--------|--------|
G|--------|--------|--------|--------|--------|--------|--------|--------|--------|
C|--------|--------|--------|--------|--------|--------|--------|--------|--------|


D|--------|--------|
A|--------|--------|
F|--------|--------|
C|--------|--------|
G|--------|--------|
C|--------|--------|





Track 3: Bass

F|-------------|----------------|-------------|-------------|-------------|----------------|
C|-------------|----------------|-------------|-------------|-------------|----------------|
G|-------------|----------------|-------------|-------------|-------------|--------8---7---|
C|-0-----------|--------5---7---|-8-----------|-8-----7-----|-0-----------|----------------|


F|--------------------|-------------|-------------|-----------------------|---------------------------------|
C|--------------------|-------------|-------------|-----------------------|---------------------------------|
G|------------8---7---|-------------|-------------|-----------------------|-----------------7---7---7---7---|
C|-10-----------------|-8-----5-----|-0-----------|-------10--8---7---8---|-5---5---5---5-------------------|


F|---------------------------------|--------|--------|--------|--------|--------|--------|
C|---------------------------------|--------|--------|--------|--------|--------|--------|
G|---------------------------------|--------|--------|--------|--------|--------|--------|
C|-7---7---7---7---2---3---2---3---|--------|--------|--------|--------|--------|--------|


F|--------|--------|--------|--------|--------|--------|--------|--------|--------|
C|--------|--------|--------|--------|--------|--------|--------|--------|--------|
G|--------|--------|--------|--------|--------|--------|--------|--------|--------|
C|--------|--------|--------|--------|--------|--------|--------|--------|--------|


F|--------|--------|--------|--------|--------|--------|--------|--------|--------|
C|--------|--------|--------|--------|--------|--------|--------|--------|--------|
G|--------|--------|--------|--------|--------|--------|--------|--------|--------|
C|--------|--------|--------|--------|--------|--------|--------|--------|--------|


F|--------|--------|--------|--------|--------|--------|--------|--------|--------|
C|--------|--------|--------|--------|--------|--------|--------|--------|--------|
G|--------|--------|--------|--------|--------|--------|--------|--------|--------|
C|--------|--------|--------|--------|--------|--------|--------|--------|--------|


F|--------|--------|--------|--------|--------|--------|--------|--------|--------|
C|--------|--------|--------|--------|--------|--------|--------|--------|--------|
G|--------|--------|--------|--------|--------|--------|--------|--------|--------|
C|--------|--------|--------|--------|--------|--------|--------|--------|--------|


F|--------|--------|--------|--------|--------|--------|--------|-----------------------------------------|
C|--------|--------|--------|--------|--------|--------|--------|-----------------------------------------|
G|--------|--------|--------|--------|--------|--------|--------|-5-------------------------5---------5---|
C|--------|--------|--------|--------|--------|--------|--------|-----0---0---0---0---0--0------0--0------|


F|---------------------------|---------------------------|-----------------------------------------|
C|---------------------------|---------------------------|-----------------------------------------|
G|-------------------5---5---|---------------------------|-5-------------------------5---------5---|
C|-------0--0--0--0----------|------0---0---7---8---5----|-----0---0---0---0---0--0------0--0------|


F|---------------------------|---------------------------|-----------------------------------------|
C|---------------------------|---------------------------|-----------------------------------------|
G|-------------------5---5---|---------------------------|-5-------------------------5---------5---|
C|-------0--0--0--0----------|------0---0---7---8---5----|-----0---0---0---0---0--0------0--0------|


F|---------------------------|---------------------------|-----------------------------------------|
C|---------------------------|---------------------------|-----------------------------------------|
G|-------------------5---5---|---------------------------|-5-------------------------5---------5---|
C|-------0--0--0--0----------|------0---0---7---8---5----|-----0---0---0---0---0--0------0--0------|


F|---------------------------|---------------------------|--------|--------|--------|
C|---------------------------|---------------------------|--------|--------|--------|
G|-------------------5---5---|---------------------------|--------|--------|--------|
C|-------0--0--0--0----------|------0---0---7---8---5----|--------|--------|--------|


F|--------|--------|--------|--------|--------|--------|--------|--------|--------|
C|--------|--------|--------|--------|--------|--------|--------|--------|--------|
G|--------|--------|--------|--------|--------|--------|--------|--------|--------|
C|--------|--------|--------|--------|--------|--------|--------|--------|--------|


F|-------------------------------|-----------------|-----------------------|--------|
C|-------------------------------|-----------------|-----------------------|--------|
G|-------------------------------|-----------------|-----------------------|--------|
C|-0---0---0--0--0--0--0----0----|-0----0----8-----|-5---7---10----3---2---|--------|


F|--------|--------|--------|--------|--------|--------|--------|--------|--------|
C|--------|--------|--------|--------|--------|--------|--------|--------|--------|
G|--------|--------|--------|--------|--------|--------|--------|--------|--------|
C|--------|--------|--------|--------|--------|--------|--------|--------|--------|


F|--------|--------|--------|--------|--------|--------|--------|--------|--------|
C|--------|--------|--------|--------|--------|--------|--------|--------|--------|
G|--------|--------|--------|--------|--------|--------|--------|--------|--------|
C|--------|--------|--------|--------|--------|--------|--------|--------|--------|


F|--------|--------|--------|--------|--------|--------|--------|--------|--------|
C|--------|--------|--------|--------|--------|--------|--------|--------|--------|
G|--------|--------|--------|--------|--------|--------|--------|--------|--------|
C|--------|--------|--------|--------|--------|--------|--------|--------|--------|


F|--------|--------|--------|--------|--------|--------|--------|--------|--------|
C|--------|--------|--------|--------|--------|--------|--------|--------|--------|
G|--------|--------|--------|--------|--------|--------|--------|--------|--------|
C|--------|--------|--------|--------|--------|--------|--------|--------|--------|


F|--------|--------|--------|--------|--------|--------|--------|--------|--------|
C|--------|--------|--------|--------|--------|--------|--------|--------|--------|
G|--------|--------|--------|--------|--------|--------|--------|--------|--------|
C|--------|--------|--------|--------|--------|--------|--------|--------|--------|


F|--------|--------|--------|--------|--------|--------|--------|--------|--------|
C|--------|--------|--------|--------|--------|--------|--------|--------|--------|
G|--------|--------|--------|--------|--------|--------|--------|--------|--------|
C|--------|--------|--------|--------|--------|--------|--------|--------|--------|


F|--------|--------|--------|--------|--------|--------|--------|--------|--------|
C|--------|--------|--------|--------|--------|--------|--------|--------|--------|
G|--------|--------|--------|--------|--------|--------|--------|--------|--------|
C|--------|--------|--------|--------|--------|--------|--------|--------|--------|


F|--------|--------|--------|--------|--------|-------------|-----------------10-----------|
C|--------|--------|--------|--------|--------|-------------|---------12-----------12------|
G|--------|--------|--------|--------|--------|-------------|-----0-------0------------0---|
C|--------|--------|--------|--------|--------|-------0-----|-0----------------------------|


F|-9----12--10--9------------|------------------------------|------------------------|
C|------------------12-------|--------------7---------------|-8-------------8---7----|
G|---------------------------|----------8-------8-------8---|------8---10------------|
C|----------------------8----|------8---------------8-------|------------------------|


F|-----------------------|-10-----------9----12--10--|-9---------------------|------------------------------|
C|---------------12------|------12-------------------|-----12----------------|-7---------------8------------|
G|-----------0-------0---|----------0----------------|-------------------8---|-----8-------8--------8---10--|
C|-0-----0---------------|---------------------------|---------8-----8-------|---------8--------------------|


F|--------------------|------------------------------|---------------------------|
C|-----8---7----------|---------5-------7--------8---|---------------------------|
G|--------------------|-----5-------5--------5-------|-----8---7---5----7--------|
C|--------------5-----|-5----------------------------|----------------------8----|


F|---------------------------|---------------------------|-----------------------|
C|--------------8-------7----|----------7----------------|---------------5-------|
G|----------8-------8--------|-8---10-------8------------|-----------5-------5---|
C|------8--------------------|------------------10---12--|-5-----5---------------|


F|---------------------------|-----------------------|---------------------------|
C|-7--------8----------------|-----------------------|-8-------7-------------7---|
G|------5--------8---7---5---|-----7-------------8---|-----8--------8---10-------|
C|---------------------------|---------8-----8-------|---------------------------|


F|--------------------|-------------|-----------------|-------------|-------------|
C|--------------------|-------------|-----------------|-------------|-------------|
G|-8------------------|-------------|-----------------|-------------|-------------|
C|-----10---12--10----|-------10----|-------10---8----|--------8----|--------8----|


F|----------------|----------------|----------------|---------------------|----------------|
C|----------------|----------------|----------------|-----------15---14---|----------------|
G|----------------|----------------|----------------|------12-------------|----------------|
C|-8---8----------|-10--10---------|-12--12---------|-12------------------|-8---8----------|


F|----------------|----------------|---------------------|----------------|----------------|
C|----------------|----------------|-----------15---14---|----------------|----------------|
G|----------------|----------------|------12-------------|----------------|----------------|
C|-10--10---------|-12--12---------|-12------------------|-8---8----------|-10--10---------|


F|----------------|---------------------|----------------|----------------|----------------|
C|----------------|-----------15---14---|----------------|----------------|----------------|
G|----------------|------12-------------|----------------|----------------|----------------|
C|-12--12---------|-12------------------|-8---8----------|-10--10---------|-12--12---------|


F|---------------------|----------------|----------------|----------------|---------------------|
C|-----------15---14---|----------------|----------------|----------------|-----------15---14---|
G|------12-------------|----------------|----------------|----------------|------12-------------|
C|-12------------------|-8---8----------|-10--10---------|-12--12---------|-12------------------|


F|----------------|----------------|----------------|---------------------|---------------------------------|
C|----------------|----------------|----------------|-----------15---14---|---------------------------------|
G|----------------|----------------|----------------|------12-------------|---------8-------7-------7---8---|
C|-8---8----------|-10--10---------|-12--12---------|-12------------------|-8---8-------8-------8-----------|


F|---------------------------------|---------------------------------|-10--9-----------12--10--9-------|
C|---------------------------------|-----------------12----------12--|---------10--12--------------10--|
G|---------10------8-------8---10--|---------12----------12----------|---------------------------------|
C|-10--10------10------10----------|-12--12------12----------12------|---------------------------------|


F|---------------------------------|---------------------------------|---------------------------------|
C|---------------------------------|---------------------------------|-----------------12----------12--|
G|---------8-------7-------7---8---|---------10------8-------8---10--|---------12----------12----------|
C|-8---8-------8-------8-----------|-10--10------10------10----------|-12--12------12----------12------|


F|-10--9-----------12--10--9-------|---------------------------------|---------------------------------|
C|---------10--12--------------10--|---------------------------------|---------------------------------|
G|---------------------------------|---------8-------7-------7---8---|---------10------8-------8---10--|
C|---------------------------------|-8---8-------8-------8-----------|-10--10------10------10----------|


F|---------------------------------|-10--9-----------12--10--9-------|---------------------------------|
C|-----------------12----------12--|---------10--12--------------10--|---------------------------------|
G|---------12----------12----------|---------------------------------|---------8-------7-------7---8---|
C|-12--12------12----------12------|---------------------------------|-8---8-------8-------8-----------|


F|---------------------------------|---------------------------------|-10--9-----------12--10--9-------|
C|---------------------------------|-----------------12----------12--|---------10--12--------------10--|
G|---------10------8-------8---10--|---------12----------12----------|---------------------------------|
C|-10--10------10------10----------|-12--12------12----------12------|---------------------------------|


F|--------|--------|--------|--------|--------|--------|--------|--------|--------|
C|--------|--------|--------|--------|--------|--------|--------|--------|--------|
G|--------|--------|--------|--------|--------|--------|--------|--------|--------|
C|--------|--------|--------|--------|--------|--------|--------|--------|--------|


F|--------|--------|--------|--------|--------|--------|--------|--------|--------|
C|--------|--------|--------|--------|--------|--------|--------|--------|--------|
G|--------|--------|--------|--------|--------|--------|--------|--------|--------|
C|--------|--------|--------|--------|--------|--------|--------|--------|--------|


F|--------|--------|--------|--------|--------|--------|--------|--------|--------|
C|--------|--------|--------|--------|--------|--------|--------|--------|--------|
G|--------|--------|--------|--------|--------|--------|--------|--------|--------|
C|--------|--------|--------|--------|--------|--------|--------|--------|--------|


F|--------|--------|--------|--------|--------|--------|--------|--------|--------|
C|--------|--------|--------|--------|--------|--------|--------|--------|--------|
G|--------|--------|--------|--------|--------|--------|--------|--------|--------|
C|--------|--------|--------|--------|--------|--------|--------|--------|--------|


F|--------|--------|--------|--------|--------|--------|--------|--------|--------|
C|--------|--------|--------|--------|--------|--------|--------|--------|--------|
G|--------|--------|--------|--------|--------|--------|--------|--------|--------|
C|--------|--------|--------|--------|--------|--------|--------|--------|--------|


F|-------------|----------------|-------------|-------------|-------------|----------------|
C|-------------|----------------|-------------|-------------|-------------|----------------|
G|-------------|----------------|-------------|-------------|-------------|--------8---7---|
C|-0-----------|--------5---7---|-8-----------|-8-----7-----|-0-----------|----------------|


F|--------------------|-------------|-------------|-----------------------|---------------------------------|
C|--------------------|-------------|-------------|-----------------------|---------------------------------|
G|------------8---7---|-------------|-------------|-----------------------|-----------------7---7---7---7---|
C|-10-----------------|-8-----5-----|-0-----------|-------10--8---7---8---|-5---5---5---5-------------------|


F|---------------------------------|------------------------------|------------------------------|
C|---------------------------------|------------------------------|------------------------------|
G|---------------------------------|------------------------------|------------------------------|
C|-7---7---7---7---2---3---2---3---|-0---0---0---0---0---0---0----|------0---0---0---0---0---0---|


F|-----------------|--------|------------------------------|------------------------------|
C|-----------------|--------|------------------------------|------------------------------|
G|-----------------|--------|------------------------------|------------------------------|
C|-0----0----0-----|--------|-0---0---0---0---0---0---0----|------0---0---0---0---0---0---|


F|-----------------|--------|------------------------------|------------------------------|
C|-----------------|--------|------------------------------|------------------------------|
G|-----------------|--------|------------------------------|------------------------------|
C|-0----0----0-----|--------|-8---8---8---8---8---8---8----|------8---8---8---8---8---8---|


F|-----------------|--------|------------------------------|------------------------------|
C|-----------------|--------|------------------------------|------------------------------|
G|-----------------|--------|------------------------------|------------------------------|
C|-8----8----8-----|--------|-10--10--10--10--10--10--10---|------10--10--10--10--10--10--|


F|-----------------|--------|------------------------------|------------------------------|
C|-----------------|--------|------------------------------|------------------------------|
G|-----------------|--------|------------------------------|------------------------------|
C|-10---10---10----|--------|-0---0---0---0---0---0---0----|------0---0---0---0---0---0---|


F|-----------------|--------|------------------------------|------------------------------|
C|-----------------|--------|------------------------------|------------------------------|
G|-----------------|--------|------------------------------|------------------------------|
C|-0----0----0-----|--------|-0---0---0---0---0---0---0----|------0---0---0---0---0---0---|


F|-----------------|--------|------------------------------|------------------------------|
C|-----------------|--------|------------------------------|------------------------------|
G|-----------------|--------|------------------------------|------------------------------|
C|-0----0----0-----|--------|-8---8---8---8---8---8---8----|------8---8---8---8---8---8---|


F|-----------------|--------|------------------------------|------------------------------|
C|-----------------|--------|------------------------------|------------------------------|
G|-----------------|--------|------------------------------|------------------------------|
C|-8----8----8-----|--------|-10--10--10--10--10--10--10---|------10--10--10--10--10--10--|


F|-----------------|--------|------------------------------|------------------------------|
C|-----------------|--------|------------------------------|------------------------------|
G|-----------------|--------|------------------------------|------------------------------|
C|-10---10---10----|--------|-0---0---0---0---0---0---0----|------0---0---0---0---0---0---|


F|-----------------|--------|------------------------------|------------------------------|
C|-----------------|--------|------------------------------|------------------------------|
G|-----------------|--------|------------------------------|------------------------------|
C|-0----0----0-----|--------|-0---0---0---0---0---0---0----|------0---0---0---0---0---0---|


F|-----------------|--------|------------------------------|------------------------------|
C|-----------------|--------|------------------------------|------------------------------|
G|-----------------|--------|------------------------------|------------------------------|
C|-0----0----0-----|--------|-8---8---8---8---8---8---8----|------8---8---8---8---8---8---|


F|-----------------|--------|------------------------------|------------------------------|
C|-----------------|--------|------------------------------|------------------------------|
G|-----------------|--------|------------------------------|------------------------------|
C|-8----8----8-----|--------|-10--10--10--10--10--10--10---|------10--10--10--10--10--10--|


F|-----------------|--------|------------------------------|------------------------------|
C|-----------------|--------|------------------------------|------------------------------|
G|-----------------|--------|------------------------------|------------------------------|
C|-10---10---10----|--------|-0---0---0---0---0---0---0----|------0---0---0---0---0---0---|


F|-----------------|--------|------------------------------|------------------------------|
C|-----------------|--------|------------------------------|------------------------------|
G|-----------------|--------|------------------------------|------------------------------|
C|-0----0----0-----|--------|-0---0---0---0---0---0---0----|------0---0---0---0---0---0---|


F|-----------------|--------|------------------------------|------------------------------|
C|-----------------|--------|------------------------------|------------------------------|
G|-----------------|--------|------------------------------|------------------------------|
C|-0----0----0-----|--------|-8---8---8---8---8---8---8----|------8---8---8---8---8---8---|


F|-----------------|--------|------------------------------|------------------------------|
C|-----------------|--------|------------------------------|------------------------------|
G|-----------------|--------|------------------------------|------------------------------|
C|-8----8----8-----|--------|-10--10--10--10--10--10--10---|------10--10--10--10--10--10--|


F|-----------------|--------|------------------------------|------------------------------|
C|-----------------|--------|------------------------------|------------------------------|
G|-----------------|--------|------------------------------|------------------------------|
C|-10---10---10----|--------|-0---0---0---0---0---0---0----|------0---0---0---0---0---0---|


F|-----------------|--------|-----------------|--------|-----------------|--------|
C|-----------------|--------|-----------------|--------|-----------------|--------|
G|-----------------|--------|-----------------|--------|-----------------|--------|
C|-0----0----0-----|--------|-0----0----0-----|--------|-0----0----0-----|--------|


F|-----------------|--------|-----------------|--------|--------|--------|--------|
C|-----------------|--------|-----------------|--------|--------|--------|--------|
G|-----------------|--------|-----------------|--------|--------|--------|--------|
C|-0----0----0-----|--------|-0----0----0-----|--------|--------|--------|--------|


F|--------|--------|--------|--------|--------|--------|--------|--------|--------|
C|--------|--------|--------|--------|--------|--------|--------|--------|--------|
G|--------|--------|--------|--------|--------|--------|--------|--------|--------|
C|--------|--------|--------|--------|--------|--------|--------|--------|--------|


F|--------|--------|--------|--------|--------|--------|--------|--------|--------|
C|--------|--------|--------|--------|--------|--------|--------|--------|--------|
G|--------|--------|--------|--------|--------|--------|--------|--------|--------|
C|--------|--------|--------|--------|--------|--------|--------|--------|--------|


F|--------|--------|--------|--------|--------|--------|
C|--------|--------|--------|--------|--------|--------|
G|--------|--------|--------|--------|--------|--------|
C|--------|--------|--------|--------|--------|--------|





Track 4: Rythem

D|--------|--------|--------|--------|--------|--------|--------|--------|--------|
A|--------|--------|--------|--------|--------|--------|--------|--------|--------|
F|--------|--------|--------|--------|--------|--------|--------|--------|--------|
C|--------|--------|--------|--------|--------|--------|--------|--------|--------|
G|--------|--------|--------|--------|--------|--------|--------|--------|--------|
C|--------|--------|--------|--------|--------|--------|--------|--------|--------|


D|--------|--------|--------|---------------------------------|---------------------------------|
A|--------|--------|--------|---------------------------------|---------------------------------|
F|--------|--------|--------|---------------------------------|---------------------------------|
C|--------|--------|--------|-0---0---0---0---0---0---0---0---|-0---0---0---0---0---0---5---7---|
G|--------|--------|--------|---------------------------------|---------------------------------|
C|--------|--------|--------|---------------------------------|---------------------------------|


D|---------------------------------|---------------------------------|---------------------------------|
A|---------------------------------|---------------------------------|---------------------------------|
F|---------------------------------|---------------------------------|---------------------------------|
C|-8---8---8---8---10--10--10--10--|-8---8---8---8---7---7---7---7---|-0---0---0---0---0---0---0---0---|
G|---------------------------------|---------------------------------|---------------------------------|
C|---------------------------------|---------------------------------|---------------------------------|


D|---------------------------------|---------------------------------|---------------------------------|
A|---------------------------------|---------------------------------|---------------------------------|
F|-------------------------8---7---|-------------------------8---7---|---------------------------------|
C|-0---0---0---0---0---0-----------|-10--10--10--10--10--10----------|-8---8---8---8---5---5---5---5---|
G|---------------------------------|---------------------------------|---------------------------------|
C|---------------------------------|---------------------------------|---------------------------------|


D|---------------------------------|---------------------------------|---------------------------------|
A|---------------------------------|---------------------------------|---------------------------------|
F|---------------------------------|---------------------------------|-----------------7---7---7---7---|
C|-0---0---0---0---0---0---0---0---|-0---0---0---0---10--8---7---8---|-5---5---5---5-------------------|
G|---------------------------------|---------------------------------|---------------------------------|
C|---------------------------------|---------------------------------|---------------------------------|


D|---------------------------------|---------------------------------|---------------------------------|
A|-------------7-------------------|---------------------------------|---------------------------------|
F|-----------------10--8---7---5---|---------------------------------|-------------------------8---7---|
C|-7---7---7-----------------------|-0---0---0---0---0---0---0---0---|-0---0---0---0---0---0-----------|
G|---------------------------------|---------------------------------|---------------------------------|
C|---------------------------------|---------------------------------|---------------------------------|


D|---------------------------------|---------------------------------|---------------------------------|
A|---------------------------------|---------------------------------|---------------------------------|
F|-------------------------10--8---|---------------------------------|---------------------------------|
C|-8---8---8---8---8---8-----------|-10--10--10--10--7---7---7---7---|-0---0---0---0---0---0---0---0---|
G|---------------------------------|---------------------------------|---------------------------------|
C|---------------------------------|---------------------------------|---------------------------------|


D|---------------------------------|---------------------------------|---------------------------------|
A|---------------------------------|---------------------------------|---------------------------------|
F|---------------------------------|-------------------------8---7---|---------------------------------|
C|-0---0---0---0---0---0---5---7---|-8---8---8---8---8---8-----------|-7---7---7---7---7---7---7---7---|
G|---------------------------------|---------------------------------|---------------------------------|
C|---------------------------------|---------------------------------|---------------------------------|


D|---------------------------------|---------------------------------|---------------------------------|
A|---------------------------------|---------------------------------|---------------------------------|
F|---------------------------------|---------------------------------|-------------------------5---5---|
C|-0---0---0---0---0---0---0---0---|-0---0---0---0---0---0---8---7---|-5---5---5---5---5---5-----------|
G|---------------------------------|---------------------------------|---------------------------------|
C|---------------------------------|---------------------------------|---------------------------------|


D|---------------------------------|---------------------------------|---------------------------------|
A|---------------------------------|---------------------------------|---------------------------------|
F|---------------------------------|---------------------------------|---------------------------------|
C|-10--10--10--10--7---7---7---7---|-0---0---0---0---0---0---0---0---|-0---0---0---0---0---0---5---7---|
G|---------------------------------|---------------------------------|---------------------------------|
C|---------------------------------|---------------------------------|---------------------------------|


D|---------------------------------|---------------------------------|---------------------------------|
A|---------------------------------|---------------------------------|-----------------8---8---8---8---|
F|-------------------------8---7---|---------------------------------|---------------------------------|
C|-8---8---8---8---8---8-----------|-7---7---7---7---7---7---7---7---|-8---8---8---8-------------------|
G|---------------------------------|---------------------------------|---------------------------------|
C|---------------------------------|---------------------------------|---------------------------------|


D|---------------------------------|---------------------------------|---------------------------------|
A|-----------------7---8---7---5---|---------------------------------|---------------------------------|
F|---------------------------------|-----------------5---5---5---5---|---------------------------------|
C|-5---5---5---5-------------------|-0---0---0---0-------------------|-7---7---7---7---10--10--10--10--|
G|---------------------------------|---------------------------------|---------------------------------|
C|---------------------------------|---------------------------------|---------------------------------|


D|---------------------------------|---------------------------------|---------------------------------|
A|-----------------8---8---8---8---|-----------------7---8---7---5---|---------------------------------|
F|---------------------------------|---------------------------------|-----------------5---5---5---5---|
C|-8---8---8---8-------------------|-5---5---5---5-------------------|-0---0---0---0-------------------|
G|---------------------------------|---------------------------------|---------------------------------|
C|---------------------------------|---------------------------------|---------------------------------|


D|---------------------------------|---------------------------------|---------------------------------|
A|---------------------------------|-----------------8---8---8---8---|-----------------7---8---7---5---|
F|-3---3---3---3---0---0---0---0---|---------------------------------|---------------------------------|
C|---------------------------------|-8---8---8---8-------------------|-5---5---5---5-------------------|
G|---------------------------------|---------------------------------|---------------------------------|
C|---------------------------------|---------------------------------|---------------------------------|


D|---------------------------------|---------------------------------|---------------------------------|
A|---------------------------------|---------------------------------|-----------------8---8---8---8---|
F|-----------------5---5---5---5---|---------------------------------|---------------------------------|
C|-0---0---0---0-------------------|-7---7---7---7---10--10--10--10--|-8---8---8---8-------------------|
G|---------------------------------|---------------------------------|---------------------------------|
C|---------------------------------|---------------------------------|---------------------------------|


D|---------------------------------|---------------------------------|---------------------------------|
A|-----------------7---8---7---5---|---------------------------------|---------------------------------|
F|---------------------------------|-----------------5---5---5---5---|-3---3---3---3---0---0---0---0---|
C|-5---5---5---5-------------------|-0---0---0---0-------------------|---------------------------------|
G|---------------------------------|---------------------------------|---------------------------------|
C|---------------------------------|---------------------------------|---------------------------------|


D|---------------------------------|---------------------------------|---------------------------------|
A|---------------------------------|---------------------------------|---------------------------------|
F|---------------------------------|---------------------------------|---------------------------------|
C|-8---8---8---8---8---8---8---8---|-5---5---5---5---5---5---5---5---|-3---3---3---3---2---2---2---2---|
G|---------------------------------|---------------------------------|---------------------------------|
C|---------------------------------|---------------------------------|---------------------------------|


D|---------------------|---------------------|--------|--------|--------|--------|
A|---------------------|---------------------|--------|--------|--------|--------|
F|---------------------|---------------------|--------|--------|--------|--------|
C|-0----0----0----0----|-0----0----0----0----|--------|--------|--------|--------|
G|---------------------|---------------------|--------|--------|--------|--------|
C|---------------------|---------------------|--------|--------|--------|--------|


D|--------|--------|--------|--------|--------|--------|--------|--------|--------|
A|--------|--------|--------|--------|--------|--------|--------|--------|--------|
F|--------|--------|--------|--------|--------|--------|--------|--------|--------|
C|--------|--------|--------|--------|--------|--------|--------|--------|--------|
G|--------|--------|--------|--------|--------|--------|--------|--------|--------|
C|--------|--------|--------|--------|--------|--------|--------|--------|--------|


D|--------|--------|--------|--------|--------|--------|--------|--------|--------|
A|--------|--------|--------|--------|--------|--------|--------|--------|--------|
F|--------|--------|--------|--------|--------|--------|--------|--------|--------|
C|--------|--------|--------|--------|--------|--------|--------|--------|--------|
G|--------|--------|--------|--------|--------|--------|--------|--------|--------|
C|--------|--------|--------|--------|--------|--------|--------|--------|--------|


D|--------|--------|--------|--------|--------|--------|--------|--------|--------|
A|--------|--------|--------|--------|--------|--------|--------|--------|--------|
F|--------|--------|--------|--------|--------|--------|--------|--------|--------|
C|--------|--------|--------|--------|--------|--------|--------|--------|--------|
G|--------|--------|--------|--------|--------|--------|--------|--------|--------|
C|--------|--------|--------|--------|--------|--------|--------|--------|--------|


D|--------|--------|--------|--------|--------|--------|--------|--------|--------|
A|--------|--------|--------|--------|--------|--------|--------|--------|--------|
F|--------|--------|--------|--------|--------|--------|--------|--------|--------|
C|--------|--------|--------|--------|--------|--------|--------|--------|--------|
G|--------|--------|--------|--------|--------|--------|--------|--------|--------|
C|--------|--------|--------|--------|--------|--------|--------|--------|--------|


D|--------|--------|--------|--------|--------|--------|--------|--------|--------|
A|--------|--------|--------|--------|--------|--------|--------|--------|--------|
F|--------|--------|--------|--------|--------|--------|--------|--------|--------|
C|--------|--------|--------|--------|--------|--------|--------|--------|--------|
G|--------|--------|--------|--------|--------|--------|--------|--------|--------|
C|--------|--------|--------|--------|--------|--------|--------|--------|--------|


D|--------|--------|--------|--------|--------|--------|--------|--------|--------|
A|--------|--------|--------|--------|--------|--------|--------|--------|--------|
F|--------|--------|--------|--------|--------|--------|--------|--------|--------|
C|--------|--------|--------|--------|--------|--------|--------|--------|--------|
G|--------|--------|--------|--------|--------|--------|--------|--------|--------|
C|--------|--------|--------|--------|--------|--------|--------|--------|--------|


D|--------|--------|--------|--------|--------|--------|--------|--------|--------|
A|--------|--------|--------|--------|--------|--------|--------|--------|--------|
F|--------|--------|--------|--------|--------|--------|--------|--------|--------|
C|--------|--------|--------|--------|--------|--------|--------|--------|--------|
G|--------|--------|--------|--------|--------|--------|--------|--------|--------|
C|--------|--------|--------|--------|--------|--------|--------|--------|--------|


D|--------|--------|--------|--------|--------|--------|--------|--------|--------|
A|--------|--------|--------|--------|--------|--------|--------|--------|--------|
F|--------|--------|--------|--------|--------|--------|--------|--------|--------|
C|--------|--------|--------|--------|--------|--------|--------|--------|--------|
G|--------|--------|--------|--------|--------|--------|--------|--------|--------|
C|--------|--------|--------|--------|--------|--------|--------|--------|--------|


D|--------|--------|--------|--------|--------|--------|--------|--------|--------|
A|--------|--------|--------|--------|--------|--------|--------|--------|--------|
F|--------|--------|--------|--------|--------|--------|--------|--------|--------|
C|--------|--------|--------|--------|--------|--------|--------|--------|--------|
G|--------|--------|--------|--------|--------|--------|--------|--------|--------|
C|--------|--------|--------|--------|--------|--------|--------|--------|--------|


D|--------|--------|--------|--------|--------|--------|--------|--------|--------|
A|--------|--------|--------|--------|--------|--------|--------|--------|--------|
F|--------|--------|--------|--------|--------|--------|--------|--------|--------|
C|--------|--------|--------|--------|--------|--------|--------|--------|--------|
G|--------|--------|--------|--------|--------|--------|--------|--------|--------|
C|--------|--------|--------|--------|--------|--------|--------|--------|--------|


D|--------|--------|--------|--------|--------|--------|--------|--------|--------|
A|--------|--------|--------|--------|--------|--------|--------|--------|--------|
F|--------|--------|--------|--------|--------|--------|--------|--------|--------|
C|--------|--------|--------|--------|--------|--------|--------|--------|--------|
G|--------|--------|--------|--------|--------|--------|--------|--------|--------|
C|--------|--------|--------|--------|--------|--------|--------|--------|--------|


D|--------|--------|--------|--------|--------|--------|--------|--------|--------|
A|--------|--------|--------|--------|--------|--------|--------|--------|--------|
F|--------|--------|--------|--------|--------|--------|--------|--------|--------|
C|--------|--------|--------|--------|--------|--------|--------|--------|--------|
G|--------|--------|--------|--------|--------|--------|--------|--------|--------|
C|--------|--------|--------|--------|--------|--------|--------|--------|--------|


D|--------|--------|--------|--------|--------|--------|--------|--------|--------|
A|--------|--------|--------|--------|--------|--------|--------|--------|--------|
F|--------|--------|--------|--------|--------|--------|--------|--------|--------|
C|--------|--------|--------|--------|--------|--------|--------|--------|--------|
G|--------|--------|--------|--------|--------|--------|--------|--------|--------|
C|--------|--------|--------|--------|--------|--------|--------|--------|--------|


D|--------|--------|--------|--------|--------|--------|--------|--------|--------|
A|--------|--------|--------|--------|--------|--------|--------|--------|--------|
F|--------|--------|--------|--------|--------|--------|--------|--------|--------|
C|--------|--------|--------|--------|--------|--------|--------|--------|--------|
G|--------|--------|--------|--------|--------|--------|--------|--------|--------|
C|--------|--------|--------|--------|--------|--------|--------|--------|--------|


D|--------|--------|--------|--------|--------|--------|--------|--------|--------|
A|--------|--------|--------|--------|--------|--------|--------|--------|--------|
F|--------|--------|--------|--------|--------|--------|--------|--------|--------|
C|--------|--------|--------|--------|--------|--------|--------|--------|--------|
G|--------|--------|--------|--------|--------|--------|--------|--------|--------|
C|--------|--------|--------|--------|--------|--------|--------|--------|--------|


D|--------|--------|--------|--------|--------|--------|--------|--------|--------|
A|--------|--------|--------|--------|--------|--------|--------|--------|--------|
F|--------|--------|--------|--------|--------|--------|--------|--------|--------|
C|--------|--------|--------|--------|--------|--------|--------|--------|--------|
G|--------|--------|--------|--------|--------|--------|--------|--------|--------|
C|--------|--------|--------|--------|--------|--------|--------|--------|--------|


D|--------|--------|--------|--------|--------|--------|--------|--------|--------|
A|--------|--------|--------|--------|--------|--------|--------|--------|--------|
F|--------|--------|--------|--------|--------|--------|--------|--------|--------|
C|--------|--------|--------|--------|--------|--------|--------|--------|--------|
G|--------|--------|--------|--------|--------|--------|--------|--------|--------|
C|--------|--------|--------|--------|--------|--------|--------|--------|--------|


D|--------|--------|--------|--------|--------|--------|--------|--------|--------|
A|--------|--------|--------|--------|--------|--------|--------|--------|--------|
F|--------|--------|--------|--------|--------|--------|--------|--------|--------|
C|--------|--------|--------|--------|--------|--------|--------|--------|--------|
G|--------|--------|--------|--------|--------|--------|--------|--------|--------|
C|--------|--------|--------|--------|--------|--------|--------|--------|--------|


D|--------|--------|--------|--------|--------|--------|--------|--------|--------|
A|--------|--------|--------|--------|--------|--------|--------|--------|--------|
F|--------|--------|--------|--------|--------|--------|--------|--------|--------|
C|--------|--------|--------|--------|--------|--------|--------|--------|--------|
G|--------|--------|--------|--------|--------|--------|--------|--------|--------|
C|--------|--------|--------|--------|--------|--------|--------|--------|--------|


D|--------|--------|--------|--------|--------|--------|--------|--------|--------|
A|--------|--------|--------|--------|--------|--------|--------|--------|--------|
F|--------|--------|--------|--------|--------|--------|--------|--------|--------|
C|--------|--------|--------|--------|--------|--------|--------|--------|--------|
G|--------|--------|--------|--------|--------|--------|--------|--------|--------|
C|--------|--------|--------|--------|--------|--------|--------|--------|--------|


D|--------|--------|--------|--------|--------|--------|--------|--------|--------|
A|--------|--------|--------|--------|--------|--------|--------|--------|--------|
F|--------|--------|--------|--------|--------|--------|--------|--------|--------|
C|--------|--------|--------|--------|--------|--------|--------|--------|--------|
G|--------|--------|--------|--------|--------|--------|--------|--------|--------|
C|--------|--------|--------|--------|--------|--------|--------|--------|--------|


D|--------|--------|--------|--------|--------|--------|--------|--------|--------|
A|--------|--------|--------|--------|--------|--------|--------|--------|--------|
F|--------|--------|--------|--------|--------|--------|--------|--------|--------|
C|--------|--------|--------|--------|--------|--------|--------|--------|--------|
G|--------|--------|--------|--------|--------|--------|--------|--------|--------|
C|--------|--------|--------|--------|--------|--------|--------|--------|--------|


D|--------|--------|--------|--------|--------|--------|--------|--------|--------|
A|--------|--------|--------|--------|--------|--------|--------|--------|--------|
F|--------|--------|--------|--------|--------|--------|--------|--------|--------|
C|--------|--------|--------|--------|--------|--------|--------|--------|--------|
G|--------|--------|--------|--------|--------|--------|--------|--------|--------|
C|--------|--------|--------|--------|--------|--------|--------|--------|--------|


D|--------|--------|--------|--------|--------|--------|--------|--------|--------|
A|--------|--------|--------|--------|--------|--------|--------|--------|--------|
F|--------|--------|--------|--------|--------|--------|--------|--------|--------|
C|--------|--------|--------|--------|--------|--------|--------|--------|--------|
G|--------|--------|--------|--------|--------|--------|--------|--------|--------|
C|--------|--------|--------|--------|--------|--------|--------|--------|--------|


D|--------|--------|--------|--------|--------|--------|--------|--------|--------|
A|--------|--------|--------|--------|--------|--------|--------|--------|--------|
F|--------|--------|--------|--------|--------|--------|--------|--------|--------|
C|--------|--------|--------|--------|--------|--------|--------|--------|--------|
G|--------|--------|--------|--------|--------|--------|--------|--------|--------|
C|--------|--------|--------|--------|--------|--------|--------|--------|--------|


D|--------|--------|--------|--------|--------|--------|--------|--------|--------|
A|--------|--------|--------|--------|--------|--------|--------|--------|--------|
F|--------|--------|--------|--------|--------|--------|--------|--------|--------|
C|--------|--------|--------|--------|--------|--------|--------|--------|--------|
G|--------|--------|--------|--------|--------|--------|--------|--------|--------|
C|--------|--------|--------|--------|--------|--------|--------|--------|--------|


D|--------|--------|--------|--------|--------|--------|--------|--------|--------|
A|--------|--------|--------|--------|--------|--------|--------|--------|--------|
F|--------|--------|--------|--------|--------|--------|--------|--------|--------|
C|--------|--------|--------|--------|--------|--------|--------|--------|--------|
G|--------|--------|--------|--------|--------|--------|--------|--------|--------|
C|--------|--------|--------|--------|--------|--------|--------|--------|--------|


D|--------|--------|--------|--------|--------|--------|--------|--------|--------|
A|--------|--------|--------|--------|--------|--------|--------|--------|--------|
F|--------|--------|--------|--------|--------|--------|--------|--------|--------|
C|--------|--------|--------|--------|--------|--------|--------|--------|--------|
G|--------|--------|--------|--------|--------|--------|--------|--------|--------|
C|--------|--------|--------|--------|--------|--------|--------|--------|--------|


D|--------|--------|--------|--------|--------|--------|--------|--------|--------|
A|--------|--------|--------|--------|--------|--------|--------|--------|--------|
F|--------|--------|--------|--------|--------|--------|--------|--------|--------|
C|--------|--------|--------|--------|--------|--------|--------|--------|--------|
G|--------|--------|--------|--------|--------|--------|--------|--------|--------|
C|--------|--------|--------|--------|--------|--------|--------|--------|--------|


D|--------|--------|--------|--------|--------|--------|--------|--------|--------|
A|--------|--------|--------|--------|--------|--------|--------|--------|--------|
F|--------|--------|--------|--------|--------|--------|--------|--------|--------|
C|--------|--------|--------|--------|--------|--------|--------|--------|--------|
G|--------|--------|--------|--------|--------|--------|--------|--------|--------|
C|--------|--------|--------|--------|--------|--------|--------|--------|--------|


D|--------|--------|--------|--------|--------|--------|--------|--------|--------|
A|--------|--------|--------|--------|--------|--------|--------|--------|--------|
F|--------|--------|--------|--------|--------|--------|--------|--------|--------|
C|--------|--------|--------|--------|--------|--------|--------|--------|--------|
G|--------|--------|--------|--------|--------|--------|--------|--------|--------|
C|--------|--------|--------|--------|--------|--------|--------|--------|--------|


D|--------|--------|--------|--------|--------|--------|--------|--------|--------|
A|--------|--------|--------|--------|--------|--------|--------|--------|--------|
F|--------|--------|--------|--------|--------|--------|--------|--------|--------|
C|--------|--------|--------|--------|--------|--------|--------|--------|--------|
G|--------|--------|--------|--------|--------|--------|--------|--------|--------|
C|--------|--------|--------|--------|--------|--------|--------|--------|--------|


D|--------|--------|--------|--------|--------|--------|--------|--------|--------|
A|--------|--------|--------|--------|--------|--------|--------|--------|--------|
F|--------|--------|--------|--------|--------|--------|--------|--------|--------|
C|--------|--------|--------|--------|--------|--------|--------|--------|--------|
G|--------|--------|--------|--------|--------|--------|--------|--------|--------|
C|--------|--------|--------|--------|--------|--------|--------|--------|--------|


D|--------|--------|--------|--------|--------|--------|--------|--------|--------|
A|--------|--------|--------|--------|--------|--------|--------|--------|--------|
F|--------|--------|--------|--------|--------|--------|--------|--------|--------|
C|--------|--------|--------|--------|--------|--------|--------|--------|--------|
G|--------|--------|--------|--------|--------|--------|--------|--------|--------|
C|--------|--------|--------|--------|--------|--------|--------|--------|--------|


D|--------|--------|--------|--------|--------|--------|--------|--------|--------|
A|--------|--------|--------|--------|--------|--------|--------|--------|--------|
F|--------|--------|--------|--------|--------|--------|--------|--------|--------|
C|--------|--------|--------|--------|--------|--------|--------|--------|--------|
G|--------|--------|--------|--------|--------|--------|--------|--------|--------|
C|--------|--------|--------|--------|--------|--------|--------|--------|--------|





Track 5: Rythem

D|--------|--------|--------|--------|--------|--------|--------|--------|--------|
A|--------|--------|--------|--------|--------|--------|--------|--------|--------|
F|--------|--------|--------|--------|--------|--------|--------|--------|--------|
C|--------|--------|--------|--------|--------|--------|--------|--------|--------|
G|--------|--------|--------|--------|--------|--------|--------|--------|--------|
C|--------|--------|--------|--------|--------|--------|--------|--------|--------|


D|--------|--------|--------|--------|--------|--------|--------|--------|--------|
A|--------|--------|--------|--------|--------|--------|--------|--------|--------|
F|--------|--------|--------|--------|--------|--------|--------|--------|--------|
C|--------|--------|--------|--------|--------|--------|--------|--------|--------|
G|--------|--------|--------|--------|--------|--------|--------|--------|--------|
C|--------|--------|--------|--------|--------|--------|--------|--------|--------|


D|--------|--------|--------|--------|--------|--------|--------|--------|--------|
A|--------|--------|--------|--------|--------|--------|--------|--------|--------|
F|--------|--------|--------|--------|--------|--------|--------|--------|--------|
C|--------|--------|--------|--------|--------|--------|--------|--------|--------|
G|--------|--------|--------|--------|--------|--------|--------|--------|--------|
C|--------|--------|--------|--------|--------|--------|--------|--------|--------|


D|--------|--------|--------|--------|--------|--------|--------|--------|--------|
A|--------|--------|--------|--------|--------|--------|--------|--------|--------|
F|--------|--------|--------|--------|--------|--------|--------|--------|--------|
C|--------|--------|--------|--------|--------|--------|--------|--------|--------|
G|--------|--------|--------|--------|--------|--------|--------|--------|--------|
C|--------|--------|--------|--------|--------|--------|--------|--------|--------|


D|--------|--------|--------|--------|--------|--------|--------|--------|--------|
A|--------|--------|--------|--------|--------|--------|--------|--------|--------|
F|--------|--------|--------|--------|--------|--------|--------|--------|--------|
C|--------|--------|--------|--------|--------|--------|--------|--------|--------|
G|--------|--------|--------|--------|--------|--------|--------|--------|--------|
C|--------|--------|--------|--------|--------|--------|--------|--------|--------|


D|--------|--------|--------|--------|--------|--------|--------|--------|--------|
A|--------|--------|--------|--------|--------|--------|--------|--------|--------|
F|--------|--------|--------|--------|--------|--------|--------|--------|--------|
C|--------|--------|--------|--------|--------|--------|--------|--------|--------|
G|--------|--------|--------|--------|--------|--------|--------|--------|--------|
C|--------|--------|--------|--------|--------|--------|--------|--------|--------|


D|--------|--------|--------|--------|--------|--------|--------|--------|--------|
A|--------|--------|--------|--------|--------|--------|--------|--------|--------|
F|--------|--------|--------|--------|--------|--------|--------|--------|--------|
C|--------|--------|--------|--------|--------|--------|--------|--------|--------|
G|--------|--------|--------|--------|--------|--------|--------|--------|--------|
C|--------|--------|--------|--------|--------|--------|--------|--------|--------|


D|--------|--------|--------|--------|--------|--------|--------|--------|--------|
A|--------|--------|--------|--------|--------|--------|--------|--------|--------|
F|--------|--------|--------|--------|--------|--------|--------|--------|--------|
C|--------|--------|--------|--------|--------|--------|--------|--------|--------|
G|--------|--------|--------|--------|--------|--------|--------|--------|--------|
C|--------|--------|--------|--------|--------|--------|--------|--------|--------|


D|--------|---------------------------------|---------------------------------|---------------------------------|
A|--------|---------------------------------|---------------------------------|---------------------------------|
F|--------|---------------------------------|---------------------------------|---------------------------------|
C|--------|-0---0---0---0---0---0---0---0---|-0---0---0---0---0---0---5---7---|-8---8---8---8---10--10--10--10--|
G|--------|---------------------------------|---------------------------------|---------------------------------|
C|--------|---------------------------------|---------------------------------|---------------------------------|


D|---------------------------------|---------------------------------|---------------------------------|
A|---------------------------------|---------------------------------|---------------------------------|
F|---------------------------------|---------------------------------|-------------------------8---7---|
C|-8---8---8---8---7---7---7---7---|-0---0---0---0---0---0---0---0---|-0---0---0---0---0---0-----------|
G|---------------------------------|---------------------------------|---------------------------------|
C|---------------------------------|---------------------------------|---------------------------------|


D|---------------------------------|---------------------------------|---------------------------------|
A|---------------------------------|---------------------------------|---------------------------------|
F|-------------------------8---7---|---------------------------------|---------------------------------|
C|-10--10--10--10--10--10----------|-8---8---8---8---5---5---5---5---|-0---0---0---0---0---0---0---0---|
G|---------------------------------|---------------------------------|---------------------------------|
C|---------------------------------|---------------------------------|---------------------------------|


D|---------------------------------|---------------------------------|---------------------------------|
A|---------------------------------|---------------------------------|-------------7-------------------|
F|---------------------------------|-----------------7---7---7---7---|-----------------10--8---7---5---|
C|-0---0---0---0---10--8---7---8---|-5---5---5---5-------------------|-7---7---7-----------------------|
G|---------------------------------|---------------------------------|---------------------------------|
C|---------------------------------|---------------------------------|---------------------------------|


D|--------|--------|--------|--------|--------|--------|--------|--------|--------|
A|--------|--------|--------|--------|--------|--------|--------|--------|--------|
F|--------|--------|--------|--------|--------|--------|--------|--------|--------|
C|--------|--------|--------|--------|--------|--------|--------|--------|--------|
G|--------|--------|--------|--------|--------|--------|--------|--------|--------|
C|--------|--------|--------|--------|--------|--------|--------|--------|--------|


D|--------|--------|--------|--------|--------|--------|--------|--------|--------|
A|--------|--------|--------|--------|--------|--------|--------|--------|--------|
F|--------|--------|--------|--------|--------|--------|--------|--------|--------|
C|--------|--------|--------|--------|--------|--------|--------|--------|--------|
G|--------|--------|--------|--------|--------|--------|--------|--------|--------|
C|--------|--------|--------|--------|--------|--------|--------|--------|--------|


D|--------|--------|--------|--------|--------|--------|--------|--------|--------|
A|--------|--------|--------|--------|--------|--------|--------|--------|--------|
F|--------|--------|--------|--------|--------|--------|--------|--------|--------|
C|--------|--------|--------|--------|--------|--------|--------|--------|--------|
G|--------|--------|--------|--------|--------|--------|--------|--------|--------|
C|--------|--------|--------|--------|--------|--------|--------|--------|--------|


D|--------|--------|--------|--------|--------|--------|--------|--------|--------|
A|--------|--------|--------|--------|--------|--------|--------|--------|--------|
F|--------|--------|--------|--------|--------|--------|--------|--------|--------|
C|--------|--------|--------|--------|--------|--------|--------|--------|--------|
G|--------|--------|--------|--------|--------|--------|--------|--------|--------|
C|--------|--------|--------|--------|--------|--------|--------|--------|--------|


D|--------|--------|--------|--------|--------|--------|--------|--------|--------|
A|--------|--------|--------|--------|--------|--------|--------|--------|--------|
F|--------|--------|--------|--------|--------|--------|--------|--------|--------|
C|--------|--------|--------|--------|--------|--------|--------|--------|--------|
G|--------|--------|--------|--------|--------|--------|--------|--------|--------|
C|--------|--------|--------|--------|--------|--------|--------|--------|--------|


D|--------|--------|--------|--------|--------|--------|--------|--------|--------|
A|--------|--------|--------|--------|--------|--------|--------|--------|--------|
F|--------|--------|--------|--------|--------|--------|--------|--------|--------|
C|--------|--------|--------|--------|--------|--------|--------|--------|--------|
G|--------|--------|--------|--------|--------|--------|--------|--------|--------|
C|--------|--------|--------|--------|--------|--------|--------|--------|--------|


D|--------|--------|--------|--------|--------|--------|--------|--------|--------|
A|--------|--------|--------|--------|--------|--------|--------|--------|--------|
F|--------|--------|--------|--------|--------|--------|--------|--------|--------|
C|--------|--------|--------|--------|--------|--------|--------|--------|--------|
G|--------|--------|--------|--------|--------|--------|--------|--------|--------|
C|--------|--------|--------|--------|--------|--------|--------|--------|--------|


D|--------|--------|--------|--------|--------|--------|--------|--------|--------|
A|--------|--------|--------|--------|--------|--------|--------|--------|--------|
F|--------|--------|--------|--------|--------|--------|--------|--------|--------|
C|--------|--------|--------|--------|--------|--------|--------|--------|--------|
G|--------|--------|--------|--------|--------|--------|--------|--------|--------|
C|--------|--------|--------|--------|--------|--------|--------|--------|--------|


D|--------|--------|--------|--------|--------|--------|--------|--------|--------|
A|--------|--------|--------|--------|--------|--------|--------|--------|--------|
F|--------|--------|--------|--------|--------|--------|--------|--------|--------|
C|--------|--------|--------|--------|--------|--------|--------|--------|--------|
G|--------|--------|--------|--------|--------|--------|--------|--------|--------|
C|--------|--------|--------|--------|--------|--------|--------|--------|--------|


D|--------|--------|--------|--------|--------|--------|--------|--------|--------|
A|--------|--------|--------|--------|--------|--------|--------|--------|--------|
F|--------|--------|--------|--------|--------|--------|--------|--------|--------|
C|--------|--------|--------|--------|--------|--------|--------|--------|--------|
G|--------|--------|--------|--------|--------|--------|--------|--------|--------|
C|--------|--------|--------|--------|--------|--------|--------|--------|--------|


D|--------|--------|--------|--------|--------|--------|--------|--------|--------|
A|--------|--------|--------|--------|--------|--------|--------|--------|--------|
F|--------|--------|--------|--------|--------|--------|--------|--------|--------|
C|--------|--------|--------|--------|--------|--------|--------|--------|--------|
G|--------|--------|--------|--------|--------|--------|--------|--------|--------|
C|--------|--------|--------|--------|--------|--------|--------|--------|--------|


D|--------|--------|--------|--------|--------|--------|--------|--------|--------|
A|--------|--------|--------|--------|--------|--------|--------|--------|--------|
F|--------|--------|--------|--------|--------|--------|--------|--------|--------|
C|--------|--------|--------|--------|--------|--------|--------|--------|--------|
G|--------|--------|--------|--------|--------|--------|--------|--------|--------|
C|--------|--------|--------|--------|--------|--------|--------|--------|--------|


D|--------|--------|--------|--------|--------|--------|--------|--------|--------|
A|--------|--------|--------|--------|--------|--------|--------|--------|--------|
F|--------|--------|--------|--------|--------|--------|--------|--------|--------|
C|--------|--------|--------|--------|--------|--------|--------|--------|--------|
G|--------|--------|--------|--------|--------|--------|--------|--------|--------|
C|--------|--------|--------|--------|--------|--------|--------|--------|--------|


D|--------|--------|--------|--------|--------|--------|--------|--------|--------|
A|--------|--------|--------|--------|--------|--------|--------|--------|--------|
F|--------|--------|--------|--------|--------|--------|--------|--------|--------|
C|--------|--------|--------|--------|--------|--------|--------|--------|--------|
G|--------|--------|--------|--------|--------|--------|--------|--------|--------|
C|--------|--------|--------|--------|--------|--------|--------|--------|--------|


D|--------|--------|--------|--------|--------|--------|--------|--------|--------|
A|--------|--------|--------|--------|--------|--------|--------|--------|--------|
F|--------|--------|--------|--------|--------|--------|--------|--------|--------|
C|--------|--------|--------|--------|--------|--------|--------|--------|--------|
G|--------|--------|--------|--------|--------|--------|--------|--------|--------|
C|--------|--------|--------|--------|--------|--------|--------|--------|--------|


D|--------|--------|--------|--------|--------|--------|--------|--------|--------|
A|--------|--------|--------|--------|--------|--------|--------|--------|--------|
F|--------|--------|--------|--------|--------|--------|--------|--------|--------|
C|--------|--------|--------|--------|--------|--------|--------|--------|--------|
G|--------|--------|--------|--------|--------|--------|--------|--------|--------|
C|--------|--------|--------|--------|--------|--------|--------|--------|--------|


D|--------|--------|--------|--------|--------|--------|--------|--------|--------|
A|--------|--------|--------|--------|--------|--------|--------|--------|--------|
F|--------|--------|--------|--------|--------|--------|--------|--------|--------|
C|--------|--------|--------|--------|--------|--------|--------|--------|--------|
G|--------|--------|--------|--------|--------|--------|--------|--------|--------|
C|--------|--------|--------|--------|--------|--------|--------|--------|--------|


D|--------|--------|--------|--------|--------|--------|--------|--------|--------|
A|--------|--------|--------|--------|--------|--------|--------|--------|--------|
F|--------|--------|--------|--------|--------|--------|--------|--------|--------|
C|--------|--------|--------|--------|--------|--------|--------|--------|--------|
G|--------|--------|--------|--------|--------|--------|--------|--------|--------|
C|--------|--------|--------|--------|--------|--------|--------|--------|--------|


D|--------|--------|--------|--------|--------|--------|--------|--------|--------|
A|--------|--------|--------|--------|--------|--------|--------|--------|--------|
F|--------|--------|--------|--------|--------|--------|--------|--------|--------|
C|--------|--------|--------|--------|--------|--------|--------|--------|--------|
G|--------|--------|--------|--------|--------|--------|--------|--------|--------|
C|--------|--------|--------|--------|--------|--------|--------|--------|--------|


D|--------|--------|--------|--------|--------|--------|--------|--------|--------|
A|--------|--------|--------|--------|--------|--------|--------|--------|--------|
F|--------|--------|--------|--------|--------|--------|--------|--------|--------|
C|--------|--------|--------|--------|--------|--------|--------|--------|--------|
G|--------|--------|--------|--------|--------|--------|--------|--------|--------|
C|--------|--------|--------|--------|--------|--------|--------|--------|--------|


D|--------|--------|--------|--------|--------|--------|--------|--------|--------|
A|--------|--------|--------|--------|--------|--------|--------|--------|--------|
F|--------|--------|--------|--------|--------|--------|--------|--------|--------|
C|--------|--------|--------|--------|--------|--------|--------|--------|--------|
G|--------|--------|--------|--------|--------|--------|--------|--------|--------|
C|--------|--------|--------|--------|--------|--------|--------|--------|--------|


D|--------|--------|--------|--------|--------|--------|--------|--------|--------|
A|--------|--------|--------|--------|--------|--------|--------|--------|--------|
F|--------|--------|--------|--------|--------|--------|--------|--------|--------|
C|--------|--------|--------|--------|--------|--------|--------|--------|--------|
G|--------|--------|--------|--------|--------|--------|--------|--------|--------|
C|--------|--------|--------|--------|--------|--------|--------|--------|--------|


D|--------|--------|--------|--------|--------|--------|--------|--------|--------|
A|--------|--------|--------|--------|--------|--------|--------|--------|--------|
F|--------|--------|--------|--------|--------|--------|--------|--------|--------|
C|--------|--------|--------|--------|--------|--------|--------|--------|--------|
G|--------|--------|--------|--------|--------|--------|--------|--------|--------|
C|--------|--------|--------|--------|--------|--------|--------|--------|--------|


D|--------|--------|--------|--------|--------|--------|--------|--------|--------|
A|--------|--------|--------|--------|--------|--------|--------|--------|--------|
F|--------|--------|--------|--------|--------|--------|--------|--------|--------|
C|--------|--------|--------|--------|--------|--------|--------|--------|--------|
G|--------|--------|--------|--------|--------|--------|--------|--------|--------|
C|--------|--------|--------|--------|--------|--------|--------|--------|--------|


D|--------|--------|--------|--------|--------|--------|--------|--------|--------|
A|--------|--------|--------|--------|--------|--------|--------|--------|--------|
F|--------|--------|--------|--------|--------|--------|--------|--------|--------|
C|--------|--------|--------|--------|--------|--------|--------|--------|--------|
G|--------|--------|--------|--------|--------|--------|--------|--------|--------|
C|--------|--------|--------|--------|--------|--------|--------|--------|--------|


D|--------|--------|--------|--------|--------|--------|--------|--------|--------|
A|--------|--------|--------|--------|--------|--------|--------|--------|--------|
F|--------|--------|--------|--------|--------|--------|--------|--------|--------|
C|--------|--------|--------|--------|--------|--------|--------|--------|--------|
G|--------|--------|--------|--------|--------|--------|--------|--------|--------|
C|--------|--------|--------|--------|--------|--------|--------|--------|--------|


D|--------|--------|--------|--------|--------|--------|--------|--------|--------|
A|--------|--------|--------|--------|--------|--------|--------|--------|--------|
F|--------|--------|--------|--------|--------|--------|--------|--------|--------|
C|--------|--------|--------|--------|--------|--------|--------|--------|--------|
G|--------|--------|--------|--------|--------|--------|--------|--------|--------|
C|--------|--------|--------|--------|--------|--------|--------|--------|--------|


D|--------|--------|--------|--------|--------|--------|--------|--------|--------|
A|--------|--------|--------|--------|--------|--------|--------|--------|--------|
F|--------|--------|--------|--------|--------|--------|--------|--------|--------|
C|--------|--------|--------|--------|--------|--------|--------|--------|--------|
G|--------|--------|--------|--------|--------|--------|--------|--------|--------|
C|--------|--------|--------|--------|--------|--------|--------|--------|--------|


D|--------|--------|--------|--------|--------|--------|--------|--------|--------|
A|--------|--------|--------|--------|--------|--------|--------|--------|--------|
F|--------|--------|--------|--------|--------|--------|--------|--------|--------|
C|--------|--------|--------|--------|--------|--------|--------|--------|--------|
G|--------|--------|--------|--------|--------|--------|--------|--------|--------|
C|--------|--------|--------|--------|--------|--------|--------|--------|--------|


D|--------|--------|--------|--------|--------|--------|--------|--------|--------|
A|--------|--------|--------|--------|--------|--------|--------|--------|--------|
F|--------|--------|--------|--------|--------|--------|--------|--------|--------|
C|--------|--------|--------|--------|--------|--------|--------|--------|--------|
G|--------|--------|--------|--------|--------|--------|--------|--------|--------|
C|--------|--------|--------|--------|--------|--------|--------|--------|--------|


D|--------|--------|--------|--------|--------|--------|--------|--------|--------|
A|--------|--------|--------|--------|--------|--------|--------|--------|--------|
F|--------|--------|--------|--------|--------|--------|--------|--------|--------|
C|--------|--------|--------|--------|--------|--------|--------|--------|--------|
G|--------|--------|--------|--------|--------|--------|--------|--------|--------|
C|--------|--------|--------|--------|--------|--------|--------|--------|--------|


D|--------|--------|--------|--------|--------|--------|--------|--------|--------|
A|--------|--------|--------|--------|--------|--------|--------|--------|--------|
F|--------|--------|--------|--------|--------|--------|--------|--------|--------|
C|--------|--------|--------|--------|--------|--------|--------|--------|--------|
G|--------|--------|--------|--------|--------|--------|--------|--------|--------|
C|--------|--------|--------|--------|--------|--------|--------|--------|--------|


D|--------|--------|--------|--------|--------|--------|--------|
A|--------|--------|--------|--------|--------|--------|--------|
F|--------|--------|--------|--------|--------|--------|--------|
C|--------|--------|--------|--------|--------|--------|--------|
G|--------|--------|--------|--------|--------|--------|--------|
C|--------|--------|--------|--------|--------|--------|--------|





Track 6: Rythem

D|--------|--------|--------|--------|--------|--------|--------|--------|--------|
A|--------|--------|--------|--------|--------|--------|--------|--------|--------|
F|--------|--------|--------|--------|--------|--------|--------|--------|--------|
C|--------|--------|--------|--------|--------|--------|--------|--------|--------|
G|--------|--------|--------|--------|--------|--------|--------|--------|--------|
C|--------|--------|--------|--------|--------|--------|--------|--------|--------|


D|--------|--------|--------|--------|--------|--------|--------|--------|--------|
A|--------|--------|--------|--------|--------|--------|--------|--------|--------|
F|--------|--------|--------|--------|--------|--------|--------|--------|--------|
C|--------|--------|--------|--------|--------|--------|--------|--------|--------|
G|--------|--------|--------|--------|--------|--------|--------|--------|--------|
C|--------|--------|--------|--------|--------|--------|--------|--------|--------|


D|--------|--------|--------|--------|--------|--------|--------|--------|--------|
A|--------|--------|--------|--------|--------|--------|--------|--------|--------|
F|--------|--------|--------|--------|--------|--------|--------|--------|--------|
C|--------|--------|--------|--------|--------|--------|--------|--------|--------|
G|--------|--------|--------|--------|--------|--------|--------|--------|--------|
C|--------|--------|--------|--------|--------|--------|--------|--------|--------|


D|--------|--------|--------|--------|--------|--------|--------|--------|--------|
A|--------|--------|--------|--------|--------|--------|--------|--------|--------|
F|--------|--------|--------|--------|--------|--------|--------|--------|--------|
C|--------|--------|--------|--------|--------|--------|--------|--------|--------|
G|--------|--------|--------|--------|--------|--------|--------|--------|--------|
C|--------|--------|--------|--------|--------|--------|--------|--------|--------|


D|--------|--------|--------|--------|--------|--------|--------|--------|--------|
A|--------|--------|--------|--------|--------|--------|--------|--------|--------|
F|--------|--------|--------|--------|--------|--------|--------|--------|--------|
C|--------|--------|--------|--------|--------|--------|--------|--------|--------|
G|--------|--------|--------|--------|--------|--------|--------|--------|--------|
C|--------|--------|--------|--------|--------|--------|--------|--------|--------|


D|--------|--------|--------|--------|--------|--------|--------|--------|--------|
A|--------|--------|--------|--------|--------|--------|--------|--------|--------|
F|--------|--------|--------|--------|--------|--------|--------|--------|--------|
C|--------|--------|--------|--------|--------|--------|--------|--------|--------|
G|--------|--------|--------|--------|--------|--------|--------|--------|--------|
C|--------|--------|--------|--------|--------|--------|--------|--------|--------|


D|--------|--------|--------|--------|--------|--------|--------|--------|--------|
A|--------|--------|--------|--------|--------|--------|--------|--------|--------|
F|--------|--------|--------|--------|--------|--------|--------|--------|--------|
C|--------|--------|--------|--------|--------|--------|--------|--------|--------|
G|--------|--------|--------|--------|--------|--------|--------|--------|--------|
C|--------|--------|--------|--------|--------|--------|--------|--------|--------|


D|--------|--------|--------|--------|--------|--------|--------|--------|--------|
A|--------|--------|--------|--------|--------|--------|--------|--------|--------|
F|--------|--------|--------|--------|--------|--------|--------|--------|--------|
C|--------|--------|--------|--------|--------|--------|--------|--------|--------|
G|--------|--------|--------|--------|--------|--------|--------|--------|--------|
C|--------|--------|--------|--------|--------|--------|--------|--------|--------|


D|--------|--------|--------|--------|--------|--------|--------|--------|--------|
A|--------|--------|--------|--------|--------|--------|--------|--------|--------|
F|--------|--------|--------|--------|--------|--------|--------|--------|--------|
C|--------|--------|--------|--------|--------|--------|--------|--------|--------|
G|--------|--------|--------|--------|--------|--------|--------|--------|--------|
C|--------|--------|--------|--------|--------|--------|--------|--------|--------|


D|--------|--------|--------|--------|--------|--------|--------|----------5---3---5---3----|
A|--------|--------|--------|--------|--------|--------|--------|-6----6--------------------|
F|--------|--------|--------|--------|--------|--------|--------|---------------------------|
C|--------|--------|--------|--------|--------|--------|--------|---------------------------|
G|--------|--------|--------|--------|--------|--------|--------|---------------------------|
C|--------|--------|--------|--------|--------|--------|--------|---------------------------|


D|-3---6---5---3---5----5---10--|-10--8---6---8---6---6---5---6---5---5---|----------5---3---5---3----|
A|------------------------------|-----------------------------------------|-6----6--------------------|
F|------------------------------|-----------------------------------------|---------------------------|
C|------------------------------|-----------------------------------------|---------------------------|
G|------------------------------|-----------------------------------------|---------------------------|
C|------------------------------|-----------------------------------------|---------------------------|


D|-3---6---5---3---5----5---10--|-10--8---6---8---6---6---5---6---5---5---|----------5---3---5---3----|
A|------------------------------|-----------------------------------------|-6----6--------------------|
F|------------------------------|-----------------------------------------|---------------------------|
C|------------------------------|-----------------------------------------|---------------------------|
G|------------------------------|-----------------------------------------|---------------------------|
C|------------------------------|-----------------------------------------|---------------------------|


D|-3---6---5---3---5----5---10--|-10--8---6---8---6---6---5---6---5---5---|----------5---3---5---3----|
A|------------------------------|-----------------------------------------|-6----6--------------------|
F|------------------------------|-----------------------------------------|---------------------------|
C|------------------------------|-----------------------------------------|---------------------------|
G|------------------------------|-----------------------------------------|---------------------------|
C|------------------------------|-----------------------------------------|---------------------------|


D|-3---6---5---3---5----5---10--|-10--8---6---8---6---6---5---6---5---5---|---------------------------------|
A|------------------------------|-----------------------------------------|---------------------------------|
F|------------------------------|-----------------------------------------|-7---7---7---9---9---9---10--10--|
C|------------------------------|-----------------------------------------|---------------------------------|
G|------------------------------|-----------------------------------------|-5---5---5---7---7---7---8---8---|
C|------------------------------|-----------------------------------------|---------------------------------|


D|---------------------------------|---------------------------------|---------------------------------|
A|---------------------------------|---------------------------------|---------------------------------|
F|-10--14--14--14--17--17--17--15--|-15--15--14--14--14--12--12--12--|-7---7---7---9---9---9---10--10--|
C|---------------------------------|---------------------------------|---------------------------------|
G|-8---12--12--12--15--15--15--13--|-13--13--12--12--12--10--10--10--|-5---5---5---7---7---7---8---8---|
C|---------------------------------|---------------------------------|---------------------------------|


D|---------------------------------|---------------------------------|------------------------------|
A|---------------------------------|---------------------------------|------------------------------|
F|-10--14--14--14--17--17--17--15--|-15--15--14--14--14--12--12--12--|------------------------------|
C|---------------------------------|---------------------------------|------------------------------|
G|-8---12--12--12--15--15--15--13--|-13--13--12--12--12--10--10--10--|-0--------8-------8---10--8---|
C|---------------------------------|---------------------------------|-0----0-------0---------------|


D|------------------------------|------------------------------|------------------------------|
A|------------------------------|------------------------------|------------------------------|
F|------------------------------|------------------------------|------------------------------|
C|------------------------------|------------------------------|----------10--8---7---5---7---|
G|-8--------10------10--12--10--|-10-------12------12--13--12--|-7----------------------------|
C|-8----8-------8---------------|-10---10------10--------------|-7----7-----------------------|


D|------------------------------|------------------------------|------------------------------|
A|------------------------------|------------------------------|------------------------------|
F|------------------------------|------------------------------|------------------------------|
C|------------------------------|------------------------------|------------------------------|
G|-0--------8-------8---10--8---|-8--------10------10--12--10--|-10-------12------12--13--12--|
C|-0----0-------0---------------|-8----8-------8---------------|-10---10------10--------------|


D|------------------------------|------------------------------|------------------------------|
A|------------------------------|------------------------------|------------------------------|
F|------------------------------|------------------------------|------------------------------|
C|----------10--8---7---5---7---|------------------------------|------------------------------|
G|-7----------------------------|-0--------8-------8---10--8---|-8--------10------10--12--10--|
C|-7----7-----------------------|-0----0-------0---------------|-8----8-------8---------------|


D|------------------------------|------------------------------|------------------------------|
A|------------------------------|------------------------------|------------------------------|
F|------------------------------|------------------------------|------------------------------|
C|------------------------------|----------10--8---7---5---7---|------------------------------|
G|-10-------12------12--13--12--|-7----------------------------|-0--------8-------8---10--8---|
C|-10---10------10--------------|-7----7-----------------------|-0----0-------0---------------|


D|------------------------------|------------------------------|------------------------------|
A|------------------------------|------------------------------|------------------------------|
F|------------------------------|------------------------------|------------------------------|
C|------------------------------|------------------------------|----------10--8---7---5---7---|
G|-8--------10------10--12--10--|-10-------12------12--13--12--|-7----------------------------|
C|-8----8-------8---------------|-10---10------10--------------|-7----7-----------------------|


D|------------------------------|---------------------------|--------|--------|--------|
A|------------------------------|---------------------------|--------|--------|--------|
F|------------------------------|---------------------------|--------|--------|--------|
C|----------8---7---------------|------7---5--------5---3---|-0------|-0------|--------|
G|-5----------------10--8---10--|-3------------3------------|-0------|-0------|--------|
C|-5----5-----------------------|-3------------2------------|-0------|-0------|--------|


D|--------|--------|--------|--------|--------|--------|--------|--------|--------|
A|--------|--------|--------|--------|--------|--------|--------|--------|--------|
F|--------|--------|--------|--------|--------|--------|--------|--------|--------|
C|--------|--------|--------|--------|--------|--------|--------|--------|--------|
G|--------|--------|--------|--------|--------|--------|--------|--------|--------|
C|--------|--------|--------|--------|--------|--------|--------|--------|--------|


D|--------|--------|--------|--------|--------|--------|--------|--------|--------|
A|--------|--------|--------|--------|--------|--------|--------|--------|--------|
F|--------|--------|--------|--------|--------|--------|--------|--------|--------|
C|--------|--------|--------|--------|--------|--------|--------|--------|--------|
G|--------|--------|--------|--------|--------|--------|--------|--------|--------|
C|--------|--------|--------|--------|--------|--------|--------|--------|--------|


D|--------|--------|--------|--------|--------|--------|--------|--------|--------|
A|--------|--------|--------|--------|--------|--------|--------|--------|--------|
F|--------|--------|--------|--------|--------|--------|--------|--------|--------|
C|--------|--------|--------|--------|--------|--------|--------|--------|--------|
G|--------|--------|--------|--------|--------|--------|--------|--------|--------|
C|--------|--------|--------|--------|--------|--------|--------|--------|--------|


D|--------|--------|--------|--------|--------|--------|--------|--------|--------|
A|--------|--------|--------|--------|--------|--------|--------|--------|--------|
F|--------|--------|--------|--------|--------|--------|--------|--------|--------|
C|--------|--------|--------|--------|--------|--------|--------|--------|--------|
G|--------|--------|--------|--------|--------|--------|--------|--------|--------|
C|--------|--------|--------|--------|--------|--------|--------|--------|--------|


D|--------|--------|--------|--------|--------|--------|--------|--------|--------|
A|--------|--------|--------|--------|--------|--------|--------|--------|--------|
F|--------|--------|--------|--------|--------|--------|--------|--------|--------|
C|--------|--------|--------|--------|--------|--------|--------|--------|--------|
G|--------|--------|--------|--------|--------|--------|--------|--------|--------|
C|--------|--------|--------|--------|--------|--------|--------|--------|--------|


D|--------|--------|--------|--------|--------|--------|--------|--------|--------|
A|--------|--------|--------|--------|--------|--------|--------|--------|--------|
F|--------|--------|--------|--------|--------|--------|--------|--------|--------|
C|--------|--------|--------|--------|--------|--------|--------|--------|--------|
G|--------|--------|--------|--------|--------|--------|--------|--------|--------|
C|--------|--------|--------|--------|--------|--------|--------|--------|--------|


D|--------|--------|--------|--------|--------|--------|--------|--------|--------|
A|--------|--------|--------|--------|--------|--------|--------|--------|--------|
F|--------|--------|--------|--------|--------|--------|--------|--------|--------|
C|--------|--------|--------|--------|--------|--------|--------|--------|--------|
G|--------|--------|--------|--------|--------|--------|--------|--------|--------|
C|--------|--------|--------|--------|--------|--------|--------|--------|--------|


D|--------|--------|--------|--------|--------|--------|--------|--------|--------|
A|--------|--------|--------|--------|--------|--------|--------|--------|--------|
F|--------|--------|--------|--------|--------|--------|--------|--------|--------|
C|--------|--------|--------|--------|--------|--------|--------|--------|--------|
G|--------|--------|--------|--------|--------|--------|--------|--------|--------|
C|--------|--------|--------|--------|--------|--------|--------|--------|--------|


D|--------|--------|--------|--------|--------|--------|--------|--------|--------|
A|--------|--------|--------|--------|--------|--------|--------|--------|--------|
F|--------|--------|--------|--------|--------|--------|--------|--------|--------|
C|--------|--------|--------|--------|--------|--------|--------|--------|--------|
G|--------|--------|--------|--------|--------|--------|--------|--------|--------|
C|--------|--------|--------|--------|--------|--------|--------|--------|--------|


D|--------|--------|--------|--------|--------|--------|--------|--------|--------|
A|--------|--------|--------|--------|--------|--------|--------|--------|--------|
F|--------|--------|--------|--------|--------|--------|--------|--------|--------|
C|--------|--------|--------|--------|--------|--------|--------|--------|--------|
G|--------|--------|--------|--------|--------|--------|--------|--------|--------|
C|--------|--------|--------|--------|--------|--------|--------|--------|--------|


D|--------|--------|--------|--------|--------|--------|--------|--------|--------|
A|--------|--------|--------|--------|--------|--------|--------|--------|--------|
F|--------|--------|--------|--------|--------|--------|--------|--------|--------|
C|--------|--------|--------|--------|--------|--------|--------|--------|--------|
G|--------|--------|--------|--------|--------|--------|--------|--------|--------|
C|--------|--------|--------|--------|--------|--------|--------|--------|--------|


D|--------|--------|--------|--------|--------|--------|--------|--------|--------|
A|--------|--------|--------|--------|--------|--------|--------|--------|--------|
F|--------|--------|--------|--------|--------|--------|--------|--------|--------|
C|--------|--------|--------|--------|--------|--------|--------|--------|--------|
G|--------|--------|--------|--------|--------|--------|--------|--------|--------|
C|--------|--------|--------|--------|--------|--------|--------|--------|--------|


D|--------|--------|--------|--------|--------|--------|--------|--------|--------|
A|--------|--------|--------|--------|--------|--------|--------|--------|--------|
F|--------|--------|--------|--------|--------|--------|--------|--------|--------|
C|--------|--------|--------|--------|--------|--------|--------|--------|--------|
G|--------|--------|--------|--------|--------|--------|--------|--------|--------|
C|--------|--------|--------|--------|--------|--------|--------|--------|--------|


D|--------|--------|--------|--------|--------|--------|--------|--------|--------|
A|--------|--------|--------|--------|--------|--------|--------|--------|--------|
F|--------|--------|--------|--------|--------|--------|--------|--------|--------|
C|--------|--------|--------|--------|--------|--------|--------|--------|--------|
G|--------|--------|--------|--------|--------|--------|--------|--------|--------|
C|--------|--------|--------|--------|--------|--------|--------|--------|--------|


D|--------|--------|--------|--------|--------|--------|--------|--------|--------|
A|--------|--------|--------|--------|--------|--------|--------|--------|--------|
F|--------|--------|--------|--------|--------|--------|--------|--------|--------|
C|--------|--------|--------|--------|--------|--------|--------|--------|--------|
G|--------|--------|--------|--------|--------|--------|--------|--------|--------|
C|--------|--------|--------|--------|--------|--------|--------|--------|--------|


D|--------|--------|--------|--------|--------|--------|--------|--------|--------|
A|--------|--------|--------|--------|--------|--------|--------|--------|--------|
F|--------|--------|--------|--------|--------|--------|--------|--------|--------|
C|--------|--------|--------|--------|--------|--------|--------|--------|--------|
G|--------|--------|--------|--------|--------|--------|--------|--------|--------|
C|--------|--------|--------|--------|--------|--------|--------|--------|--------|


D|--------|--------|--------|--------|--------|--------|--------|--------|--------|
A|--------|--------|--------|--------|--------|--------|--------|--------|--------|
F|--------|--------|--------|--------|--------|--------|--------|--------|--------|
C|--------|--------|--------|--------|--------|--------|--------|--------|--------|
G|--------|--------|--------|--------|--------|--------|--------|--------|--------|
C|--------|--------|--------|--------|--------|--------|--------|--------|--------|


D|--------|--------|--------|--------|--------|--------|--------|--------|--------|
A|--------|--------|--------|--------|--------|--------|--------|--------|--------|
F|--------|--------|--------|--------|--------|--------|--------|--------|--------|
C|--------|--------|--------|--------|--------|--------|--------|--------|--------|
G|--------|--------|--------|--------|--------|--------|--------|--------|--------|
C|--------|--------|--------|--------|--------|--------|--------|--------|--------|


D|--------|--------|--------|--------|--------|--------|--------|--------|--------|
A|--------|--------|--------|--------|--------|--------|--------|--------|--------|
F|--------|--------|--------|--------|--------|--------|--------|--------|--------|
C|--------|--------|--------|--------|--------|--------|--------|--------|--------|
G|--------|--------|--------|--------|--------|--------|--------|--------|--------|
C|--------|--------|--------|--------|--------|--------|--------|--------|--------|


D|--------|--------|--------|--------|--------|--------|--------|--------|--------|
A|--------|--------|--------|--------|--------|--------|--------|--------|--------|
F|--------|--------|--------|--------|--------|--------|--------|--------|--------|
C|--------|--------|--------|--------|--------|--------|--------|--------|--------|
G|--------|--------|--------|--------|--------|--------|--------|--------|--------|
C|--------|--------|--------|--------|--------|--------|--------|--------|--------|


D|--------|--------|--------|--------|--------|--------|--------|--------|--------|
A|--------|--------|--------|--------|--------|--------|--------|--------|--------|
F|--------|--------|--------|--------|--------|--------|--------|--------|--------|
C|--------|--------|--------|--------|--------|--------|--------|--------|--------|
G|--------|--------|--------|--------|--------|--------|--------|--------|--------|
C|--------|--------|--------|--------|--------|--------|--------|--------|--------|


D|--------|--------|--------|--------|--------|--------|--------|--------|--------|
A|--------|--------|--------|--------|--------|--------|--------|--------|--------|
F|--------|--------|--------|--------|--------|--------|--------|--------|--------|
C|--------|--------|--------|--------|--------|--------|--------|--------|--------|
G|--------|--------|--------|--------|--------|--------|--------|--------|--------|
C|--------|--------|--------|--------|--------|--------|--------|--------|--------|


D|--------|--------|--------|--------|--------|--------|--------|--------|--------|
A|--------|--------|--------|--------|--------|--------|--------|--------|--------|
F|--------|--------|--------|--------|--------|--------|--------|--------|--------|
C|--------|--------|--------|--------|--------|--------|--------|--------|--------|
G|--------|--------|--------|--------|--------|--------|--------|--------|--------|
C|--------|--------|--------|--------|--------|--------|--------|--------|--------|


D|--------|--------|--------|--------|--------|--------|--------|--------|--------|
A|--------|--------|--------|--------|--------|--------|--------|--------|--------|
F|--------|--------|--------|--------|--------|--------|--------|--------|--------|
C|--------|--------|--------|--------|--------|--------|--------|--------|--------|
G|--------|--------|--------|--------|--------|--------|--------|--------|--------|
C|--------|--------|--------|--------|--------|--------|--------|--------|--------|


D|--------|--------|--------|--------|--------|--------|--------|--------|--------|
A|--------|--------|--------|--------|--------|--------|--------|--------|--------|
F|--------|--------|--------|--------|--------|--------|--------|--------|--------|
C|--------|--------|--------|--------|--------|--------|--------|--------|--------|
G|--------|--------|--------|--------|--------|--------|--------|--------|--------|
C|--------|--------|--------|--------|--------|--------|--------|--------|--------|


D|--------|--------|--------|--------|--------|--------|--------|--------|--------|
A|--------|--------|--------|--------|--------|--------|--------|--------|--------|
F|--------|--------|--------|--------|--------|--------|--------|--------|--------|
C|--------|--------|--------|--------|--------|--------|--------|--------|--------|
G|--------|--------|--------|--------|--------|--------|--------|--------|--------|
C|--------|--------|--------|--------|--------|--------|--------|--------|--------|


D|--------|--------|--------|--------|--------|--------|--------|--------|--------|
A|--------|--------|--------|--------|--------|--------|--------|--------|--------|
F|--------|--------|--------|--------|--------|--------|--------|--------|--------|
C|--------|--------|--------|--------|--------|--------|--------|--------|--------|
G|--------|--------|--------|--------|--------|--------|--------|--------|--------|
C|--------|--------|--------|--------|--------|--------|--------|--------|--------|


D|--------|--------|--------|--------|--------|--------|--------|--------|--------|
A|--------|--------|--------|--------|--------|--------|--------|--------|--------|
F|--------|--------|--------|--------|--------|--------|--------|--------|--------|
C|--------|--------|--------|--------|--------|--------|--------|--------|--------|
G|--------|--------|--------|--------|--------|--------|--------|--------|--------|
C|--------|--------|--------|--------|--------|--------|--------|--------|--------|


D|--------|
A|--------|
F|--------|
C|--------|
G|--------|
C|--------|





Track 7: Rythem

D|--------|--------|--------|--------|--------|--------|--------|--------|--------|
A|--------|--------|--------|--------|--------|--------|--------|--------|--------|
F|--------|--------|--------|--------|--------|--------|--------|--------|--------|
C|--------|--------|--------|--------|--------|--------|--------|--------|--------|
G|--------|--------|--------|--------|--------|--------|--------|--------|--------|
C|--------|--------|--------|--------|--------|--------|--------|--------|--------|


D|--------|--------|--------|--------|--------|--------|--------|--------|--------|
A|--------|--------|--------|--------|--------|--------|--------|--------|--------|
F|--------|--------|--------|--------|--------|--------|--------|--------|--------|
C|--------|--------|--------|--------|--------|--------|--------|--------|--------|
G|--------|--------|--------|--------|--------|--------|--------|--------|--------|
C|--------|--------|--------|--------|--------|--------|--------|--------|--------|


D|--------|--------|--------|--------|--------|--------|--------|--------|--------|
A|--------|--------|--------|--------|--------|--------|--------|--------|--------|
F|--------|--------|--------|--------|--------|--------|--------|--------|--------|
C|--------|--------|--------|--------|--------|--------|--------|--------|--------|
G|--------|--------|--------|--------|--------|--------|--------|--------|--------|
C|--------|--------|--------|--------|--------|--------|--------|--------|--------|


D|--------|--------|--------|--------|--------|--------|--------|--------|--------|
A|--------|--------|--------|--------|--------|--------|--------|--------|--------|
F|--------|--------|--------|--------|--------|--------|--------|--------|--------|
C|--------|--------|--------|--------|--------|--------|--------|--------|--------|
G|--------|--------|--------|--------|--------|--------|--------|--------|--------|
C|--------|--------|--------|--------|--------|--------|--------|--------|--------|


D|--------|--------|--------|--------|--------|--------|--------|--------|--------|
A|--------|--------|--------|--------|--------|--------|--------|--------|--------|
F|--------|--------|--------|--------|--------|--------|--------|--------|--------|
C|--------|--------|--------|--------|--------|--------|--------|--------|--------|
G|--------|--------|--------|--------|--------|--------|--------|--------|--------|
C|--------|--------|--------|--------|--------|--------|--------|--------|--------|


D|--------|--------|--------|--------|--------|--------|--------|--------|--------|
A|--------|--------|--------|--------|--------|--------|--------|--------|--------|
F|--------|--------|--------|--------|--------|--------|--------|--------|--------|
C|--------|--------|--------|--------|--------|--------|--------|--------|--------|
G|--------|--------|--------|--------|--------|--------|--------|--------|--------|
C|--------|--------|--------|--------|--------|--------|--------|--------|--------|


D|--------|--------|--------|--------|--------|--------|--------|--------|--------|
A|--------|--------|--------|--------|--------|--------|--------|--------|--------|
F|--------|--------|--------|--------|--------|--------|--------|--------|--------|
C|--------|--------|--------|--------|--------|--------|--------|--------|--------|
G|--------|--------|--------|--------|--------|--------|--------|--------|--------|
C|--------|--------|--------|--------|--------|--------|--------|--------|--------|


D|--------|--------|--------|--------|--------|--------|--------|--------|--------|
A|--------|--------|--------|--------|--------|--------|--------|--------|--------|
F|--------|--------|--------|--------|--------|--------|--------|--------|--------|
C|--------|--------|--------|--------|--------|--------|--------|--------|--------|
G|--------|--------|--------|--------|--------|--------|--------|--------|--------|
C|--------|--------|--------|--------|--------|--------|--------|--------|--------|


D|--------|--------|--------|--------|--------|--------|--------|--------|--------|
A|--------|--------|--------|--------|--------|--------|--------|--------|--------|
F|--------|--------|--------|--------|--------|--------|--------|--------|--------|
C|--------|--------|--------|--------|--------|--------|--------|--------|--------|
G|--------|--------|--------|--------|--------|--------|--------|--------|--------|
C|--------|--------|--------|--------|--------|--------|--------|--------|--------|


D|--------|--------|--------|--------|--------|--------|--------|---------------------------------|
A|--------|--------|--------|--------|--------|--------|--------|---------------------------------|
F|--------|--------|--------|--------|--------|--------|--------|-------------------------1---1---|
C|--------|--------|--------|--------|--------|--------|--------|-0---0---0---0---0---0-----------|
G|--------|--------|--------|--------|--------|--------|--------|---------------------------------|
C|--------|--------|--------|--------|--------|--------|--------|---------------------------------|


D|---------------------------------|---------------------------------|---------------------------------|
A|---------------------------------|---------------------------------|---------------------------------|
F|-1---1---1---1-------------------|---------3---3---3---3---3---3---|-------------------------1---1---|
C|-----------------3---3---3---3---|-3---3---------------------------|-0---0---0---0---0---0-----------|
G|---------------------------------|---------------------------------|---------------------------------|
C|---------------------------------|---------------------------------|---------------------------------|


D|---------------------------------|---------------------------------|---------------------------------|
A|---------------------------------|---------------------------------|---------------------------------|
F|-1---1---1---1-------------------|---------3---3---3---3---3---3---|-------------------------1---1---|
C|-----------------3---3---3---3---|-3---3---------------------------|-0---0---0---0---0---0-----------|
G|---------------------------------|---------------------------------|---------------------------------|
C|---------------------------------|---------------------------------|---------------------------------|


D|---------------------------------|---------------------------------|---------------------------------|
A|---------------------------------|---------------------------------|---------------------------------|
F|-1---1---1---1-------------------|---------3---3---3---3---3---3---|-------------------------1---1---|
C|-----------------3---3---3---3---|-3---3---------------------------|-0---0---0---0---0---0-----------|
G|---------------------------------|---------------------------------|---------------------------------|
C|---------------------------------|---------------------------------|---------------------------------|


D|---------------------------------|---------------------------------|---------------------------------|
A|---------------------------------|---------------------------------|---------------------------------|
F|-1---1---1---1-------------------|---------3---3---3---3---3---3---|-----5-------7-------7-------8---|
C|-----------------3---3---3---3---|-3---3---------------------------|-8-------8-------8-------8-------|
G|---------------------------------|---------------------------------|---------------------------------|
C|---------------------------------|---------------------------------|---------------------------------|


D|---------------------------------|---------------------------------|---------------------------------|
A|---------------------10------8---|-----8---------------------------|---------------------------------|
F|-----12------12------------------|-------------12------10------10--|-----5-------7-------7-------8---|
C|-8-------8-------8-------8-------|-8-------8-------8-------8-------|-10------10------10------10------|
G|---------------------------------|---------------------------------|---------------------------------|
C|---------------------------------|---------------------------------|---------------------------------|


D|---------------------------------|---------------------------------|---------------------------------|
A|---------------------10------8---|-----8---------------------------|---------------------------------|
F|-----12------12------------------|-------------12------10------10--|---------------------------------|
C|-10------10------10------10------|-10------10------10------10------|-0---0---0---0---0---0---3---5---|
G|---------------------------------|---------------------------------|---------------------------------|
C|---------------------------------|---------------------------------|---------------------------------|


D|---------------------------------|---------------------------------|---------------------------|
A|---------------------------------|---------------------------------|---------------------------|
F|---------------------------------|-------------------------8---8---|---------------------------|
C|-8---8---8---8---8---8---7---7---|-10--10--10--10--10--10----------|-7---7---7---7---3----2----|
G|---------------------------------|---------------------------------|---------------------------|
C|---------------------------------|---------------------------------|---------------------------|


D|---------------------------------|---------------------------------|---------------------------------|
A|---------------------------------|---------------------------------|---------------------------------|
F|---------------------------------|---------------------------------|-------------------------8---8---|
C|-0---0---0---0---0---0---3---5---|-8---8---8---8---8---8---7---7---|-10--10--10--10--10--10----------|
G|---------------------------------|---------------------------------|---------------------------------|
C|---------------------------------|---------------------------------|---------------------------------|


D|---------------------------|---------------------------------|---------------------------------|
A|---------------------------|---------------------------------|---------------------------------|
F|---------------------------|---------------------------------|---------------------------------|
C|-7---7---7---7---3----2----|-0---0---0---0---0---0---3---5---|-8---8---8---8---8---8---7---7---|
G|---------------------------|---------------------------------|---------------------------------|
C|---------------------------|---------------------------------|---------------------------------|


D|---------------------------------|---------------------------|---------------------------------|
A|---------------------------------|---------------------------|---------------------------------|
F|-------------------------8---8---|---------------------------|---------------------------------|
C|-10--10--10--10--10--10----------|-7---7---7---7---3----2----|-0---0---0---0---0---0---3---5---|
G|---------------------------------|---------------------------|---------------------------------|
C|---------------------------------|---------------------------|---------------------------------|


D|---------------------------------|---------------------------------|---------------------------|
A|---------------------------------|---------------------------------|---------------------------|
F|---------------------------------|-------------------------8---8---|---------------------------|
C|-8---8---8---8---8---8---7---7---|-10--10--10--10--10--10----------|-7---7---7---7---3----2----|
G|---------------------------------|---------------------------------|---------------------------|
C|---------------------------------|---------------------------------|---------------------------|


D|---------------------------------|---------------------------------|--------|--------|
A|---------------------------------|---------------------------------|--------|--------|
F|---------------------------------|---------------------------------|--------|--------|
C|-5---5---5---5---5---5---5---5---|-3---3---3---3---2---2---2---2---|-0------|-0------|
G|---------------------------------|---------------------------------|--------|--------|
C|---------------------------------|---------------------------------|--------|--------|


D|--------|--------|--------|--------|--------|--------|--------|--------|--------|
A|--------|--------|--------|--------|--------|--------|--------|--------|--------|
F|--------|--------|--------|--------|--------|--------|--------|--------|--------|
C|--------|--------|--------|--------|--------|--------|--------|--------|--------|
G|--------|--------|--------|--------|--------|--------|--------|--------|--------|
C|--------|--------|--------|--------|--------|--------|--------|--------|--------|


D|--------|--------|--------|--------|--------|--------|--------|--------|--------|
A|--------|--------|--------|--------|--------|--------|--------|--------|--------|
F|--------|--------|--------|--------|--------|--------|--------|--------|--------|
C|--------|--------|--------|--------|--------|--------|--------|--------|--------|
G|--------|--------|--------|--------|--------|--------|--------|--------|--------|
C|--------|--------|--------|--------|--------|--------|--------|--------|--------|


D|--------|--------|--------|--------|--------|--------|--------|--------|--------|
A|--------|--------|--------|--------|--------|--------|--------|--------|--------|
F|--------|--------|--------|--------|--------|--------|--------|--------|--------|
C|--------|--------|--------|--------|--------|--------|--------|--------|--------|
G|--------|--------|--------|--------|--------|--------|--------|--------|--------|
C|--------|--------|--------|--------|--------|--------|--------|--------|--------|


D|--------|--------|--------|--------|--------|--------|--------|--------|--------|
A|--------|--------|--------|--------|--------|--------|--------|--------|--------|
F|--------|--------|--------|--------|--------|--------|--------|--------|--------|
C|--------|--------|--------|--------|--------|--------|--------|--------|--------|
G|--------|--------|--------|--------|--------|--------|--------|--------|--------|
C|--------|--------|--------|--------|--------|--------|--------|--------|--------|


D|--------|--------|--------|--------|--------|--------|--------|--------|--------|
A|--------|--------|--------|--------|--------|--------|--------|--------|--------|
F|--------|--------|--------|--------|--------|--------|--------|--------|--------|
C|--------|--------|--------|--------|--------|--------|--------|--------|--------|
G|--------|--------|--------|--------|--------|--------|--------|--------|--------|
C|--------|--------|--------|--------|--------|--------|--------|--------|--------|


D|--------|--------|--------|--------|--------|--------|--------|--------|--------|
A|--------|--------|--------|--------|--------|--------|--------|--------|--------|
F|--------|--------|--------|--------|--------|--------|--------|--------|--------|
C|--------|--------|--------|--------|--------|--------|--------|--------|--------|
G|--------|--------|--------|--------|--------|--------|--------|--------|--------|
C|--------|--------|--------|--------|--------|--------|--------|--------|--------|


D|--------|--------|--------|--------|--------|--------|--------|--------|--------|
A|--------|--------|--------|--------|--------|--------|--------|--------|--------|
F|--------|--------|--------|--------|--------|--------|--------|--------|--------|
C|--------|--------|--------|--------|--------|--------|--------|--------|--------|
G|--------|--------|--------|--------|--------|--------|--------|--------|--------|
C|--------|--------|--------|--------|--------|--------|--------|--------|--------|


D|--------|--------|--------|--------|--------|--------|--------|--------|--------|
A|--------|--------|--------|--------|--------|--------|--------|--------|--------|
F|--------|--------|--------|--------|--------|--------|--------|--------|--------|
C|--------|--------|--------|--------|--------|--------|--------|--------|--------|
G|--------|--------|--------|--------|--------|--------|--------|--------|--------|
C|--------|--------|--------|--------|--------|--------|--------|--------|--------|


D|--------|--------|--------|--------|--------|--------|--------|--------|--------|
A|--------|--------|--------|--------|--------|--------|--------|--------|--------|
F|--------|--------|--------|--------|--------|--------|--------|--------|--------|
C|--------|--------|--------|--------|--------|--------|--------|--------|--------|
G|--------|--------|--------|--------|--------|--------|--------|--------|--------|
C|--------|--------|--------|--------|--------|--------|--------|--------|--------|


D|--------|--------|--------|--------|--------|--------|--------|--------|--------|
A|--------|--------|--------|--------|--------|--------|--------|--------|--------|
F|--------|--------|--------|--------|--------|--------|--------|--------|--------|
C|--------|--------|--------|--------|--------|--------|--------|--------|--------|
G|--------|--------|--------|--------|--------|--------|--------|--------|--------|
C|--------|--------|--------|--------|--------|--------|--------|--------|--------|


D|--------|--------|--------|--------|--------|--------|--------|--------|--------|
A|--------|--------|--------|--------|--------|--------|--------|--------|--------|
F|--------|--------|--------|--------|--------|--------|--------|--------|--------|
C|--------|--------|--------|--------|--------|--------|--------|--------|--------|
G|--------|--------|--------|--------|--------|--------|--------|--------|--------|
C|--------|--------|--------|--------|--------|--------|--------|--------|--------|


D|--------|--------|--------|--------|--------|--------|--------|--------|--------|
A|--------|--------|--------|--------|--------|--------|--------|--------|--------|
F|--------|--------|--------|--------|--------|--------|--------|--------|--------|
C|--------|--------|--------|--------|--------|--------|--------|--------|--------|
G|--------|--------|--------|--------|--------|--------|--------|--------|--------|
C|--------|--------|--------|--------|--------|--------|--------|--------|--------|


D|--------|--------|--------|--------|--------|--------|--------|--------|--------|
A|--------|--------|--------|--------|--------|--------|--------|--------|--------|
F|--------|--------|--------|--------|--------|--------|--------|--------|--------|
C|--------|--------|--------|--------|--------|--------|--------|--------|--------|
G|--------|--------|--------|--------|--------|--------|--------|--------|--------|
C|--------|--------|--------|--------|--------|--------|--------|--------|--------|


D|--------|--------|--------|--------|--------|--------|--------|--------|--------|
A|--------|--------|--------|--------|--------|--------|--------|--------|--------|
F|--------|--------|--------|--------|--------|--------|--------|--------|--------|
C|--------|--------|--------|--------|--------|--------|--------|--------|--------|
G|--------|--------|--------|--------|--------|--------|--------|--------|--------|
C|--------|--------|--------|--------|--------|--------|--------|--------|--------|


D|--------|--------|--------|--------|--------|--------|--------|--------|--------|
A|--------|--------|--------|--------|--------|--------|--------|--------|--------|
F|--------|--------|--------|--------|--------|--------|--------|--------|--------|
C|--------|--------|--------|--------|--------|--------|--------|--------|--------|
G|--------|--------|--------|--------|--------|--------|--------|--------|--------|
C|--------|--------|--------|--------|--------|--------|--------|--------|--------|


D|--------|--------|--------|--------|--------|--------|--------|--------|--------|
A|--------|--------|--------|--------|--------|--------|--------|--------|--------|
F|--------|--------|--------|--------|--------|--------|--------|--------|--------|
C|--------|--------|--------|--------|--------|--------|--------|--------|--------|
G|--------|--------|--------|--------|--------|--------|--------|--------|--------|
C|--------|--------|--------|--------|--------|--------|--------|--------|--------|


D|--------|--------|--------|--------|--------|--------|--------|--------|--------|
A|--------|--------|--------|--------|--------|--------|--------|--------|--------|
F|--------|--------|--------|--------|--------|--------|--------|--------|--------|
C|--------|--------|--------|--------|--------|--------|--------|--------|--------|
G|--------|--------|--------|--------|--------|--------|--------|--------|--------|
C|--------|--------|--------|--------|--------|--------|--------|--------|--------|


D|--------|--------|--------|--------|--------|--------|--------|--------|--------|
A|--------|--------|--------|--------|--------|--------|--------|--------|--------|
F|--------|--------|--------|--------|--------|--------|--------|--------|--------|
C|--------|--------|--------|--------|--------|--------|--------|--------|--------|
G|--------|--------|--------|--------|--------|--------|--------|--------|--------|
C|--------|--------|--------|--------|--------|--------|--------|--------|--------|


D|--------|--------|--------|--------|--------|--------|--------|--------|--------|
A|--------|--------|--------|--------|--------|--------|--------|--------|--------|
F|--------|--------|--------|--------|--------|--------|--------|--------|--------|
C|--------|--------|--------|--------|--------|--------|--------|--------|--------|
G|--------|--------|--------|--------|--------|--------|--------|--------|--------|
C|--------|--------|--------|--------|--------|--------|--------|--------|--------|


D|--------|--------|--------|--------|--------|--------|--------|--------|--------|
A|--------|--------|--------|--------|--------|--------|--------|--------|--------|
F|--------|--------|--------|--------|--------|--------|--------|--------|--------|
C|--------|--------|--------|--------|--------|--------|--------|--------|--------|
G|--------|--------|--------|--------|--------|--------|--------|--------|--------|
C|--------|--------|--------|--------|--------|--------|--------|--------|--------|


D|--------|--------|--------|--------|--------|--------|--------|--------|--------|
A|--------|--------|--------|--------|--------|--------|--------|--------|--------|
F|--------|--------|--------|--------|--------|--------|--------|--------|--------|
C|--------|--------|--------|--------|--------|--------|--------|--------|--------|
G|--------|--------|--------|--------|--------|--------|--------|--------|--------|
C|--------|--------|--------|--------|--------|--------|--------|--------|--------|


D|--------|--------|--------|--------|--------|--------|--------|--------|--------|
A|--------|--------|--------|--------|--------|--------|--------|--------|--------|
F|--------|--------|--------|--------|--------|--------|--------|--------|--------|
C|--------|--------|--------|--------|--------|--------|--------|--------|--------|
G|--------|--------|--------|--------|--------|--------|--------|--------|--------|
C|--------|--------|--------|--------|--------|--------|--------|--------|--------|


D|--------|--------|--------|--------|--------|--------|--------|--------|--------|
A|--------|--------|--------|--------|--------|--------|--------|--------|--------|
F|--------|--------|--------|--------|--------|--------|--------|--------|--------|
C|--------|--------|--------|--------|--------|--------|--------|--------|--------|
G|--------|--------|--------|--------|--------|--------|--------|--------|--------|
C|--------|--------|--------|--------|--------|--------|--------|--------|--------|


D|--------|--------|--------|--------|--------|--------|--------|--------|--------|
A|--------|--------|--------|--------|--------|--------|--------|--------|--------|
F|--------|--------|--------|--------|--------|--------|--------|--------|--------|
C|--------|--------|--------|--------|--------|--------|--------|--------|--------|
G|--------|--------|--------|--------|--------|--------|--------|--------|--------|
C|--------|--------|--------|--------|--------|--------|--------|--------|--------|


D|--------|--------|--------|--------|--------|--------|--------|--------|--------|
A|--------|--------|--------|--------|--------|--------|--------|--------|--------|
F|--------|--------|--------|--------|--------|--------|--------|--------|--------|
C|--------|--------|--------|--------|--------|--------|--------|--------|--------|
G|--------|--------|--------|--------|--------|--------|--------|--------|--------|
C|--------|--------|--------|--------|--------|--------|--------|--------|--------|


D|--------|--------|--------|--------|--------|--------|--------|--------|--------|
A|--------|--------|--------|--------|--------|--------|--------|--------|--------|
F|--------|--------|--------|--------|--------|--------|--------|--------|--------|
C|--------|--------|--------|--------|--------|--------|--------|--------|--------|
G|--------|--------|--------|--------|--------|--------|--------|--------|--------|
C|--------|--------|--------|--------|--------|--------|--------|--------|--------|


D|--------|--------|--------|--------|--------|--------|--------|--------|--------|
A|--------|--------|--------|--------|--------|--------|--------|--------|--------|
F|--------|--------|--------|--------|--------|--------|--------|--------|--------|
C|--------|--------|--------|--------|--------|--------|--------|--------|--------|
G|--------|--------|--------|--------|--------|--------|--------|--------|--------|
C|--------|--------|--------|--------|--------|--------|--------|--------|--------|


D|--------|--------|--------|--------|--------|--------|--------|--------|--------|
A|--------|--------|--------|--------|--------|--------|--------|--------|--------|
F|--------|--------|--------|--------|--------|--------|--------|--------|--------|
C|--------|--------|--------|--------|--------|--------|--------|--------|--------|
G|--------|--------|--------|--------|--------|--------|--------|--------|--------|
C|--------|--------|--------|--------|--------|--------|--------|--------|--------|


D|--------|--------|
A|--------|--------|
F|--------|--------|
C|--------|--------|
G|--------|--------|
C|--------|--------|





Track 8: Clean

D|--------|--------|--------|--------|--------|--------|--------|--------|--------|
A|--------|--------|--------|--------|--------|--------|--------|--------|--------|
F|--------|--------|--------|--------|--------|--------|--------|--------|--------|
C|--------|--------|--------|--------|--------|--------|--------|--------|--------|
G|--------|--------|--------|--------|--------|--------|--------|--------|--------|
C|--------|--------|--------|--------|--------|--------|--------|--------|--------|


D|--------|--------|--------|--------|--------|--------|--------|--------|--------|
A|--------|--------|--------|--------|--------|--------|--------|--------|--------|
F|--------|--------|--------|--------|--------|--------|--------|--------|--------|
C|--------|--------|--------|--------|--------|--------|--------|--------|--------|
G|--------|--------|--------|--------|--------|--------|--------|--------|--------|
C|--------|--------|--------|--------|--------|--------|--------|--------|--------|


D|--------|--------|--------|--------|--------|--------|--------|--------|--------|
A|--------|--------|--------|--------|--------|--------|--------|--------|--------|
F|--------|--------|--------|--------|--------|--------|--------|--------|--------|
C|--------|--------|--------|--------|--------|--------|--------|--------|--------|
G|--------|--------|--------|--------|--------|--------|--------|--------|--------|
C|--------|--------|--------|--------|--------|--------|--------|--------|--------|


D|--------|--------|--------|--------|--------|--------|--------|--------|--------|
A|--------|--------|--------|--------|--------|--------|--------|--------|--------|
F|--------|--------|--------|--------|--------|--------|--------|--------|--------|
C|--------|--------|--------|--------|--------|--------|--------|--------|--------|
G|--------|--------|--------|--------|--------|--------|--------|--------|--------|
C|--------|--------|--------|--------|--------|--------|--------|--------|--------|


D|--------|--------|--------|--------|--------|--------|--------|--------|--------|
A|--------|--------|--------|--------|--------|--------|--------|--------|--------|
F|--------|--------|--------|--------|--------|--------|--------|--------|--------|
C|--------|--------|--------|--------|--------|--------|--------|--------|--------|
G|--------|--------|--------|--------|--------|--------|--------|--------|--------|
C|--------|--------|--------|--------|--------|--------|--------|--------|--------|


D|--------|--------|--------|--------|--------|--------|--------|--------|--------|
A|--------|--------|--------|--------|--------|--------|--------|--------|--------|
F|--------|--------|--------|--------|--------|--------|--------|--------|--------|
C|--------|--------|--------|--------|--------|--------|--------|--------|--------|
G|--------|--------|--------|--------|--------|--------|--------|--------|--------|
C|--------|--------|--------|--------|--------|--------|--------|--------|--------|


D|--------|--------|--------|--------|--------|--------|--------|--------|--------|
A|--------|--------|--------|--------|--------|--------|--------|--------|--------|
F|--------|--------|--------|--------|--------|--------|--------|--------|--------|
C|--------|--------|--------|--------|--------|--------|--------|--------|--------|
G|--------|--------|--------|--------|--------|--------|--------|--------|--------|
C|--------|--------|--------|--------|--------|--------|--------|--------|--------|


D|--------|--------|--------|--------|--------|--------|--------|--------|--------|
A|--------|--------|--------|--------|--------|--------|--------|--------|--------|
F|--------|--------|--------|--------|--------|--------|--------|--------|--------|
C|--------|--------|--------|--------|--------|--------|--------|--------|--------|
G|--------|--------|--------|--------|--------|--------|--------|--------|--------|
C|--------|--------|--------|--------|--------|--------|--------|--------|--------|


D|--------|--------|--------|--------|--------|--------|--------|--------|--------|
A|--------|--------|--------|--------|--------|--------|--------|--------|--------|
F|--------|--------|--------|--------|--------|--------|--------|--------|--------|
C|--------|--------|--------|--------|--------|--------|--------|--------|--------|
G|--------|--------|--------|--------|--------|--------|--------|--------|--------|
C|--------|--------|--------|--------|--------|--------|--------|--------|--------|


D|--------|--------|--------|--------|--------|--------|--------|--------|--------|
A|--------|--------|--------|--------|--------|--------|--------|--------|--------|
F|--------|--------|--------|--------|--------|--------|--------|--------|--------|
C|--------|--------|--------|--------|--------|--------|--------|--------|--------|
G|--------|--------|--------|--------|--------|--------|--------|--------|--------|
C|--------|--------|--------|--------|--------|--------|--------|--------|--------|


D|--------|--------|--------|--------|--------|--------|--------|--------|--------|
A|--------|--------|--------|--------|--------|--------|--------|--------|--------|
F|--------|--------|--------|--------|--------|--------|--------|--------|--------|
C|--------|--------|--------|--------|--------|--------|--------|--------|--------|
G|--------|--------|--------|--------|--------|--------|--------|--------|--------|
C|--------|--------|--------|--------|--------|--------|--------|--------|--------|


D|--------|--------|--------|--------|--------|--------|--------|--------|--------|
A|--------|--------|--------|--------|--------|--------|--------|--------|--------|
F|--------|--------|--------|--------|--------|--------|--------|--------|--------|
C|--------|--------|--------|--------|--------|--------|--------|--------|--------|
G|--------|--------|--------|--------|--------|--------|--------|--------|--------|
C|--------|--------|--------|--------|--------|--------|--------|--------|--------|


D|--------|--------|--------|--------|--------|--------|--------|--------|--------|
A|--------|--------|--------|--------|--------|--------|--------|--------|--------|
F|--------|--------|--------|--------|--------|--------|--------|--------|--------|
C|--------|--------|--------|--------|--------|--------|--------|--------|--------|
G|--------|--------|--------|--------|--------|--------|--------|--------|--------|
C|--------|--------|--------|--------|--------|--------|--------|--------|--------|


D|--------|--------|--------|--------|--------|--------|--------|--------|--------|
A|--------|--------|--------|--------|--------|--------|--------|--------|--------|
F|--------|--------|--------|--------|--------|--------|--------|--------|--------|
C|--------|--------|--------|--------|--------|--------|--------|--------|--------|
G|--------|--------|--------|--------|--------|--------|--------|--------|--------|
C|--------|--------|--------|--------|--------|--------|--------|--------|--------|


D|---------------------------------|---------------------------------|---------------------------------|
A|---------------------------------|---------------------------------|-----10--------------------------|
F|-----------------10----------9---|---------10----------9-------10--|-------------------------10------|
C|---------12----------12----------|-12----------12----------12------|-12--------------7-----------7---|
G|-----0-------0-----------0-------|-----0-----------0---------------|-------------8-------8-----------|
C|-0-------------------------------|---------------------------------|---------8-----------------------|


D|---------------------------------|---------------------------------|---------------------------------|
A|---------------------------------|---------------------------------|---------------------------------|
F|-----9---------------------------|---------------------------------|-10----------9-----------10------|
C|---------7-------10--------------|-8-------8---7-----------12------|-----12----------12----------12--|
G|-8-----------8-------8-------8---|-----8---------------0-------0---|---------0-----------0-----------|
C|-------------------------8-------|-----------------0---------------|---------------------------------|


D|---------------------------------|---------------------------------|---------------------------------|
A|---------------------10----------|---------------------------------|---------------------------------|
F|-----9-------10------------------|---------10----------9-----------|---------------------------------|
C|---------12------12--------------|-7-----------7-----------7-------|-10--------------8-------8---7---|
G|-0---------------------------8---|-----8-----------8-----------8---|-----8-------8-------8-----------|
C|-------------------------8-------|---------------------------------|---------8-----------------------|


D|---------------------------------|---------------------------------|---------------------------------|
A|-----------------------------6---|---------------------------------|---------------------------------|
F|---------------------7-----------|-7-------------------------------|---------------------------------|
C|---------8-------8-------8-------|-----8---------------8-------7---|-----8-----------8-----------7---|
G|-----5-------5-------------------|---------5-------5-------5-------|-5-----------8-----------8-------|
C|-5-------------------------------|-------------5-------------------|---------8-----------8-----------|


D|---------------------------------|---------------------------------|---------------------------------|
A|---------------------------------|---------------------------------|-------------6-------------------|
F|-----------------------------10--|---------------------------------|-----7-----------7---------------|
C|---------------------7-----------|-8-------8---10----------8-------|-8-------8-----------8-----------|
G|-----8---10------8-------8-------|-----8---------------5-------5---|-------------------------5-------|
C|-8-----------8-------------------|-----------------5---------------|-----------------------------5---|


D|---------------------------------|---------------------------------|---------------------------------|
A|---------------------------------|---------------------------------|---------------------------------|
F|---------------------------------|---------------------------------|-------------10------------------|
C|-----8-------7-------8-----------|-8-----------7-------------------|-----7-----------8-------8---10--|
G|-5-------5-------5-----------8---|---------8-----------8---10------|-8-------8-----------8-----------|
C|-------------------------8-------|-----8-----------8-----------8---|---------------------------------|


D|---------------------------------|---------------------------------|---------------------------------|
A|---------------------------------|---------------------------------|---------------------------------|
F|---------------------------------|---------------------------------|---------------------------------|
C|---------10----------14------12--|-----10--------------------------|-10--------------7---------------|
G|-----10------10----------10------|-10------10------10--12--13--12--|-----10------7-------7---8-------|
C|-10--------------10--------------|-------------10------------------|---------7-------------------7---|


D|---------------------------------|---------------------------------|---------------------------------|
A|---------------------------------|---------------------------------|---------------------------------|
F|-----------------------------9---|-10--9---------------------------|---------------------------------|
C|-----10------------------7-------|---------7---------------10------|-----14------12------10----------|
G|-8-------8---7-------7-----------|-------------7-------10------10--|---------10------10------10------|
C|-----------------7---------------|-----------------10--------------|-10--------------------------10--|


D|---------------------------------|---------------------------------|---------------------------------|
A|---------------------------------|---------------------------------|---------------------------------|
F|---------------------------------|---------------------------------|-------------9---10--9-----------|
C|-----------------10--------------|-7-------------------10----------|---------7---------------7-------|
G|-10--12--13--12------10------7---|-----7---8-------8-------8---7---|-----7-----------------------7---|
C|-------------------------7-------|-------------7-------------------|-7-------------------------------|


D|---------------------------------|---------0-----------------------|---------0------|
A|-------------1-----------3-------|-0-----------1-------------------|---------1------|
F|---------2-------2-----------2---|-----2-----------2---------------|-2-------2------|
C|-----2---------------2-----------|---------------------2-------2---|-----2---2------|
G|-0-------------------------------|-------------------------0-------|---------0------|
C|---------------------------------|---------------------------------|----------------|


D|--------0----|-----------------------|---------------------------------|---------------------------------|
A|--------0----|-----------------------|---------------------------------|---------------------10----------|
F|--------2----|-----------------------|-10----------9-----------10------|-----9-------10------------------|
C|--------2----|---------------12------|-----12----------12----------12--|---------12------12--------------|
G|--------0----|-----------0-------0---|---------0-----------0-----------|-0---------------------------8---|
C|-------------|-------0---------------|---------------------------------|-------------------------8-------|


D|---------------------------------|---------------------------------|---------------------------------|
A|---------------------------------|---------------------------------|---------------------------------|
F|---------10----------9-----------|---------------------------------|-----------------10----------9---|
C|-7-----------7-----------7-------|-10--------------8-------8---7---|---------12----------12----------|
G|-----8-----------8-----------8---|-----8-------8-------8-----------|-----0-------0-----------0-------|
C|---------------------------------|---------8-----------------------|-0-------------------------------|


D|---------------------------------|---------------------------------|---------------------------------|
A|---------------------------------|-----10--------------------------|---------------------------------|
F|---------10----------9-------10--|-------------------------10------|-----9---------------------------|
C|-12----------12----------12------|-12--------------7-----------7---|---------7-------10--------------|
G|-----0-----------0---------------|-------------8-------8-----------|-8-----------8-------8-------8---|
C|---------------------------------|---------8-----------------------|-------------------------8-------|


D|---------------------------------|---------------------------------|---------------------------------|
A|---------------------------------|-------------6-------------------|---------------------------------|
F|---------------------------------|-----7-----------7---------------|---------------------------------|
C|-8-------8---7-----------8-------|-8-------8-----------8-----------|-----8-------7-------8-----------|
G|-----8---------------5-------5---|-------------------------5-------|-5-------5-------5-----------8---|
C|-----------------5---------------|-----------------------------5---|-------------------------8-------|


D|---------------------------------|---------------------------------|---------------------------------|
A|---------------------------------|---------------------------------|-----------------------------6---|
F|---------------------------------|-------------10------------------|---------------------7-----------|
C|-8-----------7-------------------|-----7-----------8-------8---10--|---------8-------8-------8-------|
G|---------8-----------8---10------|-8-------8-----------8-----------|-----5-------5-------------------|
C|-----8-----------8-----------8---|---------------------------------|-5-------------------------------|


D|---------------------------------|---------------------------------|---------------------------------|
A|---------------------------------|---------------------------------|---------------------------------|
F|-7-------------------------------|---------------------------------|-----------------------------10--|
C|-----8---------------8-------7---|-----8-----------8-----------7---|---------------------7-----------|
G|---------5-------5-------5-------|-5-----------8-----------8-------|-----8---10------8-------8-------|
C|-------------5-------------------|---------8-----------8-----------|-8-----------8-------------------|


D|-----------------------|-------------|-----------------|-------------|-------------|
A|-----------------13----|-------13----|-------13---11---|--------11---|--------11---|
F|-----------------12----|-------12----|-------12---10---|--------10---|--------10---|
C|-8-------8---10--10----|-------10----|------------8----|--------8----|-------------|
G|-----8-----------10----|-------10----|------------8----|--------8----|-------------|
C|-----------------10----|-------10----|------------8----|--------8----|-------------|


D|---------------------------|---------------------------|---------------------------|
A|---------------------------|---------------------------|---------------------------|
F|-----------------7----9----|-----------------9----10---|-----------------10---12---|
C|---------8-----------------|---------10----------------|---------12----------------|
G|-----8-------8-------------|-----10------10------------|-----12------12------------|
C|-8-------------------------|-10------------------------|-12------------------------|


D|---------------------------------|---------------------------|---------------------------|
A|---------------------------------|---------------------------|---------------------------|
F|-----------------15--14--10--12--|-----------------7----9----|-----------------9----10---|
C|---------12----------------------|---------8-----------------|---------10----------------|
G|-----12------12------------------|-----8-------8-------------|-----10------10------------|
C|-12------------------------------|-8-------------------------|-10------------------------|


D|---------------------------|---------------------------------|---------------------------|
A|---------------------------|---------------------------------|---------------------------|
F|-----------------10---12---|-----------------15--14--10--12--|-----------------7----9----|
C|---------12----------------|---------12----------------------|---------8-----------------|
G|-----12------12------------|-----12------12------------------|-----8-------8-------------|
C|-12------------------------|-12------------------------------|-8-------------------------|


D|---------------------------|---------------------------|---------------------------------|
A|---------------------------|---------------------------|---------------------------------|
F|-----------------9----10---|-----------------10---12---|-----------------15--14--10--12--|
C|---------10----------------|---------12----------------|---------12----------------------|
G|-----10------10------------|-----12------12------------|-----12------12------------------|
C|-10------------------------|-12------------------------|-12------------------------------|


D|---------------------------|---------------------------|---------------------------|
A|---------------------------|---------------------------|---------------------------|
F|-----------------7----9----|-----------------9----10---|-----------------10---12---|
C|---------8-----------------|---------10----------------|---------12----------------|
G|-----8-------8-------------|-----10------10------------|-----12------12------------|
C|-8-------------------------|-10------------------------|-12------------------------|


D|---------------------------------|---------------------------|---------------------------|
A|---------------------------------|---------------------------|---------------------------|
F|-----------------15--14--10--12--|-----------------7----9----|-----------------9----10---|
C|---------12----------------------|---------8-----------------|---------10----------------|
G|-----12------12------------------|-----8-------8-------------|-----10------10------------|
C|-12------------------------------|-8-------------------------|-10------------------------|


D|---------------------------|---------------------------------|---------------------------|
A|---------------------------|---------------------------------|---------------------------|
F|-----------------10---12---|-----------------15--14--10--12--|-----------------7----9----|
C|---------12----------------|---------12----------------------|---------8-----------------|
G|-----12------12------------|-----12------12------------------|-----8-------8-------------|
C|-12------------------------|-12------------------------------|-8-------------------------|


D|---------------------------|---------------------------|---------------------------------|
A|---------------------------|---------------------------|---------------------------------|
F|-----------------9----10---|-----------------10---12---|-----------------15--14--10--12--|
C|---------10----------------|---------12----------------|---------12----------------------|
G|-----10------10------------|-----12------12------------|-----12------12------------------|
C|-10------------------------|-12------------------------|-12------------------------------|


D|---------------------------|---------------------------|---------------------------|
A|---------------------------|---------------------------|---------------------------|
F|-----------------7----9----|-----------------9----10---|-----------------10---12---|
C|---------8-----------------|---------10----------------|---------12----------------|
G|-----8-------8-------------|-----10------10------------|-----12------12------------|
C|-8-------------------------|-10------------------------|-12------------------------|


D|---------------------------------|---------------------------|---------------------------|
A|---------------------------------|---------------------------|---------------------------|
F|-----------------15--14--10--12--|-----------------7----9----|-----------------9----10---|
C|---------12----------------------|---------8-----------------|---------10----------------|
G|-----12------12------------------|-----8-------8-------------|-----10------10------------|
C|-12------------------------------|-8-------------------------|-10------------------------|


D|---------------------------|---------------------------------|---------------------------|
A|---------------------------|---------------------------------|---------------------------|
F|-----------------10---12---|-----------------15--14--10--12--|-----------------7----9----|
C|---------12----------------|---------12----------------------|---------8-----------------|
G|-----12------12------------|-----12------12------------------|-----8-------8-------------|
C|-12------------------------|-12------------------------------|-8-------------------------|


D|---------------------------|---------------------------|---------------------------------|
A|---------------------------|---------------------------|---------------------------------|
F|-----------------9----10---|-----------------10---12---|-----------------15--14--10--12--|
C|---------10----------------|---------12----------------|---------12----------------------|
G|-----10------10------------|-----12------12------------|-----12------12------------------|
C|-10------------------------|-12------------------------|-12------------------------------|


D|---------------------------|---------------------------|---------------------------|
A|---------------------------|---------------------------|---------------------------|
F|-----------------7----9----|-----------------9----10---|-----------------10---12---|
C|---------8-----------------|---------10----------------|---------12----------------|
G|-----8-------8-------------|-----10------10------------|-----12------12------------|
C|-8-------------------------|-10------------------------|-12------------------------|


D|---------------------------------|--------|--------|--------|--------|--------|--------|
A|---------------------------------|--------|--------|--------|--------|--------|--------|
F|-----------------15--14--10--12--|--------|--------|--------|--------|--------|--------|
C|---------12----------------------|--------|--------|--------|--------|--------|--------|
G|-----12------12------------------|--------|--------|--------|--------|--------|--------|
C|-12------------------------------|--------|--------|--------|--------|--------|--------|


D|--------|--------|--------|--------|--------|--------|--------|--------|--------|
A|--------|--------|--------|--------|--------|--------|--------|--------|--------|
F|--------|--------|--------|--------|--------|--------|--------|--------|--------|
C|--------|--------|--------|--------|--------|--------|--------|--------|--------|
G|--------|--------|--------|--------|--------|--------|--------|--------|--------|
C|--------|--------|--------|--------|--------|--------|--------|--------|--------|


D|--------|--------|--------|--------|--------|--------|--------|--------|--------|
A|--------|--------|--------|--------|--------|--------|--------|--------|--------|
F|--------|--------|--------|--------|--------|--------|--------|--------|--------|
C|--------|--------|--------|--------|--------|--------|--------|--------|--------|
G|--------|--------|--------|--------|--------|--------|--------|--------|--------|
C|--------|--------|--------|--------|--------|--------|--------|--------|--------|


D|--------|--------|--------|--------|--------|--------|--------|--------|--------|
A|--------|--------|--------|--------|--------|--------|--------|--------|--------|
F|--------|--------|--------|--------|--------|--------|--------|--------|--------|
C|--------|--------|--------|--------|--------|--------|--------|--------|--------|
G|--------|--------|--------|--------|--------|--------|--------|--------|--------|
C|--------|--------|--------|--------|--------|--------|--------|--------|--------|


D|--------|--------|--------|--------|--------|--------|--------|--------|--------|
A|--------|--------|--------|--------|--------|--------|--------|--------|--------|
F|--------|--------|--------|--------|--------|--------|--------|--------|--------|
C|--------|--------|--------|--------|--------|--------|--------|--------|--------|
G|--------|--------|--------|--------|--------|--------|--------|--------|--------|
C|--------|--------|--------|--------|--------|--------|--------|--------|--------|


D|--------|--------|--------|--------|--------|--------|--------|--------|--------|
A|--------|--------|--------|--------|--------|--------|--------|--------|--------|
F|--------|--------|--------|--------|--------|--------|--------|--------|--------|
C|--------|--------|--------|--------|--------|--------|--------|--------|--------|
G|--------|--------|--------|--------|--------|--------|--------|--------|--------|
C|--------|--------|--------|--------|--------|--------|--------|--------|--------|


D|--------|--------|--------|--------|--------|--------|--------|--------|--------|
A|--------|--------|--------|--------|--------|--------|--------|--------|--------|
F|--------|--------|--------|--------|--------|--------|--------|--------|--------|
C|--------|--------|--------|--------|--------|--------|--------|--------|--------|
G|--------|--------|--------|--------|--------|--------|--------|--------|--------|
C|--------|--------|--------|--------|--------|--------|--------|--------|--------|


D|--------|--------|--------|--------|--------|--------|--------|--------|--------|
A|--------|--------|--------|--------|--------|--------|--------|--------|--------|
F|--------|--------|--------|--------|--------|--------|--------|--------|--------|
C|--------|--------|--------|--------|--------|--------|--------|--------|--------|
G|--------|--------|--------|--------|--------|--------|--------|--------|--------|
C|--------|--------|--------|--------|--------|--------|--------|--------|--------|


D|--------|--------|--------|--------|--------|--------|--------|--------|--------|
A|--------|--------|--------|--------|--------|--------|--------|--------|--------|
F|--------|--------|--------|--------|--------|--------|--------|--------|--------|
C|--------|--------|--------|--------|--------|--------|--------|--------|--------|
G|--------|--------|--------|--------|--------|--------|--------|--------|--------|
C|--------|--------|--------|--------|--------|--------|--------|--------|--------|


D|--------|--------|--------|--------|--------|--------|--------|--------|--------|
A|--------|--------|--------|--------|--------|--------|--------|--------|--------|
F|--------|--------|--------|--------|--------|--------|--------|--------|--------|
C|--------|--------|--------|--------|--------|--------|--------|--------|--------|
G|--------|--------|--------|--------|--------|--------|--------|--------|--------|
C|--------|--------|--------|--------|--------|--------|--------|--------|--------|


D|--------|--------|--------|--------|--------|--------|--------|--------|--------|
A|--------|--------|--------|--------|--------|--------|--------|--------|--------|
F|--------|--------|--------|--------|--------|--------|--------|--------|--------|
C|--------|--------|--------|--------|--------|--------|--------|--------|--------|
G|--------|--------|--------|--------|--------|--------|--------|--------|--------|
C|--------|--------|--------|--------|--------|--------|--------|--------|--------|


D|--------|--------|--------|--------|--------|--------|--------|--------|--------|
A|--------|--------|--------|--------|--------|--------|--------|--------|--------|
F|--------|--------|--------|--------|--------|--------|--------|--------|--------|
C|--------|--------|--------|--------|--------|--------|--------|--------|--------|
G|--------|--------|--------|--------|--------|--------|--------|--------|--------|
C|--------|--------|--------|--------|--------|--------|--------|--------|--------|


D|--------|--------|--------|--------|--------|--------|--------|--------|--------|
A|--------|--------|--------|--------|--------|--------|--------|--------|--------|
F|--------|--------|--------|--------|--------|--------|--------|--------|--------|
C|--------|--------|--------|--------|--------|--------|--------|--------|--------|
G|--------|--------|--------|--------|--------|--------|--------|--------|--------|
C|--------|--------|--------|--------|--------|--------|--------|--------|--------|


D|--------|--------|--------|--------|--------|--------|--------|--------|--------|
A|--------|--------|--------|--------|--------|--------|--------|--------|--------|
F|--------|--------|--------|--------|--------|--------|--------|--------|--------|
C|--------|--------|--------|--------|--------|--------|--------|--------|--------|
G|--------|--------|--------|--------|--------|--------|--------|--------|--------|
C|--------|--------|--------|--------|--------|--------|--------|--------|--------|


D|--------|--------|-----------------------|-----------------------|-----------------------|
A|--------|--------|-3---3---3---3---------|-1---1---1---1---------|-3---3---3---3---------|
F|--------|--------|-2---2---2---2---------|-2---2---2---2---------|-2---2---2---2---------|
C|--------|--------|-0---0---0---0---------|-0---0---0---0---------|-0---0---0---0---------|
G|--------|--------|-----------------------|-----------------------|-----------------------|
C|--------|--------|-----------------------|-----------------------|-----------------------|


D|-----------------------|-----------------------|-----------------------|-----------------------|
A|-1---1---1---1---------|-3---3---3---3---------|-1---1---1---1---------|-3---3---3---3---------|
F|-2---2---2---2---------|-2---2---2---2---------|-2---2---2---2---------|-2---2---2---2---------|
C|-0---0---0---0---------|-0---0---0---0---------|-0---0---0---0---------|-0---0---0---0---------|
G|-----------------------|-----------------------|-----------------------|-----------------------|
C|-----------------------|-----------------------|-----------------------|-----------------------|


D|-----------------------|---------------------------|---------------------------|
A|-1---1---1---1---------|-3----3---3---3---3---3----|-1----1---1---1---1---1----|
F|-2---2---2---2---------|-2----2---2---2---2---2----|-2----2---2---2---2---2----|
C|-0---0---0---0---------|-0----0---0---0---0---0----|-0----0---0---0---0---0----|
G|-----------------------|---------------------------|---------------------------|
C|-----------------------|---------------------------|---------------------------|


D|---------------------------|---------------------------|---------------------------|
A|-1----1----1---1---1---1---|-1----1----1---1---1---1---|-3----3---3---3---3---3----|
F|-2----2----2---2---2---2---|-2----2----2---2---2---2---|-2----2---2---2---2---2----|
C|-3----3----3---3---3---3---|-3----3----3---3---3---3---|-0----0---0---0---0---0----|
G|---------------------------|---------------------------|---------------------------|
C|---------------------------|---------------------------|---------------------------|


D|---------------------------|---------------------------|---------------------------|
A|-1----1---1---1---1---1----|-1----1----1---1---1---1---|-1----1----1---1---1---1---|
F|-2----2---2---2---2---2----|-2----2----2---2---2---2---|-2----2----2---2---2---2---|
C|-0----0---0---0---0---0----|-3----3----3---3---3---3---|-3----3----3---3---3---3---|
G|---------------------------|---------------------------|---------------------------|
C|---------------------------|---------------------------|---------------------------|


D|------------------------|------------------------|------------------------|------------------------|
A|-3----3---3---3----3----|-3----3---3---3----3----|-3----3---3---3----3----|-3----3---3---3----3----|
F|-2----2---2---2----2----|-2----2---2---2----2----|-0----0---0---0----0----|-0----0---0---0----0----|
C|-3----3---3---3----3----|-3----3---3---3----3----|-2----2---2---2----2----|-2----2---2---2----2----|
G|-1----1---1---1----1----|-1----1---1---1----1----|-3----3---3---3----3----|-3----3---3---3----3----|
C|------------------------|------------------------|------------------------|------------------------|


D|------------------------|--------------3----3----|------------------------|--------------0----0----|
A|-3----3---3---3----3----|-3----3---3---3----3----|-1----1---1---1----1----|-1----1---1---1----1----|
F|-2----2---2---2----2----|-2----2---2---2----2----|-2----2---2---2----2----|-2----2---2---2----2----|
C|-0----0---0---0----0----|-0----0---0---0----0----|-0----0---0---0----0----|-0----0---0---0----0----|
G|-0----0---0---0----0----|-0----0---0---0----0----|-0----0---0---0----0----|-0----0---0---0----0----|
C|-0----0---0---0----0----|-0----0---0---0----0----|-0----0---0---0----0----|-0----0---0---0----0----|


D|------------------------|------------------------|------------------------|------------------------|
A|-3----3---3---3----3----|-3----3---3---3----3----|-3----3---3---3----3----|-3----3---3---3----3----|
F|-2----2---2---2----2----|-2----2---2---2----2----|-0----0---0---0----0----|-0----0---0---0----0----|
C|-3----3---3---3----3----|-3----3---3---3----3----|-2----2---2---2----2----|-2----2---2---2----2----|
G|-1----1---1---1----1----|-1----1---1---1----1----|-3----3---3---3----3----|-3----3---3---3----3----|
C|------------------------|------------------------|------------------------|------------------------|


D|------------------------|--------------3----3----|------------------------|--------------0----0----|
A|-3----3---3---3----3----|-3----3---3---3----3----|-1----1---1---1----1----|-1----1---1---1----1----|
F|-2----2---2---2----2----|-2----2---2---2----2----|-2----2---2---2----2----|-2----2---2---2----2----|
C|-0----0---0---0----0----|-0----0---0---0----0----|-0----0---0---0----0----|-0----0---0---0----0----|
G|-0----0---0---0----0----|-0----0---0---0----0----|-0----0---0---0----0----|-0----0---0---0----0----|
C|-0----0---0---0----0----|-0----0---0---0----0----|-0----0---0---0----0----|-0----0---0---0----0----|


D|--------|--------|--------|
A|-3------|-3------|-3------|
F|-2------|-2------|-2------|
C|-0------|-0------|-0------|
G|-0------|-0------|-0------|
C|-0------|-0------|-0------|





Track 9: clean2

D|--------|--------|--------|--------|--------|--------|--------|--------|--------|
A|--------|--------|--------|--------|--------|--------|--------|--------|--------|
F|--------|--------|--------|--------|--------|--------|--------|--------|--------|
C|--------|--------|--------|--------|--------|--------|--------|--------|--------|
G|--------|--------|--------|--------|--------|--------|--------|--------|--------|
C|--------|--------|--------|--------|--------|--------|--------|--------|--------|


D|--------|--------|--------|--------|--------|--------|--------|--------|--------|
A|--------|--------|--------|--------|--------|--------|--------|--------|--------|
F|--------|--------|--------|--------|--------|--------|--------|--------|--------|
C|--------|--------|--------|--------|--------|--------|--------|--------|--------|
G|--------|--------|--------|--------|--------|--------|--------|--------|--------|
C|--------|--------|--------|--------|--------|--------|--------|--------|--------|


D|--------|--------|--------|--------|--------|--------|--------|--------|--------|
A|--------|--------|--------|--------|--------|--------|--------|--------|--------|
F|--------|--------|--------|--------|--------|--------|--------|--------|--------|
C|--------|--------|--------|--------|--------|--------|--------|--------|--------|
G|--------|--------|--------|--------|--------|--------|--------|--------|--------|
C|--------|--------|--------|--------|--------|--------|--------|--------|--------|


D|--------|--------|--------|--------|--------|--------|--------|--------|--------|
A|--------|--------|--------|--------|--------|--------|--------|--------|--------|
F|--------|--------|--------|--------|--------|--------|--------|--------|--------|
C|--------|--------|--------|--------|--------|--------|--------|--------|--------|
G|--------|--------|--------|--------|--------|--------|--------|--------|--------|
C|--------|--------|--------|--------|--------|--------|--------|--------|--------|


D|--------|--------|--------|--------|--------|--------|--------|--------|--------|
A|--------|--------|--------|--------|--------|--------|--------|--------|--------|
F|--------|--------|--------|--------|--------|--------|--------|--------|--------|
C|--------|--------|--------|--------|--------|--------|--------|--------|--------|
G|--------|--------|--------|--------|--------|--------|--------|--------|--------|
C|--------|--------|--------|--------|--------|--------|--------|--------|--------|


D|--------|--------|--------|--------|--------|--------|--------|--------|--------|
A|--------|--------|--------|--------|--------|--------|--------|--------|--------|
F|--------|--------|--------|--------|--------|--------|--------|--------|--------|
C|--------|--------|--------|--------|--------|--------|--------|--------|--------|
G|--------|--------|--------|--------|--------|--------|--------|--------|--------|
C|--------|--------|--------|--------|--------|--------|--------|--------|--------|


D|--------|--------|--------|--------|--------|--------|--------|--------|--------|
A|--------|--------|--------|--------|--------|--------|--------|--------|--------|
F|--------|--------|--------|--------|--------|--------|--------|--------|--------|
C|--------|--------|--------|--------|--------|--------|--------|--------|--------|
G|--------|--------|--------|--------|--------|--------|--------|--------|--------|
C|--------|--------|--------|--------|--------|--------|--------|--------|--------|


D|--------|--------|--------|--------|--------|--------|--------|--------|--------|
A|--------|--------|--------|--------|--------|--------|--------|--------|--------|
F|--------|--------|--------|--------|--------|--------|--------|--------|--------|
C|--------|--------|--------|--------|--------|--------|--------|--------|--------|
G|--------|--------|--------|--------|--------|--------|--------|--------|--------|
C|--------|--------|--------|--------|--------|--------|--------|--------|--------|


D|--------|--------|--------|--------|--------|--------|--------|--------|--------|
A|--------|--------|--------|--------|--------|--------|--------|--------|--------|
F|--------|--------|--------|--------|--------|--------|--------|--------|--------|
C|--------|--------|--------|--------|--------|--------|--------|--------|--------|
G|--------|--------|--------|--------|--------|--------|--------|--------|--------|
C|--------|--------|--------|--------|--------|--------|--------|--------|--------|


D|--------|--------|--------|--------|--------|--------|--------|--------|--------|
A|--------|--------|--------|--------|--------|--------|--------|--------|--------|
F|--------|--------|--------|--------|--------|--------|--------|--------|--------|
C|--------|--------|--------|--------|--------|--------|--------|--------|--------|
G|--------|--------|--------|--------|--------|--------|--------|--------|--------|
C|--------|--------|--------|--------|--------|--------|--------|--------|--------|


D|--------|--------|--------|--------|--------|--------|--------|--------|--------|
A|--------|--------|--------|--------|--------|--------|--------|--------|--------|
F|--------|--------|--------|--------|--------|--------|--------|--------|--------|
C|--------|--------|--------|--------|--------|--------|--------|--------|--------|
G|--------|--------|--------|--------|--------|--------|--------|--------|--------|
C|--------|--------|--------|--------|--------|--------|--------|--------|--------|


D|--------|--------|--------|--------|--------|--------|--------|--------|--------|
A|--------|--------|--------|--------|--------|--------|--------|--------|--------|
F|--------|--------|--------|--------|--------|--------|--------|--------|--------|
C|--------|--------|--------|--------|--------|--------|--------|--------|--------|
G|--------|--------|--------|--------|--------|--------|--------|--------|--------|
C|--------|--------|--------|--------|--------|--------|--------|--------|--------|


D|--------|--------|--------|--------|--------|--------|--------|--------|--------|
A|--------|--------|--------|--------|--------|--------|--------|--------|--------|
F|--------|--------|--------|--------|--------|--------|--------|--------|--------|
C|--------|--------|--------|--------|--------|--------|--------|--------|--------|
G|--------|--------|--------|--------|--------|--------|--------|--------|--------|
C|--------|--------|--------|--------|--------|--------|--------|--------|--------|


D|--------|--------|--------|--------|--------|--------|--------|--------|--------|
A|--------|--------|--------|--------|--------|--------|--------|--------|--------|
F|--------|--------|--------|--------|--------|--------|--------|--------|--------|
C|--------|--------|--------|--------|--------|--------|--------|--------|--------|
G|--------|--------|--------|--------|--------|--------|--------|--------|--------|
C|--------|--------|--------|--------|--------|--------|--------|--------|--------|


D|--------|------------|----------------|-----------------|-----------------|-----------------|
A|--------|------------|----------------|-----------------|-----------------|-----------------|
F|--------|-----7------|-----7---12-----|------12---------|-----------------|-----------7-----|
C|-7------|-7----------|----------------|----------12-----|-------12--7-----|-------7---------|
G|--------|------------|----------------|-----------------|-----------------|-----------------|
C|--------|------------|----------------|-----------------|-----------------|-----------------|


D|--------------------|----------------|----------------|--------|----------------|
A|--------------------|----------------|----------------|-8------|-6---5----------|
F|-----------7---12---|--------12------|----------------|--------|---------7------|
C|--------------------|------------12--|------------12--|--------|----------------|
G|--------------------|----------------|----------------|--------|----------------|
C|--------------------|----------------|----------------|--------|----------------|


D|--------------------|------------------------|-----------------|--------------------|
A|--------------------|------------------------|-----------8-----|-------6---5--------|
F|--------------10----|------10----------------|-----------------|---------------7----|
C|------7---8---------|----------7---8---7-----|-------7---------|--------------------|
G|--------------------|------------------------|-----------------|--------------------|
C|--------------------|------------------------|-----------------|--------------------|


D|----------------|----------------|----------------|---------------------|--------|
A|----------------|----------------|----------------|---------------------|--------|
F|----------------|-10-----10------|----------------|-10---9--------------|--------|
C|--------7---8---|------------7---|-8---7------7---|-----------7----8----|--------|
G|----------------|----------------|----------------|---------------------|--------|
C|----------------|----------------|----------------|---------------------|--------|


D|---------------------|--------|-----------------|-------------|-------------|-----------------|
A|---------------------|--------|-----------------|-------------|-------------|-----------------|
F|------10---9---------|--------|-------10---9----|-------------|--------10---|-9---------------|
C|----------------12---|-10-----|-----------------|-7----8------|-------------|------12---10----|
G|---------------------|--------|-----------------|-------------|-------------|-----------------|
C|---------------------|--------|-----------------|-------------|-------------|-----------------|


D|--------|-------------|--------|-------------|-------------|-----------------|-----------------|
A|--------|-------------|--------|-------------|-------------|-----------------|-----------------|
F|--------|-------------|--------|-------------|-------------|-----------------|-----------7-----|
C|--------|-------------|--------|-------------|-------------|-----------7-----|-------7---------|
G|--------|-8-----7-----|-5------|-5----0------|------0------|------0----------|-----------------|
C|--------|-------------|--------|-------------|-------------|-----------------|-----------------|


D|--------------------|----------------|----------------|--------|------------|----------------|
A|--------------------|----------------|----------------|--------|------------|----------------|
F|-----------7---12---|--------12------|----------------|--------|-----7------|-----7---12-----|
C|--------------------|------------12--|------------12--|-7------|-7----------|----------------|
G|--------------------|----------------|----------------|--------|------------|----------------|
C|--------------------|----------------|----------------|--------|------------|----------------|


D|-----------------|-----------------|--------------------|----------------|----------------|
A|-----------------|-----------8-----|-------6---5--------|----------------|----------------|
F|------12---------|-----------------|---------------7----|----------------|-10-----10------|
C|----------12-----|-------12--------|--------------------|--------7---8---|------------7---|
G|-----------------|-----------------|--------------------|----------------|----------------|
C|-----------------|-----------------|--------------------|----------------|----------------|


D|----------------|--------|----------------|--------------------|------------------------|
A|----------------|-8------|-6---5----------|--------------------|------------------------|
F|----------------|--------|---------7------|--------------10----|------10----------------|
C|-8---7------7---|--------|----------------|------7---8---------|----------7---8---7-----|
G|----------------|--------|----------------|--------------------|------------------------|
C|----------------|--------|----------------|--------------------|------------------------|


D|-----------------|-------------|-------------|-------------|-------------|-----------------------|
A|-----------------|-------------|-------------|-------------|-------------|-----------------------|
F|-----------------|-------------|-------------|-------------|-------------|---------7-------------|
C|-------7---------|------12-----|--------8----|-------------|-------------|-------------7-----7---|
G|-----------------|-------------|-10----------|-------12----|------13-----|-----8-----------------|
C|-----------10----|-------------|-------------|-------------|-------------|-8---------------------|


D|-----------------------|-----------------------|-----------------------|-----------------------|
A|-----------------------|-----------------------|-----------------------|-----------------------|
F|---------9-------------|---------10------------|-----------------------|---------7-------------|
C|-------------8-----8---|-------------10----10--|---------15--14----14--|-------------7-----7---|
G|-----10----------------|-----12----------------|-----12----------------|-----8-----------------|
C|-10--------------------|-12--------------------|-12--------------------|-8---------------------|


D|-----------------------|-----------------------|-----------------------|---------------------------|
A|-----------------------|-----------------------|-----------------------|-----------------6----8----|
F|---------9-------------|---------10------------|-----------------------|---------------------------|
C|-------------8-----8---|-------------10----10--|---------15--14----14--|-8-------------------------|
G|-----10----------------|-----12----------------|-----12----------------|-----8-------8-------------|
C|-10--------------------|-12--------------------|-12--------------------|---------8-----------------|


D|---------------------------|---------------------------|---------------------------------|
A|-----------------8----10---|-----------------10---11---|-----------------15--13--10--11--|
F|---------------------------|---------------------------|---------------------------------|
C|-10------------------------|-12------------------------|-12------------------------------|
G|-----10------10------------|-----12------12------------|-----12------12------------------|
C|---------10----------------|---------12----------------|---------12----------------------|


D|---------------------------|---------------------------|---------------------------|
A|-----------------6----8----|-----------------8----10---|-----------------10---11---|
F|---------------------------|---------------------------|---------------------------|
C|-8-------------------------|-10------------------------|-12------------------------|
G|-----8-------8-------------|-----10------10------------|-----12------12------------|
C|---------8-----------------|---------10----------------|---------12----------------|


D|---------------------------------|---------------------------|---------------------------|
A|-----------------15--13--10--11--|-----------------6----8----|-----------------8----10---|
F|---------------------------------|---------------------------|---------------------------|
C|-12------------------------------|-8-------------------------|-10------------------------|
G|-----12------12------------------|-----8-------8-------------|-----10------10------------|
C|---------12----------------------|---------8-----------------|---------10----------------|


D|---------------------------|---------------------------------|---------------------------|
A|-----------------10---11---|-----------------15--13--10--11--|-----------------6----8----|
F|---------------------------|---------------------------------|---------------------------|
C|-12------------------------|-12------------------------------|-8-------------------------|
G|-----12------12------------|-----12------12------------------|-----8-------8-------------|
C|---------12----------------|---------12----------------------|---------8-----------------|


D|---------------------------|---------------------------|---------------------------------|
A|-----------------8----10---|-----------------10---11---|-----------------15--13--10--11--|
F|---------------------------|---------------------------|---------------------------------|
C|-10------------------------|-12------------------------|-12------------------------------|
G|-----10------10------------|-----12------12------------|-----12------12------------------|
C|---------10----------------|---------12----------------|---------12----------------------|


D|---------------------------|---------------------------|---------------------------|
A|-----------------6----8----|-----------------8----10---|-----------------10---11---|
F|---------------------------|---------------------------|---------------------------|
C|-8-------------------------|-10------------------------|-12------------------------|
G|-----8-------8-------------|-----10------10------------|-----12------12------------|
C|---------8-----------------|---------10----------------|---------12----------------|


D|---------------------------------|---------------------------|---------------------------|
A|-----------------15--13--10--11--|-----------------6----8----|-----------------8----10---|
F|---------------------------------|---------------------------|---------------------------|
C|-12------------------------------|-8-------------------------|-10------------------------|
G|-----12------12------------------|-----8-------8-------------|-----10------10------------|
C|---------12----------------------|---------8-----------------|---------10----------------|


D|---------------------------|---------------------------------|---------------------------|
A|-----------------10---11---|-----------------15--13--10--11--|-----------------6----8----|
F|---------------------------|---------------------------------|---------------------------|
C|-12------------------------|-12------------------------------|-8-------------------------|
G|-----12------12------------|-----12------12------------------|-----8-------8-------------|
C|---------12----------------|---------12----------------------|---------8-----------------|


D|---------------------------|---------------------------|---------------------------------|
A|-----------------8----10---|-----------------10---11---|-----------------15--13--10--11--|
F|---------------------------|---------------------------|---------------------------------|
C|-10------------------------|-12------------------------|-12------------------------------|
G|-----10------10------------|-----12------12------------|-----12------12------------------|
C|---------10----------------|---------12----------------|---------12----------------------|


D|---------------------------|---------------------------|---------------------------|
A|-----------------6----8----|-----------------8----10---|-----------------10---11---|
F|---------------------------|---------------------------|---------------------------|
C|-8-------------------------|-10------------------------|-12------------------------|
G|-----8-------8-------------|-----10------10------------|-----12------12------------|
C|---------8-----------------|---------10----------------|---------12----------------|


D|---------------------------------|--------|--------|--------|--------|--------|--------|
A|-----------------15--13--10--11--|--------|--------|--------|--------|--------|--------|
F|---------------------------------|--------|--------|--------|--------|--------|--------|
C|-12------------------------------|--------|--------|--------|--------|--------|--------|
G|-----12------12------------------|--------|--------|--------|--------|--------|--------|
C|---------12----------------------|--------|--------|--------|--------|--------|--------|


D|--------|--------|--------|--------|--------|--------|--------|--------|--------|
A|--------|--------|--------|--------|--------|--------|--------|--------|--------|
F|--------|--------|--------|--------|--------|--------|--------|--------|--------|
C|--------|--------|--------|--------|--------|--------|--------|--------|--------|
G|--------|--------|--------|--------|--------|--------|--------|--------|--------|
C|--------|--------|--------|--------|--------|--------|--------|--------|--------|


D|--------|--------|--------|--------|--------|--------|--------|--------|--------|
A|--------|--------|--------|--------|--------|--------|--------|--------|--------|
F|--------|--------|--------|--------|--------|--------|--------|--------|--------|
C|--------|--------|--------|--------|--------|--------|--------|--------|--------|
G|--------|--------|--------|--------|--------|--------|--------|--------|--------|
C|--------|--------|--------|--------|--------|--------|--------|--------|--------|


D|--------|--------|--------|--------|--------|--------|--------|--------|--------|
A|--------|--------|--------|--------|--------|--------|--------|--------|--------|
F|--------|--------|--------|--------|--------|--------|--------|--------|--------|
C|--------|--------|--------|--------|--------|--------|--------|--------|--------|
G|--------|--------|--------|--------|--------|--------|--------|--------|--------|
C|--------|--------|--------|--------|--------|--------|--------|--------|--------|


D|--------|--------|--------|--------|--------|--------|--------|--------|--------|
A|--------|--------|--------|--------|--------|--------|--------|--------|--------|
F|--------|--------|--------|--------|--------|--------|--------|--------|--------|
C|--------|--------|--------|--------|--------|--------|--------|--------|--------|
G|--------|--------|--------|--------|--------|--------|--------|--------|--------|
C|--------|--------|--------|--------|--------|--------|--------|--------|--------|


D|--------|--------|--------|--------|--------|--------|--------|--------|--------|
A|--------|--------|--------|--------|--------|--------|--------|--------|--------|
F|--------|--------|--------|--------|--------|--------|--------|--------|--------|
C|--------|--------|--------|--------|--------|--------|--------|--------|--------|
G|--------|--------|--------|--------|--------|--------|--------|--------|--------|
C|--------|--------|--------|--------|--------|--------|--------|--------|--------|


D|--------|--------|--------|--------|--------|--------|--------|--------|--------|
A|--------|--------|--------|--------|--------|--------|--------|--------|--------|
F|--------|--------|--------|--------|--------|--------|--------|--------|--------|
C|--------|--------|--------|--------|--------|--------|--------|--------|--------|
G|--------|--------|--------|--------|--------|--------|--------|--------|--------|
C|--------|--------|--------|--------|--------|--------|--------|--------|--------|


D|--------|--------|--------|--------|--------|--------|--------|--------|--------|
A|--------|--------|--------|--------|--------|--------|--------|--------|--------|
F|--------|--------|--------|--------|--------|--------|--------|--------|--------|
C|--------|--------|--------|--------|--------|--------|--------|--------|--------|
G|--------|--------|--------|--------|--------|--------|--------|--------|--------|
C|--------|--------|--------|--------|--------|--------|--------|--------|--------|


D|--------|--------|--------|--------|--------|--------|--------|--------|--------|
A|--------|--------|--------|--------|--------|--------|--------|--------|--------|
F|--------|--------|--------|--------|--------|--------|--------|--------|--------|
C|--------|--------|--------|--------|--------|--------|--------|--------|--------|
G|--------|--------|--------|--------|--------|--------|--------|--------|--------|
C|--------|--------|--------|--------|--------|--------|--------|--------|--------|


D|--------|--------|--------|--------|--------|--------|--------|--------|--------|
A|--------|--------|--------|--------|--------|--------|--------|--------|--------|
F|--------|--------|--------|--------|--------|--------|--------|--------|--------|
C|--------|--------|--------|--------|--------|--------|--------|--------|--------|
G|--------|--------|--------|--------|--------|--------|--------|--------|--------|
C|--------|--------|--------|--------|--------|--------|--------|--------|--------|


D|--------|--------|--------|--------|--------|--------|--------|--------|--------|
A|--------|--------|--------|--------|--------|--------|--------|--------|--------|
F|--------|--------|--------|--------|--------|--------|--------|--------|--------|
C|--------|--------|--------|--------|--------|--------|--------|--------|--------|
G|--------|--------|--------|--------|--------|--------|--------|--------|--------|
C|--------|--------|--------|--------|--------|--------|--------|--------|--------|


D|--------|--------|--------|--------|--------|--------|--------|--------|--------|
A|--------|--------|--------|--------|--------|--------|--------|--------|--------|
F|--------|--------|--------|--------|--------|--------|--------|--------|--------|
C|--------|--------|--------|--------|--------|--------|--------|--------|--------|
G|--------|--------|--------|--------|--------|--------|--------|--------|--------|
C|--------|--------|--------|--------|--------|--------|--------|--------|--------|


D|--------|--------|--------|--------|--------|--------|--------|--------|--------|
A|--------|--------|--------|--------|--------|--------|--------|--------|--------|
F|--------|--------|--------|--------|--------|--------|--------|--------|--------|
C|--------|--------|--------|--------|--------|--------|--------|--------|--------|
G|--------|--------|--------|--------|--------|--------|--------|--------|--------|
C|--------|--------|--------|--------|--------|--------|--------|--------|--------|


D|--------|--------|--------|--------|--------|--------|--------|--------|--------|
A|--------|--------|--------|--------|--------|--------|--------|--------|--------|
F|--------|--------|--------|--------|--------|--------|--------|--------|--------|
C|--------|--------|--------|--------|--------|--------|--------|--------|--------|
G|--------|--------|--------|--------|--------|--------|--------|--------|--------|
C|--------|--------|--------|--------|--------|--------|--------|--------|--------|


D|--------|--------|--------|--------|--------|--------|--------|--------|--------|
A|--------|--------|--------|--------|--------|--------|--------|--------|--------|
F|--------|--------|--------|--------|--------|--------|--------|--------|--------|
C|--------|--------|--------|--------|--------|--------|--------|--------|--------|
G|--------|--------|--------|--------|--------|--------|--------|--------|--------|
C|--------|--------|--------|--------|--------|--------|--------|--------|--------|


D|--------|---------------------------------|---------------------------------|---------------------------------|
A|--------|---------------------------------|---------------------------------|---------------------------------|
F|--------|---------------------------------|---------------------------------|---------------------------------|
C|--------|-2---3---2---0-------2---3-------|-2---3---2---0-------2---3-------|-5---3---2---0-------3---5-------|
G|--------|-----------------3-----------1---|-----------------3-----------1---|-----------------1-----------3---|
C|--------|---------------------------------|---------------------------------|---------------------------------|


D|---------------------------------|---------------------------------|---------------------------------|
A|---------------------------------|---------------------------------|---------------------------------|
F|-3---2---------------------------|---------------------------------|---------------------------------|
C|---------5---3---2---3---5---0---|-2---3---2---0-------2---3-------|-2---3---2---0-------2---3-------|
G|---------------------------------|-----------------3-----------1---|-----------------3-----------1---|
C|---------------------------------|---------------------------------|---------------------------------|


D|---------------------------------|---------------------------------|-----------------6---------------|
A|---------------------------------|---------------------------------|-------------6-------6-----------|
F|---------------------------------|-3---2---------------------------|---------7---------------7-------|
C|-5---3---2---0-------3---5-------|---------5---3---2---3---5---0---|-----7-----------------------7---|
G|-----------------1-----------3---|---------------------------------|-5-------------------------------|
C|---------------------------------|---------------------------------|---------------------------------|


D|-----------------6---------------|-----------------8---------------|-----------------10--8-----------|
A|-------------6-------6-----------|-------------8-------8-----------|-------------8-----------10--8---|
F|---------7---------------7-------|---------9---------------9-------|---------9-----------------------|
C|-----7-----------------------7---|-----10----------------------10--|-----10--------------------------|
G|-5-------------------------------|-7-------------------------------|-7-------------------------------|
C|---------------------------------|---------------------------------|---------------------------------|


D|---------------------------------|---------------------------------|-----------------13--12--10------|
A|---------------------10--11--10--|---------------------10--11--10--|-------------10--------------10--|
F|-10--------------10--------------|-10--------------10--------------|-10------10----------------------|
C|-----10------10------------------|-----10------10------------------|-----10--------------------------|
G|---------8-----------------------|---------8-----------------------|---------------------------------|
C|---------------------------------|---------------------------------|---------------------------------|


D|---------------------------------|-----------------6---------------|-----------------6---------------|
A|---------------------------------|-------------6-------6-----------|-------------6-------6-----------|
F|-10------------------------------|---------7---------------7-------|---------7---------------7-------|
C|-----10--------------10--8---7---|-----7-----------------------7---|-----7-----------------------7---|
G|---------8---7---8---------------|-5-------------------------------|-5-------------------------------|
C|---------------------------------|---------------------------------|---------------------------------|


D|-----------------8---------------|-----------------10--8-----------|---------------------------------|
A|-------------8-------8-----------|-------------8-----------10--8---|---------------------10--11--10--|
F|---------9---------------9-------|---------9-----------------------|-10--------------10--------------|
C|-----10----------------------10--|-----10--------------------------|-----10------10------------------|
G|-7-------------------------------|-7-------------------------------|---------8-----------------------|
C|---------------------------------|---------------------------------|---------------------------------|


D|---------------------------------|-----------------13--12--10------|---------------------------------|
A|---------------------10--11--10--|-------------10--------------10--|---------------------------------|
F|-10--------------10--------------|-10------10----------------------|-10------------------------------|
C|-----10------10------------------|-----10--------------------------|-----10--------------10--8---7---|
G|---------8-----------------------|---------------------------------|---------8---7---8---------------|
C|---------------------------------|---------------------------------|---------------------------------|


D|---------------------------------|-1-------------------------------|--------|
A|-------------------------3-------|-----3---------------------------|-3------|
F|-----------------2-----------2---|---------2-----------------------|-2------|
C|---------0-----------0-----------|-------------0---------------0---|-0------|
G|-----0-------0-------------------|-----------------0-------0-------|-0------|
C|-0-------------------------------|---------------------0-----------|-0------|





Track 10: Rythem

D|--------|--------|--------|--------|--------|--------|--------|--------|--------|
A|--------|--------|--------|--------|--------|--------|--------|--------|--------|
F|--------|--------|--------|--------|--------|--------|--------|--------|--------|
C|--------|--------|--------|--------|--------|--------|--------|--------|--------|
G|--------|--------|--------|--------|--------|--------|--------|--------|--------|
C|--------|--------|--------|--------|--------|--------|--------|--------|--------|


D|--------|--------|--------|--------|--------|--------|--------|--------|--------|
A|--------|--------|--------|--------|--------|--------|--------|--------|--------|
F|--------|--------|--------|--------|--------|--------|--------|--------|--------|
C|--------|--------|--------|--------|--------|--------|--------|--------|--------|
G|--------|--------|--------|--------|--------|--------|--------|--------|--------|
C|--------|--------|--------|--------|--------|--------|--------|--------|--------|


D|--------|--------|--------|--------|--------|--------|--------|--------|--------|
A|--------|--------|--------|--------|--------|--------|--------|--------|--------|
F|--------|--------|--------|--------|--------|--------|--------|--------|--------|
C|--------|--------|--------|--------|--------|--------|--------|--------|--------|
G|--------|--------|--------|--------|--------|--------|--------|--------|--------|
C|--------|--------|--------|--------|--------|--------|--------|--------|--------|


D|--------|--------|--------|--------|--------|--------|--------|--------|--------|
A|--------|--------|--------|--------|--------|--------|--------|--------|--------|
F|--------|--------|--------|--------|--------|--------|--------|--------|--------|
C|--------|--------|--------|--------|--------|--------|--------|--------|--------|
G|--------|--------|--------|--------|--------|--------|--------|--------|--------|
C|--------|--------|--------|--------|--------|--------|--------|--------|--------|


D|--------|--------|--------|--------|--------|--------|--------|--------|--------|
A|--------|--------|--------|--------|--------|--------|--------|--------|--------|
F|--------|--------|--------|--------|--------|--------|--------|--------|--------|
C|--------|--------|--------|--------|--------|--------|--------|--------|--------|
G|--------|--------|--------|--------|--------|--------|--------|--------|--------|
C|--------|--------|--------|--------|--------|--------|--------|--------|--------|


D|--------|--------|--------|--------|--------|--------|--------|--------|--------|
A|--------|--------|--------|--------|--------|--------|--------|--------|--------|
F|--------|--------|--------|--------|--------|--------|--------|--------|--------|
C|--------|--------|--------|--------|--------|--------|--------|--------|--------|
G|--------|--------|--------|--------|--------|--------|--------|--------|--------|
C|--------|--------|--------|--------|--------|--------|--------|--------|--------|


D|--------|--------|--------|--------|--------|--------|--------|--------|--------|
A|--------|--------|--------|--------|--------|--------|--------|--------|--------|
F|--------|--------|--------|--------|--------|--------|--------|--------|--------|
C|--------|--------|--------|--------|--------|--------|--------|--------|--------|
G|--------|--------|--------|--------|--------|--------|--------|--------|--------|
C|--------|--------|--------|--------|--------|--------|--------|--------|--------|


D|--------|--------|--------|--------|--------|--------|--------|--------|--------|
A|--------|--------|--------|--------|--------|--------|--------|--------|--------|
F|--------|--------|--------|--------|--------|--------|--------|--------|--------|
C|--------|--------|--------|--------|--------|--------|--------|--------|--------|
G|--------|--------|--------|--------|--------|--------|--------|--------|--------|
C|--------|--------|--------|--------|--------|--------|--------|--------|--------|


D|--------|--------|--------|--------|--------|--------|--------|--------|--------|
A|--------|--------|--------|--------|--------|--------|--------|--------|--------|
F|--------|--------|--------|--------|--------|--------|--------|--------|--------|
C|--------|--------|--------|--------|--------|--------|--------|--------|--------|
G|--------|--------|--------|--------|--------|--------|--------|--------|--------|
C|--------|--------|--------|--------|--------|--------|--------|--------|--------|


D|--------|--------|--------|--------|--------|--------|--------|--------|--------|
A|--------|--------|--------|--------|--------|--------|--------|--------|--------|
F|--------|--------|--------|--------|--------|--------|--------|--------|--------|
C|--------|--------|--------|--------|--------|--------|--------|--------|--------|
G|--------|--------|--------|--------|--------|--------|--------|--------|--------|
C|--------|--------|--------|--------|--------|--------|--------|--------|--------|


D|--------|--------|--------|--------|--------|--------|--------|--------|--------|
A|--------|--------|--------|--------|--------|--------|--------|--------|--------|
F|--------|--------|--------|--------|--------|--------|--------|--------|--------|
C|--------|--------|--------|--------|--------|--------|--------|--------|--------|
G|--------|--------|--------|--------|--------|--------|--------|--------|--------|
C|--------|--------|--------|--------|--------|--------|--------|--------|--------|


D|--------|--------|--------|--------|--------|--------|--------|--------|--------|
A|--------|--------|--------|--------|--------|--------|--------|--------|--------|
F|--------|--------|--------|--------|--------|--------|--------|--------|--------|
C|--------|--------|--------|--------|--------|--------|--------|--------|--------|
G|--------|--------|--------|--------|--------|--------|--------|--------|--------|
C|--------|--------|--------|--------|--------|--------|--------|--------|--------|


D|--------|--------|--------|--------|--------|--------|--------|--------|--------|
A|--------|--------|--------|--------|--------|--------|--------|--------|--------|
F|--------|--------|--------|--------|--------|--------|--------|--------|--------|
C|--------|--------|--------|--------|--------|--------|--------|--------|--------|
G|--------|--------|--------|--------|--------|--------|--------|--------|--------|
C|--------|--------|--------|--------|--------|--------|--------|--------|--------|


D|--------|--------|--------|--------|--------|--------|--------|--------|--------|
A|--------|--------|--------|--------|--------|--------|--------|--------|--------|
F|--------|--------|--------|--------|--------|--------|--------|--------|--------|
C|--------|--------|--------|--------|--------|--------|--------|--------|--------|
G|--------|--------|--------|--------|--------|--------|--------|--------|--------|
C|--------|--------|--------|--------|--------|--------|--------|--------|--------|


D|--------|--------|--------|--------|--------|--------|--------|--------|--------|
A|--------|--------|--------|--------|--------|--------|--------|--------|--------|
F|--------|--------|--------|--------|--------|--------|--------|--------|--------|
C|--------|--------|--------|--------|--------|--------|--------|--------|--------|
G|--------|--------|--------|--------|--------|--------|--------|--------|--------|
C|--------|--------|--------|--------|--------|--------|--------|--------|--------|


D|--------|--------|--------|--------|--------|--------|--------|--------|--------|
A|--------|--------|--------|--------|--------|--------|--------|--------|--------|
F|--------|--------|--------|--------|--------|--------|--------|--------|--------|
C|--------|--------|--------|--------|--------|--------|--------|--------|--------|
G|--------|--------|--------|--------|--------|--------|--------|--------|--------|
C|--------|--------|--------|--------|--------|--------|--------|--------|--------|


D|--------|--------|--------|--------|--------|--------|--------|--------|--------|
A|--------|--------|--------|--------|--------|--------|--------|--------|--------|
F|--------|--------|--------|--------|--------|--------|--------|--------|--------|
C|--------|--------|--------|--------|--------|--------|--------|--------|--------|
G|--------|--------|--------|--------|--------|--------|--------|--------|--------|
C|--------|--------|--------|--------|--------|--------|--------|--------|--------|


D|--------|--------|--------|--------|--------|--------|--------|--------|--------|
A|--------|--------|--------|--------|--------|--------|--------|--------|--------|
F|--------|--------|--------|--------|--------|--------|--------|--------|--------|
C|--------|--------|--------|--------|--------|--------|--------|--------|--------|
G|--------|--------|--------|--------|--------|--------|--------|--------|--------|
C|--------|--------|--------|--------|--------|--------|--------|--------|--------|


D|--------|--------|--------|--------|--------|--------|--------|--------|--------|
A|--------|--------|--------|--------|--------|--------|--------|--------|--------|
F|--------|--------|--------|--------|--------|--------|--------|--------|--------|
C|--------|--------|--------|--------|--------|--------|--------|--------|--------|
G|--------|--------|--------|--------|--------|--------|--------|--------|--------|
C|--------|--------|--------|--------|--------|--------|--------|--------|--------|


D|--------|--------|--------|--------|--------|--------|--------|--------|--------|
A|--------|--------|--------|--------|--------|--------|--------|--------|--------|
F|--------|--------|--------|--------|--------|--------|--------|--------|--------|
C|--------|--------|--------|--------|--------|--------|--------|--------|--------|
G|--------|--------|--------|--------|--------|--------|--------|--------|--------|
C|--------|--------|--------|--------|--------|--------|--------|--------|--------|


D|--------|--------|--------|--------|--------|--------|--------|--------|--------|
A|--------|--------|--------|--------|--------|--------|--------|--------|--------|
F|--------|--------|--------|--------|--------|--------|--------|--------|--------|
C|--------|--------|--------|--------|--------|--------|--------|--------|--------|
G|--------|--------|--------|--------|--------|--------|--------|--------|--------|
C|--------|--------|--------|--------|--------|--------|--------|--------|--------|


D|--------|--------|--------|--------|--------|--------|--------|--------|--------|
A|--------|--------|--------|--------|--------|--------|--------|--------|--------|
F|--------|--------|--------|--------|--------|--------|--------|--------|--------|
C|--------|--------|--------|--------|--------|--------|--------|--------|--------|
G|--------|--------|--------|--------|--------|--------|--------|--------|--------|
C|--------|--------|--------|--------|--------|--------|--------|--------|--------|


D|--------|--------|--------|--------|--------|--------|--------|--------|--------|
A|--------|--------|--------|--------|--------|--------|--------|--------|--------|
F|--------|--------|--------|--------|--------|--------|--------|--------|--------|
C|--------|--------|--------|--------|--------|--------|--------|--------|--------|
G|--------|--------|--------|--------|--------|--------|--------|--------|--------|
C|--------|--------|--------|--------|--------|--------|--------|--------|--------|


D|--------|--------|--------|--------|--------|--------|--------|--------|--------|
A|--------|--------|--------|--------|--------|--------|--------|--------|--------|
F|--------|--------|--------|--------|--------|--------|--------|--------|--------|
C|--------|--------|--------|--------|--------|--------|--------|--------|--------|
G|--------|--------|--------|--------|--------|--------|--------|--------|--------|
C|--------|--------|--------|--------|--------|--------|--------|--------|--------|


D|--------|--------|--------|--------|------------------------|----------------------------|
A|--------|--------|--------|--------|------------------------|----------------------------|
F|--------|--------|--------|--------|------------------------|----------------------------|
C|--------|--------|--------|--------|-0--0--0--0-------------|---------0--0--0--0---------|
G|--------|--------|--------|--------|------------------------|----------------------------|
C|--------|--------|--------|--------|------------------------|----------------------------|


D|---------------------------------|--------|--------|-------------|--------------------|
A|---------------------------------|--------|--------|-------------|--------------------|
F|---------------------------------|--------|--------|-------------|--------------------|
C|-0--0--0--0----0--0--0--0--------|-10-----|-8------|-0-----------|-0---0---0----------|
G|---------------------------------|--------|--------|-------------|--------------------|
C|---------------------------------|--------|--------|-------------|--------------------|


D|--------------------|--------|-------------|--------------------|--------------------|
A|--------------------|--------|-------------|--------------------|--------------------|
F|--------------------|--------|-------------|--------------------|--------------------|
C|-0---0---0----------|-8------|-0-----------|-0---0---0----------|-0---0---0----------|
G|--------------------|--------|-------------|--------------------|--------------------|
C|--------------------|--------|-------------|--------------------|--------------------|


D|--------|---------------------------------|---------------------------------|---------------------------------|
A|--------|---------------------------------|---------------------------------|---------------------------------|
F|--------|-3---5-------------------3---5---|---------------------------------|---------5---3-------------------|
C|-8------|---------0---0---0---0-----------|-0---0---0---0---0---0---0---0---|-0---0-----------0---0---0---0---|
G|--------|---------------------------------|---------------------------------|---------------------------------|
C|--------|---------------------------------|---------------------------------|---------------------------------|


D|---------------------------|---------------------------------|---------------------------------|
A|---------------------------|---------------------------------|---------------------------------|
F|-1---1---1---1---3----0----|-3---5-------------------3---5---|---------------------------------|
C|---------------------------|---------0---0---0---0-----------|-0---0---0---0---0---0---0---0---|
G|---------------------------|---------------------------------|---------------------------------|
C|---------------------------|---------------------------------|---------------------------------|


D|---------------------------------|---------------------------|---------------------------------|
A|---------------------------------|---------------------------|---------------------------------|
F|---------5---3-------------------|-1---1---1---1---3----0----|-3---5-------------------3---5---|
C|-0---0-----------0---0---0---0---|---------------------------|---------0---0---0---0-----------|
G|---------------------------------|---------------------------|---------------------------------|
C|---------------------------------|---------------------------|---------------------------------|


D|---------------------------------|---------------------------------|---------------------------|
A|---------------------------------|---------------------------------|---------------------------|
F|---------------------------------|---------5---3-------------------|-1---1---1---1---3----0----|
C|-0---0---0---0---0---0---0---0---|-0---0-----------0---0---0---0---|---------------------------|
G|---------------------------------|---------------------------------|---------------------------|
C|---------------------------------|---------------------------------|---------------------------|


D|---------------------------------|---------------------------------|---------------------------------|
A|---------------------------------|---------------------------------|---------------------------------|
F|-3---5-------------------3---5---|---------------------------------|---------5---3-------------------|
C|---------0---0---0---0-----------|-0---0---0---0---0---0---0---0---|-0---0-----------0---0---0---0---|
G|---------------------------------|---------------------------------|---------------------------------|
C|---------------------------------|---------------------------------|---------------------------------|


D|---------------------------|---------------------------------|---------------------------------|
A|---------------------------|---------------------------------|---------------------------------|
F|-1---1---1---1---3----0----|-3---5-------------------3---5---|-----------------3---5-----------|
C|---------------------------|---------0---0---0---0-----------|-0---0---0---0-----------0---0---|
G|---------------------------|---------------------------------|---------------------------------|
C|---------------------------|---------------------------------|---------------------------------|


D|---------------------------------|---------------------------------|---------------------------------|
A|---------------------------------|---------------------------------|---------------------------------|
F|---------3---5-------------------|-5---7-------------------5---7---|-----------------7---8-----------|
C|-0---0-----------0---0---0---0---|---------8---8---8---8-----------|-8---8---8---8-----------10--10--|
G|---------------------------------|---------------------------------|---------------------------------|
C|---------------------------------|---------------------------------|---------------------------------|


D|---------------------------------|---------------------------------|---------------------------------|
A|---------------------------------|---------------------------------|---------------------------------|
F|---------8---7-------------------|-3---5-------------------3---5---|-----------------3---5-----------|
C|-10--10----------10--10--10--10--|---------0---0---0---0-----------|-0---0---0---0-----------0---0---|
G|---------------------------------|---------------------------------|---------------------------------|
C|---------------------------------|---------------------------------|---------------------------------|


D|---------------------------------|---------------------------------|---------------------------------|
A|---------------------------------|---------------------------------|---------------------------------|
F|---------3---5-------------------|-5---7-------------------5---7---|-----------------7---8-----------|
C|-0---0-----------0---0---0---0---|---------8---8---8---8-----------|-8---8---8---8-----------10--10--|
G|---------------------------------|---------------------------------|---------------------------------|
C|---------------------------------|---------------------------------|---------------------------------|


D|---------------------------------|-------------|-------------------|------------------|
A|---------------------------------|-------------|-------------------|------------------|
F|---------8---7-------------------|-------------|-------------------|------------------|
C|-10--10----------10--10--10--10--|-0-----------|-0-----0-----0-----|-10----8-----7----|
G|---------------------------------|-------------|-------------------|------------------|
C|---------------------------------|-------------|-------------------|------------------|


D|------------------|--------|--------|--------|--------|--------|--------|--------|
A|------------------|--------|--------|--------|--------|--------|--------|--------|
F|------------------|--------|--------|--------|--------|--------|--------|--------|
C|-5-----3-----2----|--------|--------|--------|--------|--------|--------|--------|
G|------------------|--------|--------|--------|--------|--------|--------|--------|
C|------------------|--------|--------|--------|--------|--------|--------|--------|


D|--------|--------|--------|--------|--------|--------|--------|--------|--------|
A|--------|--------|--------|--------|--------|--------|--------|--------|--------|
F|--------|--------|--------|--------|--------|--------|--------|--------|--------|
C|--------|--------|--------|--------|--------|--------|--------|--------|--------|
G|--------|--------|--------|--------|--------|--------|--------|--------|--------|
C|--------|--------|--------|--------|--------|--------|--------|--------|--------|


D|--------|--------|--------|--------|--------|--------|--------|--------|--------|
A|--------|--------|--------|--------|--------|--------|--------|--------|--------|
F|--------|--------|--------|--------|--------|--------|--------|--------|--------|
C|--------|--------|--------|--------|--------|--------|--------|--------|--------|
G|--------|--------|--------|--------|--------|--------|--------|--------|--------|
C|--------|--------|--------|--------|--------|--------|--------|--------|--------|


D|--------|--------|--------|--------|--------|--------|--------|--------|--------|
A|--------|--------|--------|--------|--------|--------|--------|--------|--------|
F|--------|--------|--------|--------|--------|--------|--------|--------|--------|
C|--------|--------|--------|--------|--------|--------|--------|--------|--------|
G|--------|--------|--------|--------|--------|--------|--------|--------|--------|
C|--------|--------|--------|--------|--------|--------|--------|--------|--------|


D|--------|--------|--------|--------|--------|--------|--------|--------|--------|
A|--------|--------|--------|--------|--------|--------|--------|--------|--------|
F|--------|--------|--------|--------|--------|--------|--------|--------|--------|
C|--------|--------|--------|--------|--------|--------|--------|--------|--------|
G|--------|--------|--------|--------|--------|--------|--------|--------|--------|
C|--------|--------|--------|--------|--------|--------|--------|--------|--------|


D|--------|--------|--------|--------|--------|--------|--------|--------|--------|
A|--------|--------|--------|--------|--------|--------|--------|--------|--------|
F|--------|--------|--------|--------|--------|--------|--------|--------|--------|
C|--------|--------|--------|--------|--------|--------|--------|--------|--------|
G|--------|--------|--------|--------|--------|--------|--------|--------|--------|
C|--------|--------|--------|--------|--------|--------|--------|--------|--------|


D|--------|--------|--------|--------|--------|--------|--------|--------|--------|
A|--------|--------|--------|--------|--------|--------|--------|--------|--------|
F|--------|--------|--------|--------|--------|--------|--------|--------|--------|
C|--------|--------|--------|--------|--------|--------|--------|--------|--------|
G|--------|--------|--------|--------|--------|--------|--------|--------|--------|
C|--------|--------|--------|--------|--------|--------|--------|--------|--------|


D|--------|--------|--------|--------|--------|--------|--------|--------|--------|
A|--------|--------|--------|--------|--------|--------|--------|--------|--------|
F|--------|--------|--------|--------|--------|--------|--------|--------|--------|
C|--------|--------|--------|--------|--------|--------|--------|--------|--------|
G|--------|--------|--------|--------|--------|--------|--------|--------|--------|
C|--------|--------|--------|--------|--------|--------|--------|--------|--------|


D|--------|--------|--------|--------|--------|--------|--------|--------|--------|
A|--------|--------|--------|--------|--------|--------|--------|--------|--------|
F|--------|--------|--------|--------|--------|--------|--------|--------|--------|
C|--------|--------|--------|--------|--------|--------|--------|--------|--------|
G|--------|--------|--------|--------|--------|--------|--------|--------|--------|
C|--------|--------|--------|--------|--------|--------|--------|--------|--------|


D|--------|--------|--------|--------|--------|--------|--------|--------|--------|
A|--------|--------|--------|--------|--------|--------|--------|--------|--------|
F|--------|--------|--------|--------|--------|--------|--------|--------|--------|
C|--------|--------|--------|--------|--------|--------|--------|--------|--------|
G|--------|--------|--------|--------|--------|--------|--------|--------|--------|
C|--------|--------|--------|--------|--------|--------|--------|--------|--------|


D|--------|--------|--------|--------|--------|--------|--------|--------|--------|
A|--------|--------|--------|--------|--------|--------|--------|--------|--------|
F|--------|--------|--------|--------|--------|--------|--------|--------|--------|
C|--------|--------|--------|--------|--------|--------|--------|--------|--------|
G|--------|--------|--------|--------|--------|--------|--------|--------|--------|
C|--------|--------|--------|--------|--------|--------|--------|--------|--------|


D|--------|--------|--------|--------|--------|--------|--------|--------|--------|
A|--------|--------|--------|--------|--------|--------|--------|--------|--------|
F|--------|--------|--------|--------|--------|--------|--------|--------|--------|
C|--------|--------|--------|--------|--------|--------|--------|--------|--------|
G|--------|--------|--------|--------|--------|--------|--------|--------|--------|
C|--------|--------|--------|--------|--------|--------|--------|--------|--------|


D|--------|--------|--------|--------|--------|--------|--------|--------|--------|
A|--------|--------|--------|--------|--------|--------|--------|--------|--------|
F|--------|--------|--------|--------|--------|--------|--------|--------|--------|
C|--------|--------|--------|--------|--------|--------|--------|--------|--------|
G|--------|--------|--------|--------|--------|--------|--------|--------|--------|
C|--------|--------|--------|--------|--------|--------|--------|--------|--------|





Track 11: Untitled

G|--------|--------|--------|--------|--------|--------|--------|--------|--------|
D|--------|--------|--------|--------|--------|--------|--------|--------|--------|
A|--------|--------|--------|--------|--------|--------|--------|--------|--------|
E|--------|--------|--------|--------|--------|--------|--------|--------|--------|


G|--------|--------|--------|--------|--------|--------|--------|--------|--------|
D|--------|--------|--------|--------|--------|--------|--------|--------|--------|
A|--------|--------|--------|--------|--------|--------|--------|--------|--------|
E|--------|--------|--------|--------|--------|--------|--------|--------|--------|


G|--------|--------|--------|--------|--------|--------|--------|--------|--------|
D|--------|--------|--------|--------|--------|--------|--------|--------|--------|
A|--------|--------|--------|--------|--------|--------|--------|--------|--------|
E|--------|--------|--------|--------|--------|--------|--------|--------|--------|


G|--------|--------|--------|--------|--------|--------|--------|--------|--------|
D|--------|--------|--------|--------|--------|--------|--------|--------|--------|
A|--------|--------|--------|--------|--------|--------|--------|--------|--------|
E|--------|--------|--------|--------|--------|--------|--------|--------|--------|


G|--------|--------|--------|--------|--------|--------|--------|--------|--------|
D|--------|--------|--------|--------|--------|--------|--------|--------|--------|
A|--------|--------|--------|--------|--------|--------|--------|--------|--------|
E|--------|--------|--------|--------|--------|--------|--------|--------|--------|


G|--------|--------|--------|--------|--------|--------|--------|--------|--------|
D|--------|--------|--------|--------|--------|--------|--------|--------|--------|
A|--------|--------|--------|--------|--------|--------|--------|--------|--------|
E|--------|--------|--------|--------|--------|--------|--------|--------|--------|


G|--------|--------|--------|--------|--------|--------|--------|--------|--------|
D|--------|--------|--------|--------|--------|--------|--------|--------|--------|
A|--------|--------|--------|--------|--------|--------|--------|--------|--------|
E|--------|--------|--------|--------|--------|--------|--------|--------|--------|


G|--------|--------|--------|--------|--------|--------|--------|--------|--------|
D|--------|--------|--------|--------|--------|--------|--------|--------|--------|
A|--------|--------|--------|--------|--------|--------|--------|--------|--------|
E|--------|--------|--------|--------|--------|--------|--------|--------|--------|


G|--------|--------|--------|--------|--------|--------|--------|--------|--------|
D|--------|--------|--------|--------|--------|--------|--------|--------|--------|
A|--------|--------|--------|--------|--------|--------|--------|--------|--------|
E|--------|--------|--------|--------|--------|--------|--------|--------|--------|


G|--------|--------|--------|--------|--------|--------|--------|--------|--------|
D|--------|--------|--------|--------|--------|--------|--------|--------|--------|
A|--------|--------|--------|--------|--------|--------|--------|--------|--------|
E|--------|--------|--------|--------|--------|--------|--------|--------|--------|


G|--------|--------|--------|--------|--------|--------|--------|--------|--------|
D|--------|--------|--------|--------|--------|--------|--------|--------|--------|
A|--------|--------|--------|--------|--------|--------|--------|--------|--------|
E|--------|--------|--------|--------|--------|--------|--------|--------|--------|


G|--------|--------|--------|--------|--------|--------|--------|--------|--------|
D|--------|--------|--------|--------|--------|--------|--------|--------|--------|
A|--------|--------|--------|--------|--------|--------|--------|--------|--------|
E|--------|--------|--------|--------|--------|--------|--------|--------|--------|


G|--------|--------|--------|--------|--------|--------|--------|--------|--------|
D|--------|--------|--------|--------|--------|--------|--------|--------|--------|
A|--------|--------|--------|--------|--------|--------|--------|--------|--------|
E|--------|--------|--------|--------|--------|--------|--------|--------|--------|


G|--------|--------|--------|--------|--------|--------|--------|--------|--------|
D|--------|--------|--------|--------|--------|--------|--------|--------|--------|
A|--------|--------|--------|--------|--------|--------|--------|--------|--------|
E|--------|--------|--------|--------|--------|--------|--------|--------|--------|


G|--------|--------|--------|--------|--------|--------|--------|--------|--------|
D|--------|--------|--------|--------|--------|--------|--------|--------|--------|
A|--------|--------|--------|--------|--------|--------|--------|--------|--------|
E|--------|--------|--------|--------|--------|--------|--------|--------|--------|


G|--------|--------|--------|--------|--------|--------|--------|--------|--------|
D|--------|--------|--------|--------|--------|--------|--------|--------|--------|
A|--------|--------|--------|--------|--------|--------|--------|--------|--------|
E|--------|--------|--------|--------|--------|--------|--------|--------|--------|


G|--------|--------|--------|--------|--------|--------|--------|--------|--------|
D|--------|--------|--------|--------|--------|--------|--------|--------|--------|
A|--------|--------|--------|--------|--------|--------|--------|--------|--------|
E|--------|--------|--------|--------|--------|--------|--------|--------|--------|


G|--------|--------|--------|--------|--------|--------|--------|--------|--------|
D|--------|--------|--------|--------|--------|--------|--------|--------|--------|
A|--------|--------|--------|--------|--------|--------|--------|--------|--------|
E|--------|--------|--------|--------|--------|--------|--------|--------|--------|


G|--------|--------|--------|--------|--------|--------|--------|--------|--------|
D|--------|--------|--------|--------|--------|--------|--------|--------|--------|
A|--------|--------|--------|--------|--------|--------|--------|--------|--------|
E|--------|--------|--------|--------|--------|--------|--------|--------|--------|


G|--------|--------|--------|--------|--------|--------|--------|--------|--------|
D|--------|--------|--------|--------|--------|--------|--------|--------|--------|
A|--------|--------|--------|--------|--------|--------|--------|--------|--------|
E|--------|--------|--------|--------|--------|--------|--------|--------|--------|


G|--------|--------|--------|--------|--------|--------|--------|--------|--------|
D|--------|--------|--------|--------|--------|--------|--------|--------|--------|
A|--------|--------|--------|--------|--------|--------|--------|--------|--------|
E|--------|--------|--------|--------|--------|--------|--------|--------|--------|


G|--------|--------|--------|--------|--------|--------|--------|--------|--------|
D|--------|--------|--------|--------|--------|--------|--------|--------|--------|
A|--------|--------|--------|--------|--------|--------|--------|--------|--------|
E|--------|--------|--------|--------|--------|--------|--------|--------|--------|


G|--------|--------|--------|--------|--------|--------|--------|--------|--------|
D|--------|--------|--------|--------|--------|--------|--------|--------|--------|
A|--------|--------|--------|--------|--------|--------|--------|--------|--------|
E|--------|--------|--------|--------|--------|--------|--------|--------|--------|


G|--------|--------|--------|--------|--------|--------|--------|--------|--------|
D|--------|--------|--------|--------|--------|--------|--------|--------|--------|
A|--------|--------|--------|--------|--------|--------|--------|--------|--------|
E|--------|--------|--------|--------|--------|--------|--------|--------|--------|


G|--------|--------|--------|--------|--------|--------|--------|--------|--------|
D|--------|--------|--------|--------|--------|--------|--------|--------|--------|
A|--------|--------|--------|--------|--------|--------|--------|--------|--------|
E|--------|--------|--------|--------|--------|--------|--------|--------|--------|


G|--------|--------|--------|--------|--------|--------|--------|--------|--------|
D|--------|--------|--------|--------|--------|--------|--------|--------|--------|
A|--------|--------|--------|--------|--------|--------|--------|--------|--------|
E|--------|--------|--------|--------|--------|--------|--------|--------|--------|


G|--------|--------|--------|--------|--------|--------|--------|--------|--------|
D|--------|--------|--------|--------|--------|--------|--------|--------|--------|
A|--------|--------|--------|--------|--------|--------|--------|--------|--------|
E|--------|--------|--------|--------|--------|--------|--------|--------|--------|


G|--------|--------|--------|--------|--------|--------|--------|--------|--------|
D|--------|--------|--------|--------|--------|--------|--------|--------|--------|
A|--------|--------|--------|--------|--------|--------|--------|--------|--------|
E|--------|--------|--------|--------|--------|--------|--------|--------|--------|


G|--------|--------|--------|--------|--------|--------|--------|--------|--------|
D|--------|--------|--------|--------|--------|--------|--------|--------|--------|
A|--------|--------|--------|--------|--------|--------|--------|--------|--------|
E|--------|--------|--------|--------|--------|--------|--------|--------|--------|


G|--------|--------|--------|--------|--------|--------|--------|--------|--------|
D|--------|--------|--------|--------|--------|--------|--------|--------|--------|
A|--------|--------|--------|--------|--------|--------|--------|--------|--------|
E|--------|--------|--------|--------|--------|--------|--------|--------|--------|


G|--------|--------|--------|--------|--------|--------|--------|--------|--------|
D|--------|--------|--------|--------|--------|--------|--------|--------|--------|
A|--------|--------|--------|--------|--------|--------|--------|--------|--------|
E|--------|--------|--------|--------|--------|--------|--------|--------|--------|


G|--------|--------|--------|--------|--------|--------|--------|--------|--------|
D|--------|--------|--------|--------|--------|--------|--------|--------|--------|
A|--------|--------|--------|--------|--------|--------|--------|--------|--------|
E|--------|--------|--------|--------|--------|--------|--------|--------|--------|


G|--------|--------|--------|--------|--------|--------|--------|--------|--------|
D|--------|--------|--------|--------|--------|--------|--------|--------|--------|
A|--------|--------|--------|--------|--------|--------|--------|--------|--------|
E|--------|--------|--------|--------|--------|--------|--------|--------|--------|


G|--------|--------|--------|--------|--------|--------|--------|--------|--------|
D|--------|--------|--------|--------|--------|--------|--------|--------|--------|
A|--------|--------|--------|--------|--------|--------|--------|--------|--------|
E|--------|--------|--------|--------|--------|--------|--------|--------|--------|


G|--------|--------|--------|--------|--------|--------|--------|--------|--------|
D|--------|--------|--------|--------|--------|--------|--------|--------|--------|
A|--------|--------|--------|--------|--------|--------|--------|--------|--------|
E|--------|--------|--------|--------|--------|--------|--------|--------|--------|


G|--------|--------|--------|--------|--------|--------|--------|--------|--------|
D|--------|--------|--------|--------|--------|--------|--------|--------|--------|
A|--------|--------|--------|--------|--------|--------|--------|--------|--------|
E|--------|--------|--------|--------|--------|--------|--------|--------|--------|


G|--------|--------|--------|--------|--------|--------|--------|--------|--------|
D|--------|--------|--------|--------|--------|--------|--------|--------|--------|
A|--------|--------|--------|--------|--------|--------|--------|--------|--------|
E|--------|--------|--------|--------|--------|--------|--------|--------|--------|


G|--------|--------|--------|--------|--------|--------|--------|--------|--------|
D|--------|--------|--------|--------|--------|--------|--------|--------|--------|
A|--------|--------|--------|--------|--------|--------|--------|--------|--------|
E|--------|--------|--------|--------|--------|--------|--------|--------|--------|


G|--------|--------|--------|--------|--------|--------|--------|--------|--------|
D|--------|--------|--------|--------|--------|--------|--------|--------|--------|
A|--------|--------|--------|--------|--------|--------|--------|--------|--------|
E|--------|--------|--------|--------|--------|--------|--------|--------|--------|


G|--------|--------|--------|--------|--------|--------|--------|--------|--------|
D|--------|--------|--------|--------|--------|--------|--------|--------|--------|
A|--------|--------|--------|--------|--------|--------|--------|--------|--------|
E|--------|--------|--------|--------|--------|--------|--------|--------|--------|


G|--------|--------|--------|--------|--------|--------|--------|--------|--------|
D|--------|--------|--------|--------|--------|--------|--------|--------|--------|
A|--------|--------|--------|--------|--------|--------|--------|--------|--------|
E|--------|--------|--------|--------|--------|--------|--------|--------|--------|


G|--------|--------|--------|--------|--------|--------|--------|--------|--------|
D|--------|--------|--------|--------|--------|--------|--------|--------|--------|
A|--------|--------|--------|--------|--------|--------|--------|--------|--------|
E|--------|--------|--------|--------|--------|--------|--------|--------|--------|


G|--------|--------|
D|--------|--------|
A|--------|--------|
E|--------|--------|