Menu:

 

Search:

 

the sky is falling - my remembrance is quickly forgotten:

 



Title: My Remembrance Is Quickly Forgotten 
Artist: 
Album: 
Author: The Sky Is Falling


Track 1: Rythem

D|--------|--------|--------|--------|--------|--------|--------|--------|--------|
A|--------|--------|--------|--------|--------|--------|--------|--------|--------|
F|--------|--------|--------|--------|--------|--------|--------|--------|--------|
C|-2------|-0------|-10-----|-10-----|-2------|-0------|-10-----|-10-----|-2------|
G|-2------|-0------|-10-----|-10-----|-2------|-0------|-10-----|-10-----|-2------|
C|-2------|-0------|-10-----|-10-----|-2------|-0------|-10-----|-10-----|-2------|


D|--------|--------|--------|--------|--------|--------|--------|-0---7---7---0---7---7---0---7---|
A|--------|--------|--------|--------|--------|--------|--------|---------------------------------|
F|--------|--------|--------|--------|--------|--------|--------|---------------------------------|
C|-0------|-10-----|-10-----|-2------|-0------|-10-----|-10-----|---------------------------------|
G|-0------|-10-----|-10-----|-2------|-0------|-10-----|-10-----|---------------------------------|
C|-0------|-10-----|-10-----|-2------|-0------|-10-----|-10-----|---------------------------------|


D|-0---5---5---0---5---5---0---5---|-0---8---8---0---8---8---0---8---|-0---8---8---0---10--10--0---12--|
A|---------------------------------|---------------------------------|---------------------------------|
F|---------------------------------|---------------------------------|---------------------------------|
C|---------------------------------|---------------------------------|---------------------------------|
G|---------------------------------|---------------------------------|---------------------------------|
C|---------------------------------|---------------------------------|---------------------------------|


D|-0---7---7---0---7---7---0---7---|-0---5---5---0---5---5---0---5---|-0---8---8---0---8---8---0---8---|
A|---------------------------------|---------------------------------|---------------------------------|
F|---------------------------------|---------------------------------|---------------------------------|
C|---------------------------------|---------------------------------|---------------------------------|
G|---------------------------------|---------------------------------|---------------------------------|
C|---------------------------------|---------------------------------|---------------------------------|


D|-0---8---8---0---10--10--0---12--|--------|--------|--------|--------|--------|--------|
A|---------------------------------|--------|--------|--------|--------|--------|--------|
F|---------------------------------|--------|--------|--------|--------|--------|--------|
C|---------------------------------|--------|--------|--------|--------|--------|--------|
G|---------------------------------|--------|--------|--------|--------|--------|--------|
C|---------------------------------|--------|--------|--------|--------|--------|--------|


D|--------|--------|--------|--------|--------|--------|--------|--------|-------------------------------------------------|
A|--------|--------|--------|--------|--------|--------|--------|--------|-------------------------------------------------|
F|--------|--------|--------|--------|--------|--------|--------|--------|-------------------------------------------------|
C|--------|--------|--------|--------|--------|--------|--------|--------|-------------------------------------------------|
G|--------|--------|--------|--------|--------|--------|--------|--------|-7--7--7--7--7--7--7--7--7--7--7--7--7--7--7--7--|
C|--------|--------|--------|--------|--------|--------|--------|--------|-------------------------------------------------|


D|-------------------------------------------------|--------|--------|--------|--------|
A|-------------------------------------------------|--------|--------|--------|--------|
F|-------------------------------------------------|--------|--------|--------|--------|
C|-------------------------------------------------|--------|--------|--------|--------|
G|-3--3--3--3--3--3--3--3--3--3--3--3--3--3--3--3--|--------|--------|--------|--------|
C|-------------------------------------------------|--------|--------|--------|--------|


D|--------|--------|-------------------------------------------------|-------------------------------------------------|
A|--------|--------|-------------------------------------------------|-------------------------------------------------|
F|--------|--------|-------------------------------------------------|-------------------------------------------------|
C|--------|--------|-------------------------------------------------|-------------------------------------------------|
G|--------|--------|-7--7--7--7--7--7--7--7--7--7--7--7--7--7--7--7--|-3--3--3--3--3--3--3--3--3--3--3--3--3--3--3--3--|
C|--------|--------|-------------------------------------------------|-------------------------------------------------|


D|-------------------------------------------------|-------------------------------------------------|
A|-------------------------------------------------|-------------------------------------------------|
F|-------------------------------------------------|-------------------------------------------------|
C|-------------------------------------------------|-------------------------------------------------|
G|-5--5--5--5--5--5--5--5--5--5--5--5--5--5--5--5--|-------------------------------------------------|
C|-------------------------------------------------|-7--7--7--7--7--7--7--7--9--9--9--9--9--9--9--9--|


D|-------------------------------------------------|-------------------------------------------------|
A|-------------------------------------------------|-------------------------------------------------|
F|-------------------------------------------------|-------------------------------------------------|
C|-------------------------------------------------|-------------------------------------------------|
G|-7--7--7--7--7--7--7--7--7--7--7--7--7--7--7--7--|-3--3--3--3--3--3--3--3--3--3--3--3--3--3--3--3--|
C|-------------------------------------------------|-------------------------------------------------|


D|-------------------------------------------------|-------------------------------------------------|
A|-------------------------------------------------|-------------------------------------------------|
F|-------------------------------------------------|-------------------------------------------------|
C|-------------------------------------------------|-------------------------------------------------|
G|-5--5--5--5--5--5--5--5--5--5--5--5--5--5--5--5--|-------------------------------------------------|
C|-------------------------------------------------|-7--7--7--7--7--7--7--7--9--9--9--9--9--9--9--9--|


D|-------------------------------------------------|-------------------------------------------------|
A|-------------------------------------------------|-------------------------------------------------|
F|-------------------------------------------------|-------------------------------------------------|
C|-4--4--4--4--4--4--5--5--5--5--5--5--7--7--5--4--|-4--4--4--4--4--4--5--5--5--5--5--5--7--7--5--4--|
G|-7--7--7--7--7--7--7--7--7--7--7--7--7--7--7--7--|-3--3--3--3--3--3--3--3--3--3--3--3--3--3--3--3--|
C|-------------------------------------------------|-------------------------------------------------|


D|-------------------------------------------------|-------------------------------------------------|
A|-------------------------------------------------|-------------------------------------------------|
F|-------------------------------------------------|-------------------------------------------------|
C|-4--4--4--4--4--4--5--5--5--5--5--5--7--7--5--4--|-4--4--4--4--5--5--5--7--4--4--4--4--5--5--5--7--|
G|-5--5--5--5--5--5--5--5--5--5--5--5--5--5--5--5--|-0--0--0--0--0--0--0--0--2--2--2--2--2--2--2--2--|
C|-------------------------------------------------|-------------------------------------------------|


D|-------------------------------------------------|-------------------------------------------------|
A|-------------------------------------------------|-------------------------------------------------|
F|-------------------------------------------------|-------------------------------------------------|
C|-4--4--4--4--4--4--5--5--5--5--5--5--7--7--5--4--|-4--4--4--4--4--4--5--5--5--5--5--5--7--7--5--4--|
G|-7--7--7--7--7--7--7--7--7--7--7--7--7--7--7--7--|-3--3--3--3--3--3--3--3--3--3--3--3--3--3--3--3--|
C|-------------------------------------------------|-------------------------------------------------|


D|-------------------------------------------------|-------------------------------------------------|
A|-------------------------------------------------|-------------------------------------------------|
F|-------------------------------------------------|-------------------------------------------------|
C|-4--4--4--4--4--4--5--5--5--5--5--5--7--7--5--4--|-4--4--4--4--5--5--5--7--4--4--4--4--5--5--5--7--|
G|-5--5--5--5--5--5--5--5--5--5--5--5--5--5--5--5--|-0--0--0--0--0--0--0--0--2--2--2--2--2--2--2--2--|
C|-------------------------------------------------|-------------------------------------------------|


D|-------------|--------|---------------------|---------------------------------|-12-0--12-0--12-0--12-0--12-0--12-0--12-0--12-0--|
A|-------------|--------|---------------------|---------------------------------|-------------------------------------------------|
F|-------------|--------|---------------------|---------------------------------|-------------------------------------------------|
C|-2-----------|--------|-14---14---14---14---|-14--13--12--11--10--9---8---7---|-------------------------------------------------|
G|-2-----------|--------|-14---14---14---14---|-14--13--12--11--10--9---8---7---|-------------------------------------------------|
C|-2-----------|--------|-14---14---14---14---|-14--13--12--11--10--9---8---7---|-------------------------------------------------|


D|-8--0--8--0--8--0--8--0--8--0--8--0--8--0--8--0--|-10-0--10-0--10-0--10-0--10-0--10-0--10-0--10-0--|
A|-------------------------------------------------|-------------------------------------------------|
F|-------------------------------------------------|-------------------------------------------------|
C|-------------------------------------------------|-------------------------------------------------|
G|-------------------------------------------------|-------------------------------------------------|
C|-------------------------------------------------|-------------------------------------------------|


D|-3--0--3--0--3--0--3--0--5--0--5--0--5--0--5--0--|-12-0--12-0--12-0--12-0--12-0--12-0--12-0--12-0--|
A|-------------------------------------------------|-------------------------------------------------|
F|-------------------------------------------------|-------------------------------------------------|
C|-------------------------------------------------|-------------------------------------------------|
G|-------------------------------------------------|-------------------------------------------------|
C|-------------------------------------------------|-------------------------------------------------|


D|-8--0--8--0--8--0--8--0--8--0--8--0--8--0--8--0--|-10-0--10-0--10-0--10-0--10-0--10-0--10-0--10-0--|
A|-------------------------------------------------|-------------------------------------------------|
F|-------------------------------------------------|-------------------------------------------------|
C|-------------------------------------------------|-------------------------------------------------|
G|-------------------------------------------------|-------------------------------------------------|
C|-------------------------------------------------|-------------------------------------------------|


D|-3--0--3--0--3--0--3--0--5--0--5--0--5--0--5--0--|-12-0--12-0--12-0--12-0--12-0--12-0--12-0--12-0--|
A|-------------------------------------------------|-------------------------------------------------|
F|-------------------------------------------------|-------------------------------------------------|
C|-------------------------------------------------|-------------------------------------------------|
G|-------------------------------------------------|-------------------------------------------------|
C|-------------------------------------------------|-------------------------------------------------|


D|-8--0--8--0--8--0--8--0--8--0--8--0--8--0--8--0--|-10-0--10-0--10-0--10-0--10-0--10-0--10-0--10-0--|
A|-------------------------------------------------|-------------------------------------------------|
F|-------------------------------------------------|-------------------------------------------------|
C|-------------------------------------------------|-------------------------------------------------|
G|-------------------------------------------------|-------------------------------------------------|
C|-------------------------------------------------|-------------------------------------------------|


D|-3--0--3--0--3--0--3--0--5--0--5--0--5--0--5--0--|-12-0--12-0--12-0--12-0--12-0--12-0--12-0--12-0--|
A|-------------------------------------------------|-------------------------------------------------|
F|-------------------------------------------------|-------------------------------------------------|
C|-------------------------------------------------|-------------------------------------------------|
G|-------------------------------------------------|-------------------------------------------------|
C|-------------------------------------------------|-------------------------------------------------|


D|-8--0--8--0--8--0--8--0--8--0--8--0--8--0--8--0--|-10-0--10-0--10-0--10-0--10-0--10-0--10-0--10-0--|
A|-------------------------------------------------|-------------------------------------------------|
F|-------------------------------------------------|-------------------------------------------------|
C|-------------------------------------------------|-------------------------------------------------|
G|-------------------------------------------------|-------------------------------------------------|
C|-------------------------------------------------|-------------------------------------------------|


D|-3--0--3--0--3--0--3--0--5--0--5--0--5--0--5--0--|-------------------------------------------|
A|-------------------------------------------------|-------------------------------------------|
F|-------------------------------------------------|-------------------------------------------|
C|-------------------------------------------------|-------------------------------------------|
G|-------------------------------------------------|-2--2--2--2--2---2--2--2--2--2---2--2--2---|
C|-------------------------------------------------|-2--2--2--2--2---2--2--2--2--2---2--2--2---|


D|-------------------------------------------|-------------------------------------------|
A|-------------------------------------------|-------------------------------------------|
F|-------------------------------------------|-------------------------------------------|
C|-------------------------------------------|-------------------------------------------|
G|-10-10-10-10-10--10-10-10-10-10--10-10-10--|-0--0--0--0--0---0--0--0--0--0---0--0--0---|
C|-10-10-10-10-10--10-10-10-10-10--10-10-10--|-0--0--0--0--0---0--0--0--0--0---0--0--0---|


D|-------------------------------------------|-------------------------------------------|
A|-------------------------------------------|-------------------------------------------|
F|-------------------------------------------|-------------------------------------------|
C|-------------------------------------------|-------------------------------------------|
G|-7--7--7--7--7---7--7--9--9--9---9--9--9---|-2--2--2--2--2---2--2--2--2--2---2--2--2---|
C|-7--7--7--7--7---7--7--9--9--9---9--9--9---|-2--2--2--2--2---2--2--2--2--2---2--2--2---|


D|-------------------------------------------|-------------------------------------------|
A|-------------------------------------------|-------------------------------------------|
F|-------------------------------------------|-------------------------------------------|
C|-------------------------------------------|-------------------------------------------|
G|-10-10-10-10-10--10-10-10-10-10--10-10-10--|-0--0--0--0--0---0--0--0--0--0---0--0--0---|
C|-10-10-10-10-10--10-10-10-10-10--10-10-10--|-0--0--0--0--0---0--0--0--0--0---0--0--0---|


D|-------------------------------------------|-------------------------------------------|
A|-------------------------------------------|-------------------------------------------|
F|-------------------------------------------|-------------------------------------------|
C|-------------------------------------------|-------------------------------------------|
G|-7--7--7--7--7---7--7--9--9--9---9--9--9---|-2--2--2--2--2---2--2--2--2--2---2--2--2---|
C|-7--7--7--7--7---7--7--9--9--9---9--9--9---|-2--2--2--2--2---2--2--2--2--2---2--2--2---|


D|-------------------------------------------|-------------------------------------------|
A|-------------------------------------------|-------------------------------------------|
F|-------------------------------------------|-------------------------------------------|
C|-------------------------------------------|-------------------------------------------|
G|-10-10-10-10-10--10-10-10-10-10--10-10-10--|-0--0--0--0--0---0--0--0--0--0---0--0--0---|
C|-10-10-10-10-10--10-10-10-10-10--10-10-10--|-0--0--0--0--0---0--0--0--0--0---0--0--0---|


D|-------------------------------------------|-------------------------------------------|
A|-------------------------------------------|-------------------------------------------|
F|-------------------------------------------|-------------------------------------------|
C|-------------------------------------------|-------------------------------------------|
G|-7--7--7--7--7---7--7--9--9--9---9--9--9---|-2--2--2--2--2---2--2--2--2--2---2--2--2---|
C|-7--7--7--7--7---7--7--9--9--9---9--9--9---|-2--2--2--2--2---2--2--2--2--2---2--2--2---|


D|-------------------------------------------|-------------------------------------------|
A|-------------------------------------------|-------------------------------------------|
F|-------------------------------------------|-------------------------------------------|
C|-------------------------------------------|-------------------------------------------|
G|-10-10-10-10-10--10-10-10-10-10--10-10-10--|-0--0--0--0--0---0--0--0--0--0---0--0--0---|
C|-10-10-10-10-10--10-10-10-10-10--10-10-10--|-0--0--0--0--0---0--0--0--0--0---0--0--0---|


D|-------------------------------------------|--------|-------------|-------------|
A|-------------------------------------------|--------|-------------|-------------|
F|-------------------------------------------|--------|-------5-----|-------5-----|
C|-------------------------------------------|-2------|-2-----5-----|-------------|
G|-7--7--7--7--7---7--7--9--9--9---9--9--9---|-2------|-------3-----|-------------|
C|-7--7--7--7--7---7--7--9--9--9---9--9--9---|-2------|-------------|-------------|


D|--------|-------------|-------------|--------|--------|--------|--------|--------|
A|--------|-------------|-------------|--------|--------|--------|--------|--------|
F|--------|-------5-----|-------5-----|--------|--------|--------|--------|--------|
C|-2------|-2-----5-----|-------------|--------|--------|--------|--------|--------|
G|-2------|-------3-----|-------------|--------|--------|--------|--------|--------|
C|-2------|-------------|-------------|--------|--------|--------|--------|--------|


D|--------|--------|--------|--------|--------|-------------|-------------|-------------|
A|--------|--------|--------|--------|--------|-------------|-------------|-------------|
F|--------|--------|--------|--------|--------|-------------|-------------|-------------|
C|--------|--------|--------|--------|--------|-------------|-------------|-------------|
G|--------|--------|--------|--------|--------|-------------|-------------|-------------|
C|--------|--------|--------|--------|--------|-------------|-------------|-------------|


D|-------------|--------|
A|-------------|--------|
F|-------------|--------|
C|-------------|-0------|
G|-------------|-0------|
C|-------------|-0------|





Track 2: lead

D|--------|--------|--------|--------|--------|--------|--------|--------|-0-----------0-----------0-------|
A|--------|--------|--------|--------|--------|--------|--------|--------|-----8---8-------8---8-------8---|
F|-12-----|-11-----|-9------|-9------|-12-----|-11-----|-9------|-9------|---------------------------------|
C|--------|--------|--------|--------|--------|--------|--------|--------|---------------------------------|
G|-10-----|-9------|-7------|-7------|-10-----|-9------|-7------|-7------|---------------------------------|
C|--------|--------|--------|--------|--------|--------|--------|--------|---------------------------------|


D|-0-----------0-----------0-------|-0---5---5---0---5---5---0---5---|-0---5---5---0---7---7---0---8---|
A|-----7---7-------7---7-------7---|---------------------------------|---------------------------------|
F|---------------------------------|---------------------------------|---------------------------------|
C|---------------------------------|---------------------------------|---------------------------------|
G|---------------------------------|---------------------------------|---------------------------------|
C|---------------------------------|---------------------------------|---------------------------------|


D|-0-----------0-----------0-------|-0-----------0-----------0-------|-0---5---5---0---5---5---0---5---|
A|-----8---8-------8---8-------8---|-----7---7-------7---7-------7---|---------------------------------|
F|---------------------------------|---------------------------------|---------------------------------|
C|---------------------------------|---------------------------------|---------------------------------|
G|---------------------------------|---------------------------------|---------------------------------|
C|---------------------------------|---------------------------------|---------------------------------|


D|-0---5---5---0---7---7---0---8---|-0-----------0-----------0-------|-0-----------0-----------0-------|
A|---------------------------------|-----8---8-------8---8-------8---|-----7---7-------7---7-------7---|
F|---------------------------------|---------------------------------|---------------------------------|
C|---------------------------------|---------------------------------|---------------------------------|
G|---------------------------------|---------------------------------|---------------------------------|
C|---------------------------------|---------------------------------|---------------------------------|


D|-0---5---5---0---5---5---0---5---|-0---5---5---0---7---7---0---8---|-0-----------0-----------0-------|
A|---------------------------------|---------------------------------|-----8---8-------8---8-------8---|
F|---------------------------------|---------------------------------|---------------------------------|
C|---------------------------------|---------------------------------|---------------------------------|
G|---------------------------------|---------------------------------|---------------------------------|
C|---------------------------------|---------------------------------|---------------------------------|


D|-0-----------0-----------0-------|-0---5---5---0---5---5---0---5---|-0---5---5---0---7---7---0---8---|
A|-----7---7-------7---7-------7---|---------------------------------|---------------------------------|
F|---------------------------------|---------------------------------|---------------------------------|
C|---------------------------------|---------------------------------|---------------------------------|
G|---------------------------------|---------------------------------|---------------------------------|
C|---------------------------------|---------------------------------|---------------------------------|


D|--------|--------|--------|--------|--------|--------|--------|--------|--------|
A|--------|--------|--------|--------|--------|--------|--------|--------|--------|
F|--------|--------|--------|--------|--------|--------|--------|--------|--------|
C|--------|--------|--------|--------|--------|--------|--------|--------|--------|
G|--------|--------|--------|--------|--------|--------|--------|--------|--------|
C|--------|--------|--------|--------|--------|--------|--------|--------|--------|


D|--------|--------|--------|--------|--------|------7----------|-----7-----------------|
A|--------|--------|--------|--------|--------|-----------8-----|---------7-----7---7---|
F|--------|--------|--------|--------|--------|-----------------|-9---------------------|
C|--------|--------|--------|--------|--------|-9---------------|-----------------------|
G|--------|--------|--------|--------|--------|-----------------|-----------------------|
C|--------|--------|--------|--------|--------|-----------------|-----------------------|


D|------7----------|-----------------7---------------|------7----------|-----7-----------------|
A|-----------7-----|-----8---7-----------10--7-------|-----------8-----|---------7-----7---7---|
F|-7---------------|-7-----------7---------------7---|-----------------|-9---------------------|
C|-----------------|---------------------------------|-9---------------|-----------------------|
G|-----------------|---------------------------------|-----------------|-----------------------|
C|-----------------|---------------------------------|-----------------|-----------------------|


D|------7----------|-----------------7---------------|---------7-----------------------|
A|-----------7-----|-----8---7-----------10--7-------|-----------------8---7-----------|
F|-7---------------|-7-----------7---------------7---|-9---9-------9-----------9-------|
C|-----------------|---------------------------------|---------------------------------|
G|-----------------|---------------------------------|---------------------------------|
C|-----------------|---------------------------------|---------------------------------|


D|---------------------7-----------|-------------------------8---7---|-----------------7---------------|
A|---------8---7---------------7---|---------7-------10--7-----------|-----8---7-----------10--7-------|
F|-9---9-----------9-------9-------|-7---7-------7-------------------|-7-----------7---------------7---|
C|---------------------------------|---------------------------------|---------------------------------|
G|---------------------------------|---------------------------------|---------------------------------|
C|---------------------------------|---------------------------------|---------------------------------|


D|---------7-----------------------|---------------------7-----------|-------------------------8---7---|
A|-----------------8---7-----------|---------8---7---------------7---|---------7-------10--7-----------|
F|-9---9-------9-----------9-------|-9---9-----------9-------9-------|-7---7-------7-------------------|
C|---------------------------------|---------------------------------|---------------------------------|
G|---------------------------------|---------------------------------|---------------------------------|
C|---------------------------------|---------------------------------|---------------------------------|


D|-----------------7---------------|-----7-----------7---------------|-----7-----------10--8-----------|
A|-----8---7-----------10--7-------|---------8-----------7-----------|---------7---------------8-------|
F|-7-----------7---------------7---|-9-----------9-----------9---9---|-9-----------9---------------9---|
C|---------------------------------|---------------------------------|---------------------------------|
G|---------------------------------|---------------------------------|---------------------------------|
C|---------------------------------|---------------------------------|---------------------------------|


D|-----7-----------7-----------7---|-----7-----------------------7---|-----7-----------7---------------|
A|---------7-----------8-----------|---------8-------10--8-----------|---------8-----------7-----------|
F|-7-----------7-----------7-------|-7-----------7-----------7-------|-9-----------9-----------9---9---|
C|---------------------------------|---------------------------------|---------------------------------|
G|---------------------------------|---------------------------------|---------------------------------|
C|---------------------------------|---------------------------------|---------------------------------|


D|-----7-----------10--8-----------|-----7-----------7-----------7---|-----7-----------------------7---|
A|---------7---------------8-------|---------7-----------8-----------|---------8-------10--8-----------|
F|-9-----------9---------------9---|-7-----------7-----------7-------|-7-----------7-----------7-------|
C|---------------------------------|---------------------------------|---------------------------------|
G|---------------------------------|---------------------------------|---------------------------------|
C|---------------------------------|---------------------------------|---------------------------------|


D|--------|--------|--------|--------|-------------------------------------------------|
A|--------|--------|--------|--------|-------------------------------------10-10-10-10-|
F|--------|--------|--------|--------|-12-12-12-12-9--9--9--9--11-11-11-11-------------|
C|--------|--------|--------|--------|-------------------------------------------------|
G|--------|--------|--------|--------|-------------------------------------------------|
C|--------|--------|--------|--------|-------------------------------------------------|


D|-------------------------------------------------|-------------------------------------10-10-10-10-|
A|-------------------------------------------------|-------------------------------------------------|
F|-12-12-12-12-9--9--9--9--11-11-11-11-------------|-12-12-12-12-9--9--9--9--11-11-11-11-------------|
C|-------------------------------------9--9--9--9--|-------------------------------------------------|
G|-------------------------------------------------|-------------------------------------------------|
C|-------------------------------------------------|-------------------------------------------------|


D|-------------------------------------------------|-------------------------------------------------|
A|-------------------10-10-------------------------|-------------------------------------10-10-10-10-|
F|-12-12-12-12-9--9--------12-12-12-12-9--9--------|-12-12-12-12-9--9--9--9--11-11-11-11-------------|
C|-------------------------------------------9--9--|-------------------------------------------------|
G|-------------------------------------------------|-------------------------------------------------|
C|-------------------------------------------------|-------------------------------------------------|


D|-------------------------------------------------|-------------------------------------10-10-10-10-|
A|-------------------------------------------------|-------------------------------------------------|
F|-12-12-12-12-9--9--9--9--11-11-11-11-------------|-12-12-12-12-9--9--9--9--11-11-11-11-------------|
C|-------------------------------------9--9--9--9--|-------------------------------------------------|
G|-------------------------------------------------|-------------------------------------------------|
C|-------------------------------------------------|-------------------------------------------------|


D|-------------------------------------------------|-------------------------------------------------|
A|-------------------10-10-------------------------|-------------------------------------10-10-10-10-|
F|-12-12-12-12-9--9--------12-12-12-12-9--9--------|-12-12-12-12-9--9--9--9--11-11-11-11-------------|
C|-------------------------------------------9--9--|-------------------------------------------------|
G|-------------------------------------------------|-------------------------------------------------|
C|-------------------------------------------------|-------------------------------------------------|


D|-------------------------------------------------|-------------------------------------10-10-10-10-|
A|-------------------------------------------------|-------------------------------------------------|
F|-12-12-12-12-9--9--9--9--11-11-11-11-------------|-12-12-12-12-9--9--9--9--11-11-11-11-------------|
C|-------------------------------------9--9--9--9--|-------------------------------------------------|
G|-------------------------------------------------|-------------------------------------------------|
C|-------------------------------------------------|-------------------------------------------------|


D|-------------------------------------------------|-------------------------------------------------|
A|-------------------10-10-------------------------|-------------------------------------10-10-10-10-|
F|-12-12-12-12-9--9--------12-12-12-12-9--9--------|-12-12-12-12-9--9--9--9--11-11-11-11-------------|
C|-------------------------------------------9--9--|-------------------------------------------------|
G|-------------------------------------------------|-------------------------------------------------|
C|-------------------------------------------------|-------------------------------------------------|


D|-------------------------------------------------|-------------------------------------10-10-10-10-|
A|-------------------------------------------------|-------------------------------------------------|
F|-12-12-12-12-9--9--9--9--11-11-11-11-------------|-12-12-12-12-9--9--9--9--11-11-11-11-------------|
C|-------------------------------------9--9--9--9--|-------------------------------------------------|
G|-------------------------------------------------|-------------------------------------------------|
C|-------------------------------------------------|-------------------------------------------------|


D|-------------------------------------------------|-------------------------------------------------|
A|-------------------10-10-------------------------|-------------------------------------------------|
F|-12-12-12-12-9--9--------12-12-12-12-9--9--------|-12-12-12-12-12-12-12-12-12-12-12-12-12-12-12-12-|
C|-------------------------------------------9--9--|-------------------------------------------------|
G|-------------------------------------------------|-10-10-10-10-10-10-10-10-10-10-10-10-10-10-10-10-|
C|-------------------------------------------------|-------------------------------------------------|


D|-------------------------------------------------|-------------------------------------------------|
A|-------------------------------------------------|-------------------------------------------------|
F|-14-14-14-14-14-14-14-14-14-14-14-14-14-14-14-14-|-11-11-11-11-11-11-11-11-11-11-11-11-11-11-11-11-|
C|-------------------------------------------------|-------------------------------------------------|
G|-12-12-12-12-12-12-12-12-12-12-12-12-12-12-12-12-|-9--9--9--9--9--9--9--9--9--9--9--9--9--9--9--9--|
C|-------------------------------------------------|-------------------------------------------------|


D|-------------------------------------------------|-------------------------------------------------|
A|-------------------------------------------------|-------------------------------------------------|
F|-17-17-17-17-17-17-17-17-20-20-20-20-20-20-19-19-|-12-12-12-12-12-12-12-12-12-12-12-12-12-12-12-12-|
C|-------------------------------------------------|-------------------------------------------------|
G|-15-15-15-15-15-15-15-15-18-18-18-18-18-18-17-17-|-10-10-10-10-10-10-10-10-10-10-10-10-10-10-10-10-|
C|-------------------------------------------------|-------------------------------------------------|


D|-------------------------------------------------|-------------------------------------------------|
A|-------------------------------------------------|-------------------------------------------------|
F|-14-14-14-14-14-14-14-14-14-14-14-14-14-14-14-14-|-11-11-11-11-11-11-11-11-11-11-11-11-11-11-11-11-|
C|-------------------------------------------------|-------------------------------------------------|
G|-12-12-12-12-12-12-12-12-12-12-12-12-12-12-12-12-|-9--9--9--9--9--9--9--9--9--9--9--9--9--9--9--9--|
C|-------------------------------------------------|-------------------------------------------------|


D|-------------------------------------------------|-------------------------------------------------|
A|-------------------------------------------------|-------------------------------------------------|
F|-17-17-17-17-17-17-17-17-20-20-20-20-20-20-19-19-|-12-12-12-12-12-12-12-12-12-12-12-12-12-12-12-12-|
C|-------------------------------------------------|-------------------------------------------------|
G|-15-15-15-15-15-15-15-15-18-18-18-18-18-18-17-17-|-10-10-10-10-10-10-10-10-10-10-10-10-10-10-10-10-|
C|-------------------------------------------------|-------------------------------------------------|


D|-------------------------------------------------|-------------------------------------------------|
A|-------------------------------------------------|-------------------------------------------------|
F|-14-14-14-14-14-14-14-14-14-14-14-14-14-14-14-14-|-11-11-11-11-11-11-11-11-11-11-11-11-11-11-11-11-|
C|-------------------------------------------------|-------------------------------------------------|
G|-12-12-12-12-12-12-12-12-12-12-12-12-12-12-12-12-|-9--9--9--9--9--9--9--9--9--9--9--9--9--9--9--9--|
C|-------------------------------------------------|-------------------------------------------------|


D|-------------------------------------------------|-------------------------------------------------|
A|-------------------------------------------------|-------------------------------------------------|
F|-17-17-17-17-17-17-17-17-20-20-20-20-20-20-19-19-|-12-12-12-12-12-12-12-12-12-12-12-12-12-12-12-12-|
C|-------------------------------------------------|-------------------------------------------------|
G|-15-15-15-15-15-15-15-15-18-18-18-18-18-18-17-17-|-10-10-10-10-10-10-10-10-10-10-10-10-10-10-10-10-|
C|-------------------------------------------------|-------------------------------------------------|


D|-------------------------------------------------|-------------------------------------------------|
A|-------------------------------------------------|-------------------------------------------------|
F|-14-14-14-14-14-14-14-14-14-14-14-14-14-14-14-14-|-11-11-11-11-11-11-11-11-11-11-11-11-11-11-11-11-|
C|-------------------------------------------------|-------------------------------------------------|
G|-12-12-12-12-12-12-12-12-12-12-12-12-12-12-12-12-|-9--9--9--9--9--9--9--9--9--9--9--9--9--9--9--9--|
C|-------------------------------------------------|-------------------------------------------------|


D|-------------------------------------------------|--------|--------|--------|--------|
A|-------------------------------------------------|--------|--------|--------|--------|
F|-17-17-17-17-17-17-17-17-20-20-20-20-20-20-19-19-|--------|--------|--------|--------|
C|-------------------------------------------------|--------|--------|--------|--------|
G|-15-15-15-15-15-15-15-15-18-18-18-18-18-18-17-17-|--------|--------|--------|--------|
C|-------------------------------------------------|--------|--------|--------|--------|


D|--------|--------|--------|--------|--------|--------|--------|--------|--------|
A|--------|--------|--------|--------|--------|--------|--------|--------|--------|
F|--------|--------|--------|--------|--------|--------|--------|--------|--------|
C|--------|--------|--------|--------|--------|--------|--------|--------|--------|
G|--------|--------|--------|--------|--------|--------|--------|--------|--------|
C|--------|--------|--------|--------|--------|--------|--------|--------|--------|


D|--------|--------|--------|--------|--------|--------|--------|--------|
A|--------|--------|--------|--------|--------|--------|--------|--------|
F|--------|--------|--------|--------|--------|--------|--------|--------|
C|--------|--------|--------|--------|--------|--------|--------|--------|
G|--------|--------|--------|--------|--------|--------|--------|--------|
C|--------|--------|--------|--------|--------|--------|--------|--------|





Track 3: bass

F|--------|--------|--------|--------|--------|--------|--------|--------|-----------------------|
C|--------|--------|--------|--------|--------|--------|--------|--------|-----------------------|
G|--------|--------|-3------|-3------|--------|--------|-3------|-3------|-----------------------|
C|-2------|-0------|--------|--------|-2------|-0------|--------|--------|-2---2---2---2---------|


F|-----------------------|-----------------------|-------------|-----------------------|
C|-----------------------|-----------------------|-------------|-----------------------|
G|-----------------------|-3---3---3---3---------|-3-----5-----|-----------------------|
C|-0---0---0---0---------|-----------------------|-------------|-2---2---2---2---------|


F|-----------------------|-----------------------|-------------|---------------------------|
C|-----------------------|-----------------------|-------------|-----------------5----4----|
G|-----------------------|-3---3---3---3---------|-3-----5-----|---------------------------|
C|-0---0---0---0---------|-----------------------|-------------|-2---2---2---2-------------|


F|---------------------------|---------------------------|---------------------------|
C|-----------------5----4----|-----------------4----5----|---------4------------5----|
G|---------------------------|-3---3---3---3-------------|-3---3--------5---5--------|
C|-0---0---0---0-------------|---------------------------|---------------------------|


F|---------------------------|---------------------------|---------------------------|
C|-----------------5----4----|-----------------5----4----|-----------------4----5----|
G|---------------------------|---------------------------|-3---3---3---3-------------|
C|-2---2---2---2-------------|-0---0---0---0-------------|---------------------------|


F|---------------------------|--------|--------|--------|--------|--------|--------|
C|---------4------------5----|--------|--------|--------|--------|--------|--------|
G|-3---3--------5---5--------|--------|--------|--------|--------|--------|--------|
C|---------------------------|--------|--------|--------|--------|--------|--------|


F|--------|--------|--------|--------|--------|--------|--------|--------|-------------------------------------------------|
C|--------|--------|--------|--------|--------|--------|--------|--------|-------------------------------------------------|
G|--------|--------|--------|--------|--------|--------|--------|--------|-7--7--7--7--7--7--7--7--7--7--7--7--7--7--7--7--|
C|--------|--------|--------|--------|--------|--------|--------|--------|-------------------------------------------------|


F|-------------------------------------------------|-------------------------------------------------|
C|-------------------------------------------------|-------------------------------------------------|
G|-3--3--3--3--3--3--3--3--3--3--3--3--3--3--3--3--|-5--5--5--5--5--5--5--5--5--5--5--5--5--5--5--5--|
C|-------------------------------------------------|-------------------------------------------------|


F|-------------------------------------------------|-------------------------------------------------|
C|-------------------------------------------------|-------------------------------------------------|
G|-------------------------------------------------|-7--7--7--7--7--7--7--7--7--7--7--7--7--7--7--7--|
C|-7--7--7--7--7--7--7--7--9--9--9--9--9--9--9--9--|-------------------------------------------------|


F|-------------------------------------------------|-------------------------------------------------|
C|-------------------------------------------------|-------------------------------------------------|
G|-3--3--3--3--3--3--3--3--3--3--3--3--3--3--3--3--|-5--5--5--5--5--5--5--5--5--5--5--5--5--5--5--5--|
C|-------------------------------------------------|-------------------------------------------------|


F|-------------------------------------------------|-------------------------------------------------|
C|-------------------------------------------------|-------------------------------------------------|
G|-------------------------------------------------|-7--7--7--7--7--7--7--7--7--7--7--7--7--7--7--7--|
C|-7--7--7--7--7--7--7--7--9--9--9--9--9--9--9--9--|-------------------------------------------------|


F|-------------------------------------------------|-------------------------------------------------|
C|-------------------------------------------------|-------------------------------------------------|
G|-3--3--3--3--3--3--3--3--3--3--3--3--3--3--3--3--|-5--5--5--5--5--5--5--5--5--5--5--5--5--5--5--5--|
C|-------------------------------------------------|-------------------------------------------------|


F|-------------------------------------------------|-------------------------------------------------|
C|-------------------------------------------------|-------------------------------------------------|
G|-------------------------------------------------|-7--7--7--7--7--7--7--7--7--7--7--7--7--7--7--7--|
C|-7--7--7--7--7--7--7--7--9--9--9--9--9--9--9--9--|-------------------------------------------------|


F|-------------------------------------------------|-------------------------------------------------|
C|-------------------------------------------------|-------------------------------------------------|
G|-3--3--3--3--3--3--3--3--3--3--3--3--3--3--3--3--|-5--5--5--5--5--5--5--5--5--5--5--5--5--5--5--5--|
C|-------------------------------------------------|-------------------------------------------------|


F|-------------------------------------------------|-------------------------------------------------|
C|-------------------------------------------------|-------------------------------------------------|
G|-------------------------------------------------|-7--7--7--7--7--7--7--7--7--7--7--7--7--7--7--7--|
C|-7--7--7--7--7--7--7--7--9--9--9--9--9--9--9--9--|-------------------------------------------------|


F|-------------------------------------------------|-------------------------------------------------|
C|-------------------------------------------------|-------------------------------------------------|
G|-3--3--3--3--3--3--3--3--3--3--3--3--3--3--3--3--|-5--5--5--5--5--5--5--5--5--5--5--5--5--5--5--5--|
C|-------------------------------------------------|-------------------------------------------------|


F|-------------------------------------------------|-------------------------------------------------|
C|-------------------------------------------------|-------------------------------------------------|
G|-------------------------------------------------|-7--7--7--7--7--7--7--7--7--7--7--7--7--7--7--7--|
C|-7--7--7--7--7--7--7--7--9--9--9--9--9--9--9--9--|-------------------------------------------------|


F|-------------------------------------------------|-------------------------------------------------|
C|-------------------------------------------------|-------------------------------------------------|
G|-3--3--3--3--3--3--3--3--3--3--3--3--3--3--3--3--|-5--5--5--5--5--5--5--5--5--5--5--5--5--5--5--5--|
C|-------------------------------------------------|-------------------------------------------------|


F|-------------------------------------------------|--------|--------|--------|--------|
C|-------------------------------------------------|--------|--------|--------|--------|
G|-------------------------------------------------|--------|--------|--------|--------|
C|-7--7--7--7--7--7--7--7--9--9--9--9--9--9--9--9--|--------|--------|--------|--------|


F|-------------------------------------------------|-------------------------------------------------|
C|-------4--------4--------5--------5-----7--5--4--|-------4--------4--------5--------5-----7--5--4--|
G|-7--7-----7--7-----7--7-----7--7-----7-----------|-3--3-----3--3-----3--3-----3--3-----3-----------|
C|-------------------------------------------------|-------------------------------------------------|


F|-------------------------------------------------|-------------------------------------------------|
C|-------4--------4--------5--------5-----7--5--4--|-------4-----5--------7--------4-----5--------7--|
G|-5--5-----5--5-----5--5-----5--5-----5-----------|-0--0-----0-----0--0-----2--2-----2-----2--2-----|
C|-------------------------------------------------|-------------------------------------------------|


F|-------------------------------------------------|-------------------------------------------------|
C|-------4--------4--------5--------5-----7--5--4--|-------4--------4--------5--------5-----7--5--4--|
G|-7--7-----7--7-----7--7-----7--7-----7-----------|-3--3-----3--3-----3--3-----3--3-----3-----------|
C|-------------------------------------------------|-------------------------------------------------|


F|-------------------------------------------------|-------------------------------------------------|
C|-------4--------4--------5--------5-----7--5--4--|-------4-----5--------7--------4-----5--------7--|
G|-5--5-----5--5-----5--5-----5--5-----5-----------|-0--0-----0-----0--0-----2--2-----2-----2--2-----|
C|-------------------------------------------------|-------------------------------------------------|


F|-------------------------------------------------|-------------------------------------------------|
C|-------4--------4--------5--------5-----7--5--4--|-------4--------4--------5--------5-----7--5--4--|
G|-7--7-----7--7-----7--7-----7--7-----7-----------|-3--3-----3--3-----3--3-----3--3-----3-----------|
C|-------------------------------------------------|-------------------------------------------------|


F|-------------------------------------------------|-------------------------------------------------|
C|-------4--------4--------5--------5-----7--5--4--|-------4-----5--------7--------4-----5--------7--|
G|-5--5-----5--5-----5--5-----5--5-----5-----------|-0--0-----0-----0--0-----2--2-----2-----2--2-----|
C|-------------------------------------------------|-------------------------------------------------|


F|-------------------------------------------------|-------------------------------------------------|
C|-------4--------4--------5--------5-----7--5--4--|-------4--------4--------5--------5-----7--5--4--|
G|-7--7-----7--7-----7--7-----7--7-----7-----------|-3--3-----3--3-----3--3-----3--3-----3-----------|
C|-------------------------------------------------|-------------------------------------------------|


F|-------------------------------------------------|-------------------------------------------------|
C|-------4--------4--------5--------5-----7--5--4--|-------4-----5--------7--------4-----5--------7--|
G|-5--5-----5--5-----5--5-----5--5-----5-----------|-0--0-----0-----0--0-----2--2-----2-----2--2-----|
C|-------------------------------------------------|-------------------------------------------------|


F|-------------------------------------------------|-------------------5--5--------------------------|
C|-------------------2--2--------------2--2--0--0--|-------------5--5--------5--5--------2--2--0--0--|
G|-------------2--2--------2--2--------------------|-3--3--3--3--------------------3--3--------------|
C|-2--2--2--2--------------------2--2--------------|-------------------------------------------------|


F|-------------------------------------------------|-------------------------------------------------|
C|-------------------0--0--------------0--0--2--2--|-------------------7--7--------------------9--9--|
G|-------------0--0--------0--0--------------------|-------------7--7--------------------9--9--------|
C|-0--0--0--0--------------------0--0--------------|-7--7--7--7--------------9--9--9--9--------------|


F|-------------------------------------------------|-------------------5--5--------------------------|
C|-------------------2--2--------------2--2--0--0--|-------------5--5--------5--5--------2--2--0--0--|
G|-------------2--2--------2--2--------------------|-3--3--3--3--------------------3--3--------------|
C|-2--2--2--2--------------------2--2--------------|-------------------------------------------------|


F|-------------------------------------------------|-------------------------------------------------|
C|-------------------0--0--------------0--0--2--2--|-------------------7--7--------------------9--9--|
G|-------------0--0--------0--0--------------------|-------------7--7--------------------9--9--------|
C|-0--0--0--0--------------------0--0--------------|-7--7--7--7--------------9--9--9--9--------------|


F|-------------------------------------------------|-------------------5--5--------------------------|
C|-------------------2--2--------------2--2--0--0--|-------------5--5--------5--5--------2--2--0--0--|
G|-------------2--2--------2--2--------------------|-3--3--3--3--------------------3--3--------------|
C|-2--2--2--2--------------------2--2--------------|-------------------------------------------------|


F|-------------------------------------------------|-------------------------------------------------|
C|-------------------0--0--------------0--0--2--2--|-------------------7--7--------------------9--9--|
G|-------------0--0--------0--0--------------------|-------------7--7--------------------9--9--------|
C|-0--0--0--0--------------------0--0--------------|-7--7--7--7--------------9--9--9--9--------------|


F|-------------------------------------------------|-------------------5--5--------------------------|
C|-------------------2--2--------------2--2--0--0--|-------------5--5--------5--5--------2--2--0--0--|
G|-------------2--2--------2--2--------------------|-3--3--3--3--------------------3--3--------------|
C|-2--2--2--2--------------------2--2--------------|-------------------------------------------------|


F|-------------------------------------------------|-------------------------------------------------|
C|-------------------0--0--------------0--0--2--2--|-------------------7--7--------------------9--9--|
G|-------------0--0--------0--0--------------------|-------------7--7--------------------9--9--------|
C|-0--0--0--0--------------------0--0--------------|-7--7--7--7--------------9--9--9--9--------------|


F|--------|--------|--------|--------|--------|--------|--------|--------|--------|
C|--------|--------|--------|--------|--------|--------|--------|--------|--------|
G|--------|--------|--------|--------|--------|--------|--------|--------|--------|
C|--------|--------|--------|--------|--------|--------|--------|--------|--------|


F|--------|--------|--------|--------|--------|--------|--------|--------|--------|
C|--------|--------|--------|--------|--------|--------|--------|--------|--------|
G|--------|--------|--------|--------|--------|--------|--------|--------|--------|
C|--------|--------|--------|--------|--------|--------|--------|--------|--------|


F|--------|--------|--------|
C|--------|--------|--------|
G|--------|--------|--------|
C|--------|--------|--------|





Track 4: clean

D|--------|--------|--------|--------|--------|--------|--------|--------|--------|
A|--------|--------|--------|--------|--------|--------|--------|--------|--------|
F|--------|--------|--------|--------|--------|--------|--------|--------|--------|
C|--------|--------|--------|--------|--------|--------|--------|--------|--------|
G|--------|--------|--------|--------|--------|--------|--------|--------|--------|
C|--------|--------|--------|--------|--------|--------|--------|--------|--------|


D|--------|--------|--------|--------|--------|--------|--------|--------|--------|
A|--------|--------|--------|--------|--------|--------|--------|--------|--------|
F|--------|--------|--------|--------|--------|--------|--------|--------|--------|
C|--------|--------|--------|--------|--------|--------|--------|--------|--------|
G|--------|--------|--------|--------|--------|--------|--------|--------|--------|
C|--------|--------|--------|--------|--------|--------|--------|--------|--------|


D|--------|--------|--------|--------|--------|--------|--------|-----------------|
A|--------|--------|--------|--------|--------|--------|--------|------5----------|
F|--------|--------|--------|--------|--------|--------|--------|-4---------5-----|
C|--------|--------|--------|--------|--------|--------|-2------|-----------5-----|
G|--------|--------|--------|--------|--------|--------|-2------|-----------3-----|
C|--------|--------|--------|--------|--------|--------|-2------|-----------------|


D|-----------------|--------|-----------------|-----------------|--------|-----------------|
A|-------3----1----|--------|------5----------|-------3----1----|--------|------5----------|
F|-----------------|--------|-4---------5-----|-----------------|--------|-4---------5-----|
C|-----------------|-2------|-----------5-----|-----------------|-2------|-----------5-----|
G|-----------------|-2------|-----------3-----|-----------------|-2------|-----------3-----|
C|-----------------|-2------|-----------------|-----------------|-2------|-----------------|


D|-----------------|--------|-----------------|-----------------|--------|--------|
A|-------3----1----|--------|------5----------|-------3----1----|--------|--------|
F|-----------------|--------|-4---------5-----|-----------------|--------|--------|
C|-----------------|-2------|-----------5-----|-----------------|-10-----|-12-----|
G|-----------------|-2------|-----------3-----|-----------------|-10-----|-12-----|
C|-----------------|-2------|-----------------|-----------------|-10-----|-12-----|


D|--------|--------|--------|--------|--------|--------|--------|--------|--------|
A|--------|--------|--------|--------|--------|--------|--------|--------|--------|
F|--------|--------|--------|--------|--------|--------|--------|--------|--------|
C|--------|--------|--------|--------|--------|--------|--------|--------|--------|
G|--------|--------|--------|--------|--------|--------|--------|--------|--------|
C|--------|--------|--------|--------|--------|--------|--------|--------|--------|


D|--------|--------|--------|--------|--------|--------|--------|--------|--------|
A|--------|--------|--------|--------|--------|--------|--------|--------|--------|
F|--------|--------|--------|--------|--------|--------|--------|--------|--------|
C|--------|--------|--------|--------|--------|--------|--------|--------|--------|
G|--------|--------|--------|--------|--------|--------|--------|--------|--------|
C|--------|--------|--------|--------|--------|--------|--------|--------|--------|


D|--------|--------|--------|--------|--------|--------|--------|--------|--------|
A|--------|--------|--------|--------|--------|--------|--------|--------|--------|
F|--------|--------|--------|--------|--------|--------|--------|--------|--------|
C|--------|--------|--------|--------|--------|--------|--------|--------|--------|
G|--------|--------|--------|--------|--------|--------|--------|--------|--------|
C|--------|--------|--------|--------|--------|--------|--------|--------|--------|


D|--------|--------|--------|--------|--------|--------|--------|--------|--------|
A|--------|--------|--------|--------|--------|--------|--------|--------|--------|
F|--------|--------|--------|--------|--------|--------|--------|--------|--------|
C|--------|--------|--------|--------|--------|--------|--------|--------|--------|
G|--------|--------|--------|--------|--------|--------|--------|--------|--------|
C|--------|--------|--------|--------|--------|--------|--------|--------|--------|


D|--------|--------|--------|--------|--------|--------|--------|--------|--------|
A|--------|--------|--------|--------|--------|--------|--------|--------|--------|
F|--------|--------|--------|--------|--------|--------|--------|--------|--------|
C|--------|--------|--------|--------|--------|--------|--------|--------|--------|
G|--------|--------|--------|--------|--------|--------|--------|--------|--------|
C|--------|--------|--------|--------|--------|--------|--------|--------|--------|


D|--------|--------|--------|--------|--------|--------|--------|--------|--------|
A|--------|--------|--------|--------|--------|--------|--------|--------|--------|
F|--------|--------|--------|--------|--------|--------|--------|--------|--------|
C|--------|--------|--------|--------|--------|--------|--------|--------|--------|
G|--------|--------|--------|--------|--------|--------|--------|--------|--------|
C|--------|--------|--------|--------|--------|--------|--------|--------|--------|


D|--------|--------|--------|--------|--------|--------|--------|--------|--------|
A|--------|--------|--------|--------|--------|--------|--------|--------|--------|
F|--------|--------|--------|--------|--------|--------|--------|--------|--------|
C|--------|--------|--------|--------|--------|--------|--------|--------|--------|
G|--------|--------|--------|--------|--------|--------|--------|--------|--------|
C|--------|--------|--------|--------|--------|--------|--------|--------|--------|


D|--------|--------|--------|--------|-------------|--------|--------|--------|--------|
A|--------|--------|--------|--------|-------------|--------|--------|--------|--------|
F|--------|--------|--------|--------|-------------|--------|--------|--------|--------|
C|--------|--------|--------|-2------|-------2-----|--------|--------|--------|--------|
G|--------|--------|--------|-2------|-------2-----|--------|--------|--------|--------|
C|--------|--------|--------|-2------|-------2-----|--------|--------|--------|--------|


D|--------|--------|--------|--------|--------|--------|--------|--------|--------|
A|--------|--------|--------|--------|--------|--------|--------|--------|--------|
F|--------|--------|--------|--------|--------|--------|--------|--------|--------|
C|--------|--------|--------|--------|--------|--------|--------|--------|--------|
G|--------|--------|--------|--------|--------|--------|--------|--------|--------|
C|--------|--------|--------|--------|--------|--------|--------|--------|--------|





Track 5: clean

D|--------|--------|--------|--------|--------|--------|--------|--------|--------|
A|--------|--------|--------|--------|--------|--------|--------|--------|--------|
F|--------|--------|--------|--------|--------|--------|--------|--------|--------|
C|--------|--------|--------|--------|--------|--------|--------|--------|--------|
G|--------|--------|--------|--------|--------|--------|--------|--------|--------|
C|--------|--------|--------|--------|--------|--------|--------|--------|--------|


D|--------|--------|--------|--------|--------|--------|--------|--------|--------|
A|--------|--------|--------|--------|--------|--------|--------|--------|--------|
F|--------|--------|--------|--------|--------|--------|--------|--------|--------|
C|--------|--------|--------|--------|--------|--------|--------|--------|--------|
G|--------|--------|--------|--------|--------|--------|--------|--------|--------|
C|--------|--------|--------|--------|--------|--------|--------|--------|--------|


D|--------|--------|--------|--------|--------|--------|-------------8---7------------|
A|--------|--------|--------|--------|--------|--------|------8--------------8--------|
F|--------|--------|--------|--------|--------|--------|-------------------------5----|
C|--------|--------|--------|--------|--------|--------|-7--------7-------------------|
G|--------|--------|--------|--------|--------|--------|------------------------------|
C|--------|--------|--------|--------|--------|--------|------------------------------|


D|-------------------8---|-7--------------|-------------8---7------------|-------------------8---|
A|------------8----------|-----8----------|------8--------------8--------|------------8----------|
F|-----------------------|---------7------|-------------------------5----|-----------------------|
C|-------7--------7------|----------------|-7--------7-------------------|-------7--------7------|
G|-----------------------|----------------|------------------------------|-----------------------|
C|-----------------------|----------------|------------------------------|-----------------------|


D|-7--------------|-------------8---7------------|-------------------8---|-7--------------|
A|-----8----------|------8--------------8--------|------------8----------|-----8----------|
F|---------7------|-------------------------5----|-----------------------|---------7------|
C|----------------|-7--------7-------------------|-------7--------7------|----------------|
G|----------------|------------------------------|-----------------------|----------------|
C|----------------|------------------------------|-----------------------|----------------|


D|-------------8---7------------|-------------------8---|-7--------------|--------|
A|------8--------------8--------|------------8----------|-----8----------|--------|
F|-------------------------5----|-----------------------|---------7------|--------|
C|-7--------7-------------------|-------7--------7------|----------------|--------|
G|------------------------------|-----------------------|----------------|--------|
C|------------------------------|-----------------------|----------------|--------|


D|--------|--------|--------|--------|--------|--------|--------|--------|--------|
A|--------|--------|--------|--------|--------|--------|--------|--------|--------|
F|--------|--------|--------|--------|--------|--------|--------|--------|--------|
C|--------|--------|--------|--------|--------|--------|--------|--------|--------|
G|--------|--------|--------|--------|--------|--------|--------|--------|--------|
C|--------|--------|--------|--------|--------|--------|--------|--------|--------|


D|--------|--------|--------|--------|--------|--------|--------|--------|--------|
A|--------|--------|--------|--------|--------|--------|--------|--------|--------|
F|--------|--------|--------|--------|--------|--------|--------|--------|--------|
C|--------|--------|--------|--------|--------|--------|--------|--------|--------|
G|--------|--------|--------|--------|--------|--------|--------|--------|--------|
C|--------|--------|--------|--------|--------|--------|--------|--------|--------|


D|--------|--------|--------|--------|--------|--------|--------|--------|--------|
A|--------|--------|--------|--------|--------|--------|--------|--------|--------|
F|--------|--------|--------|--------|--------|--------|--------|--------|--------|
C|--------|--------|--------|--------|--------|--------|--------|--------|--------|
G|--------|--------|--------|--------|--------|--------|--------|--------|--------|
C|--------|--------|--------|--------|--------|--------|--------|--------|--------|


D|--------|--------|--------|--------|--------|--------|--------|--------|--------|
A|--------|--------|--------|--------|--------|--------|--------|--------|--------|
F|--------|--------|--------|--------|--------|--------|--------|--------|--------|
C|--------|--------|--------|--------|--------|--------|--------|--------|--------|
G|--------|--------|--------|--------|--------|--------|--------|--------|--------|
C|--------|--------|--------|--------|--------|--------|--------|--------|--------|


D|--------|--------|--------|--------|--------|--------|--------|--------|--------|
A|--------|--------|--------|--------|--------|--------|--------|--------|--------|
F|--------|--------|--------|--------|--------|--------|--------|--------|--------|
C|--------|--------|--------|--------|--------|--------|--------|--------|--------|
G|--------|--------|--------|--------|--------|--------|--------|--------|--------|
C|--------|--------|--------|--------|--------|--------|--------|--------|--------|


D|--------|--------|--------|--------|--------|--------|--------|--------|--------|
A|--------|--------|--------|--------|--------|--------|--------|--------|--------|
F|--------|--------|--------|--------|--------|--------|--------|--------|--------|
C|--------|--------|--------|--------|--------|--------|--------|--------|--------|
G|--------|--------|--------|--------|--------|--------|--------|--------|--------|
C|--------|--------|--------|--------|--------|--------|--------|--------|--------|


D|--------|--------|--------|--------|--------|--------|--------|--------|--------|
A|--------|--------|--------|--------|--------|--------|--------|--------|--------|
F|--------|--------|--------|--------|--------|--------|--------|--------|--------|
C|--------|--------|--------|--------|--------|--------|--------|--------|--------|
G|--------|--------|--------|--------|--------|--------|--------|--------|--------|
C|--------|--------|--------|--------|--------|--------|--------|--------|--------|


D|--------|--------|--------|--------|--------|--------|--------|--------|--------|
A|--------|--------|--------|--------|--------|--------|--------|--------|--------|
F|--------|--------|--------|--------|--------|--------|--------|--------|--------|
C|--------|--------|--------|--------|--------|--------|--------|--------|--------|
G|--------|--------|--------|--------|--------|--------|--------|--------|--------|
C|--------|--------|--------|--------|--------|--------|--------|--------|--------|


D|--------|--------|--------|--------|--------|--------|--------|--------|--------|
A|--------|--------|--------|--------|--------|--------|--------|--------|--------|
F|--------|--------|--------|--------|--------|--------|--------|--------|--------|
C|--------|--------|--------|--------|--------|--------|--------|--------|--------|
G|--------|--------|--------|--------|--------|--------|--------|--------|--------|
C|--------|--------|--------|--------|--------|--------|--------|--------|--------|


D|--------|
A|--------|
F|--------|
C|--------|
G|--------|
C|--------|





Track 6: Rythem

D|--------|--------|--------|--------|--------|--------|--------|--------|--------|
A|--------|--------|--------|--------|--------|--------|--------|--------|--------|
F|--------|--------|--------|--------|--------|--------|--------|--------|--------|
C|--------|--------|--------|--------|--------|--------|--------|--------|--------|
G|--------|--------|--------|--------|--------|--------|--------|--------|--------|
C|--------|--------|--------|--------|--------|--------|--------|--------|--------|


D|--------|--------|--------|--------|--------|--------|--------|--------|--------|
A|--------|--------|--------|--------|--------|--------|--------|--------|--------|
F|--------|--------|--------|--------|--------|--------|--------|--------|--------|
C|--------|--------|--------|--------|--------|--------|--------|--------|--------|
G|--------|--------|--------|--------|--------|--------|--------|--------|--------|
C|--------|--------|--------|--------|--------|--------|--------|--------|--------|


D|--------|--------|--------|--------|--------|--------|------------------------|--------------------|
A|--------|--------|--------|--------|--------|--------|------------------------|--------------------|
F|--------|--------|--------|--------|--------|--------|------------------------|-------3---3--------|
C|--------|--------|--------|--------|--------|--------|-2---2--------2---------|-2------------------|
G|--------|--------|--------|--------|--------|--------|------------------------|--------------------|
C|--------|--------|--------|--------|--------|--------|------------------------|--------------------|


D|-----------------|------------------------|--------------------|-----------------|
A|-----------------|------------------------|--------------------|-----------------|
F|-3---------3-----|------------------------|-------3---3--------|-3---------3-----|
C|-----------------|-2---2--------2---------|-2------------------|-----------------|
G|-----------------|------------------------|--------------------|-----------------|
C|-----------------|------------------------|--------------------|-----------------|


D|------------------------|--------------------|-----------------|------------------------|
A|------------------------|--------------------|-----------------|------------------------|
F|------------------------|-------3---3--------|-3---------3-----|------------------------|
C|-2---2--------2---------|-2------------------|-----------------|-2---2--------2---------|
G|------------------------|--------------------|-----------------|------------------------|
C|------------------------|--------------------|-----------------|------------------------|


D|--------------------|-----------------|--------|--------|--------|--------|--------|
A|--------------------|-----------------|--------|--------|--------|--------|--------|
F|-------3---3--------|-3---------3-----|--------|--------|--------|--------|--------|
C|-2------------------|-----------------|--------|--------|--------|--------|--------|
G|--------------------|-----------------|--------|--------|--------|--------|--------|
C|--------------------|-----------------|--------|--------|--------|--------|--------|


D|--------|--------|--------|--------|--------|--------|--------|--------|--------|
A|--------|--------|--------|--------|--------|--------|--------|--------|--------|
F|--------|--------|--------|--------|--------|--------|--------|--------|--------|
C|--------|--------|--------|--------|--------|--------|--------|--------|--------|
G|--------|--------|--------|--------|--------|--------|--------|--------|--------|
C|--------|--------|--------|--------|--------|--------|--------|--------|--------|


D|--------|--------|--------|--------|--------|--------|--------|--------|--------|
A|--------|--------|--------|--------|--------|--------|--------|--------|--------|
F|--------|--------|--------|--------|--------|--------|--------|--------|--------|
C|--------|--------|--------|--------|--------|--------|--------|--------|--------|
G|--------|--------|--------|--------|--------|--------|--------|--------|--------|
C|--------|--------|--------|--------|--------|--------|--------|--------|--------|


D|--------|--------|--------|--------|--------|--------|--------|--------|--------|
A|--------|--------|--------|--------|--------|--------|--------|--------|--------|
F|--------|--------|--------|--------|--------|--------|--------|--------|--------|
C|--------|--------|--------|--------|--------|--------|--------|--------|--------|
G|--------|--------|--------|--------|--------|--------|--------|--------|--------|
C|--------|--------|--------|--------|--------|--------|--------|--------|--------|


D|--------|--------|--------|--------|--------|--------|--------|--------|--------|
A|--------|--------|--------|--------|--------|--------|--------|--------|--------|
F|--------|--------|--------|--------|--------|--------|--------|--------|--------|
C|--------|--------|--------|--------|--------|--------|--------|--------|--------|
G|--------|--------|--------|--------|--------|--------|--------|--------|--------|
C|--------|--------|--------|--------|--------|--------|--------|--------|--------|


D|--------|--------|--------|--------|--------|--------|--------|--------|--------|
A|--------|--------|--------|--------|--------|--------|--------|--------|--------|
F|--------|--------|--------|--------|--------|--------|--------|--------|--------|
C|--------|--------|--------|--------|--------|--------|--------|--------|--------|
G|--------|--------|--------|--------|--------|--------|--------|--------|--------|
C|--------|--------|--------|--------|--------|--------|--------|--------|--------|


D|--------|--------|--------|--------|--------|--------|--------|--------|--------|
A|--------|--------|--------|--------|--------|--------|--------|--------|--------|
F|--------|--------|--------|--------|--------|--------|--------|--------|--------|
C|--------|--------|--------|--------|--------|--------|--------|--------|--------|
G|--------|--------|--------|--------|--------|--------|--------|--------|--------|
C|--------|--------|--------|--------|--------|--------|--------|--------|--------|


D|--------|--------|--------|--------|--------|--------|--------|--------|--------|
A|--------|--------|--------|--------|--------|--------|--------|--------|--------|
F|--------|--------|--------|--------|--------|--------|--------|--------|--------|
C|--------|--------|--------|--------|--------|--------|--------|--------|--------|
G|--------|--------|--------|--------|--------|--------|--------|--------|--------|
C|--------|--------|--------|--------|--------|--------|--------|--------|--------|


D|--------|--------|--------|--------|--------|--------|--------|--------|--------|
A|--------|--------|--------|--------|--------|--------|--------|--------|--------|
F|--------|--------|--------|--------|--------|--------|--------|--------|--------|
C|--------|--------|--------|--------|--------|--------|--------|--------|--------|
G|--------|--------|--------|--------|--------|--------|--------|--------|--------|
C|--------|--------|--------|--------|--------|--------|--------|--------|--------|


D|--------|--------|--------|--------|--------|--------|
A|--------|--------|--------|--------|--------|--------|
F|--------|--------|--------|--------|--------|--------|
C|--------|--------|--------|--------|--------|--------|
G|--------|--------|--------|--------|--------|--------|
C|--------|--------|--------|--------|--------|--------|





Track 7: piano

D|--------|--------|--------|--------|--------|--------|--------|--------|--------|
A|--------|--------|--------|--------|--------|--------|--------|--------|--------|
F|--------|--------|--------|--------|--------|--------|--------|--------|--------|
C|--------|--------|--------|--------|--------|--------|--------|--------|--------|
G|--------|--------|--------|--------|--------|--------|--------|--------|--------|
C|--------|--------|--------|--------|--------|--------|--------|--------|--------|


D|--------|--------|--------|--------|--------|--------|--------|--------|--------|
A|--------|--------|--------|--------|--------|--------|--------|--------|--------|
F|--------|--------|--------|--------|--------|--------|--------|--------|--------|
C|--------|--------|--------|--------|--------|--------|--------|--------|--------|
G|--------|--------|--------|--------|--------|--------|--------|--------|--------|
C|--------|--------|--------|--------|--------|--------|--------|--------|--------|


D|--------|--------|--------|--------|--------|--------|--------|--------|--------|
A|--------|--------|--------|--------|--------|--------|--------|--------|--------|
F|--------|--------|--------|--------|--------|--------|--------|--------|--------|
C|--------|--------|--------|--------|--------|--------|--------|--------|--------|
G|--------|--------|--------|--------|--------|--------|--------|--------|--------|
C|--------|--------|--------|--------|--------|--------|--------|--------|--------|


D|--------|--------|--------|--------|--------|--------|--------|--------|--------|
A|--------|--------|--------|--------|--------|--------|--------|--------|--------|
F|--------|--------|--------|--------|--------|--------|--------|--------|--------|
C|--------|--------|--------|--------|--------|--------|--------|--------|--------|
G|--------|--------|--------|--------|--------|--------|--------|--------|--------|
C|--------|--------|--------|--------|--------|--------|--------|--------|--------|


D|---------------------10--8---10--|---------0-------0-------0---5---|--------|--------|
A|-------------10--13--------------|-8---7-------8-------7-----------|--------|--------|
F|---------9-----------------------|---------------------------------|--------|--------|
C|-----9---------------------------|---------------------------------|--------|--------|
G|-7-------------------------------|---------------------------------|--------|--------|
C|---------------------------------|---------------------------------|--------|--------|


D|--------|--------|--------|--------|--------|--------|--------|--------|--------|
A|--------|--------|--------|--------|--------|--------|--------|--------|--------|
F|--------|--------|--------|--------|--------|--------|--------|--------|--------|
C|--------|--------|--------|--------|--------|--------|--------|--------|--------|
G|--------|--------|--------|--------|--------|--------|--------|--------|--------|
C|--------|--------|--------|--------|--------|--------|--------|--------|--------|


D|--------|--------|--------|--------|--------|--------|--------|--------|--------|
A|--------|--------|--------|--------|--------|--------|--------|--------|--------|
F|--------|--------|--------|--------|--------|--------|--------|--------|--------|
C|--------|--------|--------|--------|--------|--------|--------|--------|--------|
G|--------|--------|--------|--------|--------|--------|--------|--------|--------|
C|--------|--------|--------|--------|--------|--------|--------|--------|--------|


D|--------|--------|--------|--------|--------|--------|--------|--------|--------|
A|--------|--------|--------|--------|--------|--------|--------|--------|--------|
F|--------|--------|--------|--------|--------|--------|--------|--------|--------|
C|--------|--------|--------|--------|--------|--------|--------|--------|--------|
G|--------|--------|--------|--------|--------|--------|--------|--------|--------|
C|--------|--------|--------|--------|--------|--------|--------|--------|--------|


D|--------|--------|--------|--------|--------|--------|--------|--------|--------|
A|--------|--------|--------|--------|--------|--------|--------|--------|--------|
F|--------|--------|--------|--------|--------|--------|--------|--------|--------|
C|--------|--------|--------|--------|--------|--------|--------|--------|--------|
G|--------|--------|--------|--------|--------|--------|--------|--------|--------|
C|--------|--------|--------|--------|--------|--------|--------|--------|--------|


D|--------|--------|--------|--------|--------|--------|--------|--------|--------|
A|--------|--------|--------|--------|--------|--------|--------|--------|--------|
F|--------|--------|--------|--------|--------|--------|--------|--------|--------|
C|--------|--------|--------|--------|--------|--------|--------|--------|--------|
G|--------|--------|--------|--------|--------|--------|--------|--------|--------|
C|--------|--------|--------|--------|--------|--------|--------|--------|--------|


D|--------|--------|--------|--------|--------|--------|--------|--------|--------|
A|--------|--------|--------|--------|--------|--------|--------|--------|--------|
F|--------|--------|--------|--------|--------|--------|--------|--------|--------|
C|--------|--------|--------|--------|--------|--------|--------|--------|--------|
G|--------|--------|--------|--------|--------|--------|--------|--------|--------|
C|--------|--------|--------|--------|--------|--------|--------|--------|--------|


D|--------|--------|--------|--------|-------------8---7------------|-------------------8---|
A|--------|--------|--------|--------|------8--------------8--------|------------8----------|
F|--------|--------|--------|--------|-------------------------5----|-----------------------|
C|--------|--------|--------|--------|-7--------7-------------------|-------7--------7------|
G|--------|--------|--------|--------|------------------------------|-----------------------|
C|--------|--------|--------|--------|------------------------------|-----------------------|


D|-7--------------|-------------8---7------------|-------------------8---|-7--------------|
A|-----8----------|------8--------------8--------|------------8----------|-----8----------|
F|---------7------|-------------------------5----|-----------------------|---------7------|
C|----------------|-7--------7-------------------|-------7--------7------|----------------|
G|----------------|------------------------------|-----------------------|----------------|
C|----------------|------------------------------|-----------------------|----------------|


D|--------|--------|--------|-------------8---7------------|-------------------8---|
A|--------|--------|--------|------8--------------8--------|------------8----------|
F|--------|--------|--------|-------------------------5----|-----------------------|
C|--------|--------|--------|-7--------7-------------------|-------7--------7------|
G|--------|--------|--------|-7-----------------------7----|-------3---------------|
C|--------|--------|--------|-2-----------------------2----|-----------------------|


D|-7-------------------|-------------8---7------------|-------------------8---|-7-------------------|
A|-----8---------------|------8--------------8--------|------------8----------|-----8---------------|
F|---------7-----------|-------------------------5----|-----------------------|---------7-----------|
C|---------------------|-7--------7-------------------|-------7--------7------|---------------------|
G|---------3-----2-----|-7-----------------------7----|-------3---------------|---------3-----2-----|
C|---------------------|-2-----------------------2----|-----------------------|---------------------|


D|-------------8---7------------|-------------------8---|-7-------------------|--------|
A|------8--------------8--------|------------8----------|-----8---------------|--------|
F|-------------------------5----|-----------------------|---------7-----------|-9------|
C|-7--------7-------------------|-------7--------7------|---------------------|--------|
G|-7-----------------------7----|-------3---------------|---------3-----2-----|-7------|
C|-2-----------------------2----|-----------------------|---------------------|--------|


D|-------------|--------|
A|-------------|--------|
F|-------9-----|--------|
C|-------------|--------|
G|-------7-----|--------|
C|-------------|--------|





Track 8: Rythem

D|--------|--------|--------|--------|--------|--------|--------|--------|--------|
A|--------|--------|--------|--------|--------|--------|--------|--------|--------|
F|--------|--------|--------|--------|--------|--------|--------|--------|--------|
C|--------|--------|--------|--------|--------|--------|--------|--------|--------|
G|--------|--------|--------|--------|--------|--------|--------|--------|--------|
C|--------|--------|--------|--------|--------|--------|--------|--------|--------|


D|--------|--------|--------|--------|--------|--------|--------|--------|--------|
A|--------|--------|--------|--------|--------|--------|--------|--------|--------|
F|--------|--------|--------|--------|--------|--------|--------|--------|--------|
C|--------|--------|--------|--------|--------|--------|--------|--------|--------|
G|--------|--------|--------|--------|--------|--------|--------|--------|--------|
C|--------|--------|--------|--------|--------|--------|--------|--------|--------|


D|--------|--------|--------|--------|--------|--------|--------|--------|--------|
A|--------|--------|--------|--------|--------|--------|--------|--------|--------|
F|--------|--------|--------|--------|--------|--------|--------|--------|--------|
C|--------|--------|--------|--------|--------|--------|--------|--------|--------|
G|--------|--------|--------|--------|--------|--------|--------|--------|--------|
C|--------|--------|--------|--------|--------|--------|--------|--------|--------|


D|--------|--------|--------|--------|--------|--------|--------|--------|--------|
A|--------|--------|--------|--------|--------|--------|--------|--------|--------|
F|--------|--------|--------|--------|--------|--------|--------|--------|--------|
C|--------|--------|--------|--------|--------|--------|--------|--------|--------|
G|--------|--------|--------|--------|--------|--------|--------|--------|--------|
C|--------|--------|--------|--------|--------|--------|--------|--------|--------|


D|--------|--------|--------|--------|--------|--------|--------|--------|--------|
A|--------|--------|--------|--------|--------|--------|--------|--------|--------|
F|--------|--------|--------|--------|--------|--------|--------|--------|--------|
C|-10-----|-12-----|--------|--------|--------|--------|--------|--------|--------|
G|--------|--------|--------|--------|--------|--------|--------|--------|--------|
C|--------|--------|--------|--------|--------|--------|--------|--------|--------|


D|--------|--------|--------|--------|--------|--------|--------|--------|--------|
A|--------|--------|--------|--------|--------|--------|--------|--------|--------|
F|--------|--------|--------|--------|--------|--------|--------|--------|--------|
C|--------|--------|--------|--------|--------|--------|--------|--------|--------|
G|--------|--------|--------|--------|--------|--------|--------|--------|--------|
C|--------|--------|--------|--------|--------|--------|--------|--------|--------|


D|--------|--------|--------|--------|--------|--------|--------|--------|--------|
A|--------|--------|--------|--------|--------|--------|--------|--------|--------|
F|--------|--------|--------|--------|--------|--------|--------|--------|--------|
C|--------|--------|--------|--------|--------|--------|--------|--------|--------|
G|--------|--------|--------|--------|--------|--------|--------|--------|--------|
C|--------|--------|--------|--------|--------|--------|--------|--------|--------|


D|--------|--------|--------|--------|--------|--------|--------|--------|--------|
A|--------|--------|--------|--------|--------|--------|--------|--------|--------|
F|--------|--------|--------|--------|--------|--------|--------|--------|--------|
C|--------|--------|--------|--------|--------|--------|--------|--------|--------|
G|--------|--------|--------|--------|--------|--------|--------|--------|--------|
C|--------|--------|--------|--------|--------|--------|--------|--------|--------|


D|--------|--------|--------|--------|--------|--------|--------|--------|--------|
A|--------|--------|--------|--------|--------|--------|--------|--------|--------|
F|--------|--------|--------|--------|--------|--------|--------|--------|--------|
C|--------|--------|--------|--------|--------|--------|--------|--------|--------|
G|--------|--------|--------|--------|--------|--------|--------|--------|--------|
C|--------|--------|--------|--------|--------|--------|--------|--------|--------|


D|--------|--------|--------|--------|--------|--------|--------|--------|--------|
A|--------|--------|--------|--------|--------|--------|--------|--------|--------|
F|--------|--------|--------|--------|--------|--------|--------|--------|--------|
C|--------|--------|--------|--------|--------|--------|--------|--------|--------|
G|--------|--------|--------|--------|--------|--------|--------|--------|--------|
C|--------|--------|--------|--------|--------|--------|--------|--------|--------|


D|--------|--------|--------|--------|--------|--------|--------|--------|--------|
A|--------|--------|--------|--------|--------|--------|--------|--------|--------|
F|--------|--------|--------|--------|--------|--------|--------|--------|--------|
C|--------|--------|--------|--------|--------|--------|--------|--------|--------|
G|--------|--------|--------|--------|--------|--------|--------|--------|--------|
C|--------|--------|--------|--------|--------|--------|--------|--------|--------|


D|--------|--------|--------|--------|--------|--------|--------|--------|--------|
A|--------|--------|--------|--------|--------|--------|--------|--------|--------|
F|--------|--------|--------|--------|--------|--------|--------|--------|--------|
C|--------|--------|--------|--------|--------|--------|--------|--------|--------|
G|--------|--------|--------|--------|--------|--------|--------|--------|--------|
C|--------|--------|--------|--------|--------|--------|--------|--------|--------|


D|--------|--------|--------|--------|--------|--------|--------|--------|--------|
A|--------|--------|--------|--------|--------|--------|--------|--------|--------|
F|--------|--------|--------|--------|--------|--------|--------|--------|--------|
C|--------|--------|--------|--------|--------|--------|--------|--------|--------|
G|--------|--------|--------|--------|--------|--------|--------|--------|--------|
C|--------|--------|--------|--------|--------|--------|--------|--------|--------|


D|--------|--------|
A|--------|--------|
F|--------|--------|
C|--------|--------|
G|--------|--------|
C|--------|--------|





Track 9: Rythem

D|--------|--------|--------|--------|--------|--------|--------|--------|--------|
A|--------|--------|--------|--------|--------|--------|--------|--------|--------|
F|--------|--------|--------|--------|--------|--------|--------|--------|--------|
C|--------|--------|--------|--------|--------|--------|--------|--------|--------|
G|--------|--------|--------|--------|--------|--------|--------|--------|--------|
C|--------|--------|--------|--------|--------|--------|--------|--------|--------|


D|--------|--------|--------|--------|--------|--------|--------|--------|--------|
A|--------|--------|--------|--------|--------|--------|--------|--------|--------|
F|--------|--------|--------|--------|--------|--------|--------|--------|--------|
C|--------|--------|--------|--------|--------|--------|--------|--------|--------|
G|--------|--------|--------|--------|--------|--------|--------|--------|--------|
C|--------|--------|--------|--------|--------|--------|--------|--------|--------|


D|--------|--------|--------|--------|--------|--------|--------|--------|--------|
A|--------|--------|--------|--------|--------|--------|--------|--------|--------|
F|--------|--------|--------|--------|--------|--------|--------|--------|--------|
C|--------|--------|--------|--------|--------|--------|--------|--------|--------|
G|--------|--------|--------|--------|--------|--------|--------|--------|--------|
C|--------|--------|--------|--------|--------|--------|--------|--------|--------|


D|--------|--------|--------|--------|--------|--------|--------|--------|--------|
A|--------|--------|--------|--------|--------|--------|--------|--------|--------|
F|--------|--------|--------|--------|--------|--------|--------|--------|--------|
C|--------|--------|--------|--------|--------|--------|--------|--------|--------|
G|--------|--------|--------|--------|--------|--------|--------|--------|--------|
C|--------|--------|--------|--------|--------|--------|--------|--------|--------|


D|--------|--------|--------|--------|-------------------------------------------------|
A|--------|--------|--------|--------|-------------------------------------------------|
F|--------|--------|--------|--------|-------------------------------------------------|
C|--------|--------|--------|--------|-------------------------------------------------|
G|--------|--------|--------|--------|-5--5--5--5--5--5--5--5--5--5--5--5--5--5--5--5--|
C|--------|--------|--------|--------|-------------------------------------------------|


D|-------------------------------------------------|-------------------------------------------------|
A|-------------------------------------------------|-------------------------------------------------|
F|-------------------------------------------------|-------------------------------------------------|
C|-------------------------------------------------|-------------------------------------------------|
G|-------------------------------------------------|-7--7--7--7--7--7--7--7--7--7--7--7--7--7--7--7--|
C|-7--7--7--7--7--7--7--7--9--9--9--9--9--9--9--9--|-------------------------------------------------|


D|-------------------------------------------------|--------|--------|--------|--------|
A|-------------------------------------------------|--------|--------|--------|--------|
F|-------------------------------------------------|--------|--------|--------|--------|
C|-------------------------------------------------|--------|--------|--------|--------|
G|-3--3--3--3--3--3--3--3--3--3--3--3--3--3--3--3--|--------|--------|--------|--------|
C|-------------------------------------------------|--------|--------|--------|--------|


D|--------|--------|--------|--------|--------|--------|--------|--------|--------|
A|--------|--------|--------|--------|--------|--------|--------|--------|--------|
F|--------|--------|--------|--------|--------|--------|--------|--------|--------|
C|--------|--------|--------|--------|--------|--------|--------|--------|--------|
G|--------|--------|--------|--------|--------|--------|--------|--------|--------|
C|--------|--------|--------|--------|--------|--------|--------|--------|--------|


D|--------|--------|--------|--------|--------|--------|--------|--------|--------|
A|--------|--------|--------|--------|--------|--------|--------|--------|--------|
F|--------|--------|--------|--------|--------|--------|--------|--------|--------|
C|--------|--------|--------|--------|--------|--------|--------|--------|--------|
G|--------|--------|--------|--------|--------|--------|--------|--------|--------|
C|--------|--------|--------|--------|--------|--------|--------|--------|--------|


D|--------|--------|--------|--------|--------|--------|--------|--------|--------|
A|--------|--------|--------|--------|--------|--------|--------|--------|--------|
F|--------|--------|--------|--------|--------|--------|--------|--------|--------|
C|--------|--------|--------|--------|--------|--------|--------|--------|--------|
G|--------|--------|--------|--------|--------|--------|--------|--------|--------|
C|--------|--------|--------|--------|--------|--------|--------|--------|--------|


D|--------|--------|--------|--------|--------|--------|--------|--------|--------|
A|--------|--------|--------|--------|--------|--------|--------|--------|--------|
F|--------|--------|--------|--------|--------|--------|--------|--------|--------|
C|--------|--------|--------|--------|--------|--------|--------|--------|--------|
G|--------|--------|--------|--------|--------|--------|--------|--------|--------|
C|--------|--------|--------|--------|--------|--------|--------|--------|--------|


D|--------|--------|--------|--------|--------|--------|--------|--------|--------|
A|--------|--------|--------|--------|--------|--------|--------|--------|--------|
F|--------|--------|--------|--------|--------|--------|--------|--------|--------|
C|--------|--------|--------|--------|--------|--------|--------|--------|--------|
G|--------|--------|--------|--------|--------|--------|--------|--------|--------|
C|--------|--------|--------|--------|--------|--------|--------|--------|--------|


D|--------|--------|--------|--------|--------|--------|--------|--------|--------|
A|--------|--------|--------|--------|--------|--------|--------|--------|--------|
F|--------|--------|--------|--------|--------|--------|--------|--------|--------|
C|--------|--------|--------|--------|--------|--------|--------|--------|--------|
G|--------|--------|--------|--------|--------|--------|--------|--------|--------|
C|--------|--------|--------|--------|--------|--------|--------|--------|--------|


D|--------|--------|--------|--------|--------|--------|--------|--------|--------|
A|--------|--------|--------|--------|--------|--------|--------|--------|--------|
F|--------|--------|--------|--------|--------|--------|--------|--------|--------|
C|--------|--------|--------|--------|--------|--------|--------|--------|--------|
G|--------|--------|--------|--------|--------|--------|--------|--------|--------|
C|--------|--------|--------|--------|--------|--------|--------|--------|--------|


D|--------|--------|--------|--------|--------|--------|--------|--------|
A|--------|--------|--------|--------|--------|--------|--------|--------|
F|--------|--------|--------|--------|--------|--------|--------|--------|
C|--------|--------|--------|--------|--------|--------|--------|--------|
G|--------|--------|--------|--------|--------|--------|--------|--------|
C|--------|--------|--------|--------|--------|--------|--------|--------|





Track 10: Rythem

D|--------|--------|--------|--------|--------|--------|--------|--------|--------|
A|--------|--------|--------|--------|--------|--------|--------|--------|--------|
F|--------|--------|--------|--------|--------|--------|--------|--------|--------|
C|--------|--------|--------|--------|--------|--------|--------|--------|--------|
G|--------|--------|--------|--------|--------|--------|--------|--------|--------|
C|--------|--------|--------|--------|--------|--------|--------|--------|--------|


D|--------|--------|--------|--------|--------|--------|--------|--------|--------|
A|--------|--------|--------|--------|--------|--------|--------|--------|--------|
F|--------|--------|--------|--------|--------|--------|--------|--------|--------|
C|--------|--------|--------|--------|--------|--------|--------|--------|--------|
G|--------|--------|--------|--------|--------|--------|--------|--------|--------|
C|--------|--------|--------|--------|--------|--------|--------|--------|--------|


D|--------|--------|--------|--------|--------|--------|--------|--------|--------|
A|--------|--------|--------|--------|--------|--------|--------|--------|--------|
F|--------|--------|--------|--------|--------|--------|--------|--------|--------|
C|--------|--------|--------|--------|--------|--------|--------|--------|--------|
G|--------|--------|--------|--------|--------|--------|--------|--------|--------|
C|--------|--------|--------|--------|--------|--------|--------|--------|--------|


D|--------|--------|--------|--------|--------|--------|--------|--------|--------|
A|--------|--------|--------|--------|--------|--------|--------|--------|--------|
F|--------|--------|--------|--------|--------|--------|--------|--------|--------|
C|--------|--------|--------|--------|--------|--------|--------|--------|--------|
G|--------|--------|--------|--------|--------|--------|--------|--------|--------|
C|--------|--------|--------|--------|--------|--------|--------|--------|--------|


D|--------|--------|--------|--------|--------|--------|--------|--------|-------------------------------------------------|
A|--------|--------|--------|--------|--------|--------|--------|--------|-------------------------------------------------|
F|--------|--------|--------|--------|--------|--------|--------|--------|-------------------------------------------------|
C|--------|--------|--------|--------|--------|--------|--------|--------|-------------------------------------------------|
G|--------|--------|--------|--------|--------|--------|--------|--------|-5--5--5--5--5--5--5--5--5--5--5--5--5--5--5--5--|
C|--------|--------|--------|--------|--------|--------|--------|--------|-------------------------------------------------|


D|-------------------------------------------------|--------|--------|--------|--------|
A|-------------------------------------------------|--------|--------|--------|--------|
F|-------------------------------------------------|--------|--------|--------|--------|
C|-------------------------------------------------|--------|--------|--------|--------|
G|-------------------------------------------------|--------|--------|--------|--------|
C|-7--7--7--7--7--7--7--7--9--9--9--9--9--9--9--9--|--------|--------|--------|--------|


D|--------|--------|--------|--------|--------|--------|--------|--------|--------|
A|--------|--------|--------|--------|--------|--------|--------|--------|--------|
F|--------|--------|--------|--------|--------|--------|--------|--------|--------|
C|--------|--------|--------|--------|--------|--------|--------|--------|--------|
G|--------|--------|--------|--------|--------|--------|--------|--------|--------|
C|--------|--------|--------|--------|--------|--------|--------|--------|--------|


D|--------|--------|--------|--------|--------|--------|--------|--------|--------|
A|--------|--------|--------|--------|--------|--------|--------|--------|--------|
F|--------|--------|--------|--------|--------|--------|--------|--------|--------|
C|--------|--------|--------|--------|--------|--------|--------|--------|--------|
G|--------|--------|--------|--------|--------|--------|--------|--------|--------|
C|--------|--------|--------|--------|--------|--------|--------|--------|--------|


D|--------|--------|--------|--------|--------|--------|--------|--------|--------|
A|--------|--------|--------|--------|--------|--------|--------|--------|--------|
F|--------|--------|--------|--------|--------|--------|--------|--------|--------|
C|--------|--------|--------|--------|--------|--------|--------|--------|--------|
G|--------|--------|--------|--------|--------|--------|--------|--------|--------|
C|--------|--------|--------|--------|--------|--------|--------|--------|--------|


D|--------|--------|--------|--------|--------|--------|--------|--------|--------|
A|--------|--------|--------|--------|--------|--------|--------|--------|--------|
F|--------|--------|--------|--------|--------|--------|--------|--------|--------|
C|--------|--------|--------|--------|--------|--------|--------|--------|--------|
G|--------|--------|--------|--------|--------|--------|--------|--------|--------|
C|--------|--------|--------|--------|--------|--------|--------|--------|--------|


D|--------|--------|--------|--------|--------|--------|--------|--------|--------|
A|--------|--------|--------|--------|--------|--------|--------|--------|--------|
F|--------|--------|--------|--------|--------|--------|--------|--------|--------|
C|--------|--------|--------|--------|--------|--------|--------|--------|--------|
G|--------|--------|--------|--------|--------|--------|--------|--------|--------|
C|--------|--------|--------|--------|--------|--------|--------|--------|--------|


D|--------|--------|--------|--------|--------|--------|--------|--------|--------|
A|--------|--------|--------|--------|--------|--------|--------|--------|--------|
F|--------|--------|--------|--------|--------|--------|--------|--------|--------|
C|--------|--------|--------|--------|--------|--------|--------|--------|--------|
G|--------|--------|--------|--------|--------|--------|--------|--------|--------|
C|--------|--------|--------|--------|--------|--------|--------|--------|--------|


D|--------|--------|--------|--------|--------|--------|--------|--------|--------|
A|--------|--------|--------|--------|--------|--------|--------|--------|--------|
F|--------|--------|--------|--------|--------|--------|--------|--------|--------|
C|--------|--------|--------|--------|--------|--------|--------|--------|--------|
G|--------|--------|--------|--------|--------|--------|--------|--------|--------|
C|--------|--------|--------|--------|--------|--------|--------|--------|--------|


D|--------|--------|--------|--------|--------|--------|
A|--------|--------|--------|--------|--------|--------|
F|--------|--------|--------|--------|--------|--------|
C|--------|--------|--------|--------|--------|--------|
G|--------|--------|--------|--------|--------|--------|
C|--------|--------|--------|--------|--------|--------|





Track 11: Rythem

D|--------|--------|--------|--------|--------|--------|--------|--------|--------|
A|--------|--------|--------|--------|--------|--------|--------|--------|--------|
F|--------|--------|--------|--------|--------|--------|--------|--------|--------|
C|--------|--------|--------|--------|--------|--------|--------|--------|--------|
G|--------|--------|--------|--------|--------|--------|--------|--------|--------|
C|--------|--------|--------|--------|--------|--------|--------|--------|--------|


D|--------|--------|--------|--------|--------|--------|--------|--------|--------|
A|--------|--------|--------|--------|--------|--------|--------|--------|--------|
F|--------|--------|--------|--------|--------|--------|--------|--------|--------|
C|--------|--------|--------|--------|--------|--------|--------|--------|--------|
G|--------|--------|--------|--------|--------|--------|--------|--------|--------|
C|--------|--------|--------|--------|--------|--------|--------|--------|--------|


D|--------|--------|--------|--------|--------|--------|--------|--------|--------|
A|--------|--------|--------|--------|--------|--------|--------|--------|--------|
F|--------|--------|--------|--------|--------|--------|--------|--------|--------|
C|--------|--------|--------|--------|--------|--------|--------|--------|--------|
G|--------|--------|--------|--------|--------|--------|--------|--------|--------|
C|--------|--------|--------|--------|--------|--------|--------|--------|--------|


D|--------|--------|--------|--------|--------|--------|--------|--------|--------|
A|--------|--------|--------|--------|--------|--------|--------|--------|--------|
F|--------|--------|--------|--------|--------|--------|--------|--------|--------|
C|--------|--------|--------|--------|--------|--------|--------|--------|--------|
G|--------|--------|--------|--------|--------|--------|--------|--------|--------|
C|--------|--------|--------|--------|--------|--------|--------|--------|--------|


D|--------|--------|--------|--------|--------|--------|--------|--------|--------|
A|--------|--------|--------|--------|--------|--------|--------|--------|--------|
F|--------|--------|--------|--------|--------|--------|--------|--------|--------|
C|--------|--------|--------|--------|--------|--------|--------|--------|--------|
G|--------|--------|--------|--------|--------|--------|--------|--------|--------|
C|--------|--------|--------|--------|--------|--------|--------|--------|--------|


D|--------|--------|--------|--------|--------|--------|--------|--------|--------|
A|--------|--------|--------|--------|--------|--------|--------|--------|--------|
F|--------|--------|--------|--------|--------|--------|--------|--------|--------|
C|--------|--------|--------|--------|--------|--------|--------|--------|--------|
G|--------|--------|--------|--------|--------|--------|--------|--------|--------|
C|--------|--------|--------|--------|--------|--------|--------|--------|--------|


D|--------|--------|--------|--------|--------|--------|--------|--------|-------------------------------------------------|
A|--------|--------|--------|--------|--------|--------|--------|--------|-------4--------4--------5--------5-----7--5--4--|
F|--------|--------|--------|--------|--------|--------|--------|--------|-7--7-----7--7-----7--7-----7--7-----7-----------|
C|--------|--------|--------|--------|--------|--------|--------|--------|-------------------------------------------------|
G|--------|--------|--------|--------|--------|--------|--------|--------|-------------------------------------------------|
C|--------|--------|--------|--------|--------|--------|--------|--------|-------------------------------------------------|


D|-------------------------------------------------|-------------------------------------------------|
A|-------4--------4--------5--------5-----7--5--4--|-------4--------4--------5--------5-----7--5--4--|
F|-3--3-----3--3-----3--3-----3--3-----3-----------|-5--5-----5--5-----5--5-----5--5-----5-----------|
C|-------------------------------------------------|-------------------------------------------------|
G|-------------------------------------------------|-------------------------------------------------|
C|-------------------------------------------------|-------------------------------------------------|


D|-------------------------------------------------|--------|--------|--------|--------|
A|-------4-----5--------7--------4-----5--------7--|--------|--------|--------|--------|
F|-0--0-----0-----0--0-----2--2-----2-----2--2-----|--------|--------|--------|--------|
C|-------------------------------------------------|--------|--------|--------|--------|
G|-------------------------------------------------|--------|--------|--------|--------|
C|-------------------------------------------------|--------|--------|--------|--------|


D|--------|--------|--------|--------|--------|--------|--------|--------|--------|
A|--------|--------|--------|--------|--------|--------|--------|--------|--------|
F|--------|--------|--------|--------|--------|--------|--------|--------|--------|
C|--------|--------|--------|--------|--------|--------|--------|--------|--------|
G|--------|--------|--------|--------|--------|--------|--------|--------|--------|
C|--------|--------|--------|--------|--------|--------|--------|--------|--------|


D|--------|--------|--------|--------|--------|--------|--------|--------|--------|
A|--------|--------|--------|--------|--------|--------|--------|--------|--------|
F|--------|--------|--------|--------|--------|--------|--------|--------|--------|
C|--------|--------|--------|--------|--------|--------|--------|--------|--------|
G|--------|--------|--------|--------|--------|--------|--------|--------|--------|
C|--------|--------|--------|--------|--------|--------|--------|--------|--------|


D|--------|--------|--------|--------|--------|--------|--------|--------|--------|
A|--------|--------|--------|--------|--------|--------|--------|--------|--------|
F|--------|--------|--------|--------|--------|--------|--------|--------|--------|
C|--------|--------|--------|--------|--------|--------|--------|--------|--------|
G|--------|--------|--------|--------|--------|--------|--------|--------|--------|
C|--------|--------|--------|--------|--------|--------|--------|--------|--------|


D|--------|--------|--------|--------|--------|--------|--------|--------|--------|
A|--------|--------|--------|--------|--------|--------|--------|--------|--------|
F|--------|--------|--------|--------|--------|--------|--------|--------|--------|
C|--------|--------|--------|--------|--------|--------|--------|--------|--------|
G|--------|--------|--------|--------|--------|--------|--------|--------|--------|
C|--------|--------|--------|--------|--------|--------|--------|--------|--------|


D|--------|--------|--------|--------|--------|--------|--------|--------|--------|
A|--------|--------|--------|--------|--------|--------|--------|--------|--------|
F|--------|--------|--------|--------|--------|--------|--------|--------|--------|
C|--------|--------|--------|--------|--------|--------|--------|--------|--------|
G|--------|--------|--------|--------|--------|--------|--------|--------|--------|
C|--------|--------|--------|--------|--------|--------|--------|--------|--------|


D|--------|--------|--------|--------|
A|--------|--------|--------|--------|
F|--------|--------|--------|--------|
C|--------|--------|--------|--------|
G|--------|--------|--------|--------|
C|--------|--------|--------|--------|





Track 12: Rythem

D|--------|--------|--------|--------|--------|--------|--------|--------|--------|
A|--------|--------|--------|--------|--------|--------|--------|--------|--------|
F|--------|--------|--------|--------|--------|--------|--------|--------|--------|
C|--------|--------|--------|--------|--------|--------|--------|--------|--------|
G|--------|--------|--------|--------|--------|--------|--------|--------|--------|
C|--------|--------|--------|--------|--------|--------|--------|--------|--------|


D|--------|--------|--------|--------|--------|--------|--------|--------|--------|
A|--------|--------|--------|--------|--------|--------|--------|--------|--------|
F|--------|--------|--------|--------|--------|--------|--------|--------|--------|
C|--------|--------|--------|--------|--------|--------|--------|--------|--------|
G|--------|--------|--------|--------|--------|--------|--------|--------|--------|
C|--------|--------|--------|--------|--------|--------|--------|--------|--------|


D|--------|--------|--------|--------|--------|--------|--------|--------|--------|
A|--------|--------|--------|--------|--------|--------|--------|--------|--------|
F|--------|--------|--------|--------|--------|--------|--------|--------|--------|
C|--------|--------|--------|--------|--------|--------|--------|--------|--------|
G|--------|--------|--------|--------|--------|--------|--------|--------|--------|
C|--------|--------|--------|--------|--------|--------|--------|--------|--------|


D|--------|--------|--------|--------|--------|--------|--------|--------|--------|
A|--------|--------|--------|--------|--------|--------|--------|--------|--------|
F|--------|--------|--------|--------|--------|--------|--------|--------|--------|
C|--------|--------|--------|--------|--------|--------|--------|--------|--------|
G|--------|--------|--------|--------|--------|--------|--------|--------|--------|
C|--------|--------|--------|--------|--------|--------|--------|--------|--------|


D|--------|--------|--------|--------|--------|--------|--------|--------|--------|
A|--------|--------|--------|--------|--------|--------|--------|--------|--------|
F|--------|--------|--------|--------|--------|--------|--------|--------|--------|
C|--------|--------|--------|--------|--------|--------|--------|--------|--------|
G|--------|--------|--------|--------|--------|--------|--------|--------|--------|
C|--------|--------|--------|--------|--------|--------|--------|--------|--------|


D|--------|--------|--------|--------|--------|--------|--------|--------|--------|
A|--------|--------|--------|--------|--------|--------|--------|--------|--------|
F|--------|--------|--------|--------|--------|--------|--------|--------|--------|
C|--------|--------|--------|--------|--------|--------|--------|--------|--------|
G|--------|--------|--------|--------|--------|--------|--------|--------|--------|
C|--------|--------|--------|--------|--------|--------|--------|--------|--------|


D|--------|--------|--------|--------|--------|--------|--------|--------|--------|
A|--------|--------|--------|--------|--------|--------|--------|--------|--------|
F|--------|--------|--------|--------|--------|--------|--------|--------|--------|
C|--------|--------|--------|--------|--------|--------|--------|--------|--------|
G|--------|--------|--------|--------|--------|--------|--------|--------|--------|
C|--------|--------|--------|--------|--------|--------|--------|--------|--------|


D|--------|--------|--------|--------|--------|--------|--------|--------|--------|
A|--------|--------|--------|--------|--------|--------|--------|--------|--------|
F|--------|--------|--------|--------|--------|--------|--------|--------|--------|
C|--------|--------|--------|--------|--------|--------|--------|--------|--------|
G|--------|--------|--------|--------|--------|--------|--------|--------|--------|
C|--------|--------|--------|--------|--------|--------|--------|--------|--------|


D|--------|--------|--------|--------|--------|--------|--------|--------|--------|
A|--------|--------|--------|--------|--------|--------|--------|--------|--------|
F|--------|--------|--------|--------|--------|--------|--------|--------|--------|
C|--------|--------|--------|--------|--------|--------|--------|--------|--------|
G|--------|--------|--------|--------|--------|--------|--------|--------|--------|
C|--------|--------|--------|--------|--------|--------|--------|--------|--------|


D|--------|--------|--------|--------|--------|--------|--------|--------|--------|
A|--------|--------|--------|--------|--------|--------|--------|--------|--------|
F|--------|--------|--------|--------|--------|--------|--------|--------|--------|
C|--------|--------|--------|--------|--------|--------|--------|--------|--------|
G|--------|--------|--------|--------|--------|--------|--------|--------|--------|
C|--------|--------|--------|--------|--------|--------|--------|--------|--------|


D|--------|--------|--------|--------|--------|--------|--------|--------|------------------------|
A|--------|--------|--------|--------|--------|--------|--------|--------|------------------------|
F|--------|--------|--------|--------|--------|--------|--------|--------|------------------------|
C|--------|--------|--------|--------|--------|--------|--------|--------|-2---2--------2---------|
G|--------|--------|--------|--------|--------|--------|--------|--------|------------------------|
C|--------|--------|--------|--------|--------|--------|--------|--------|------------------------|


D|--------------------|-----------------|------------------------|--------------------|
A|--------------------|-----------------|------------------------|--------------------|
F|-------3---3--------|-3---------3-----|------------------------|-------3---3--------|
C|-2------------------|-----------------|-2---2--------2---------|-2------------------|
G|--------------------|-----------------|------------------------|--------------------|
C|--------------------|-----------------|------------------------|--------------------|


D|-----------------|--------|--------|--------|--------|--------|--------|--------|
A|-----------------|--------|--------|--------|--------|--------|--------|--------|
F|-3---------3-----|--------|--------|--------|--------|--------|--------|--------|
C|-----------------|--------|--------|--------|--------|--------|--------|--------|
G|-----------------|--------|--------|--------|--------|--------|--------|--------|
C|-----------------|--------|--------|--------|--------|--------|--------|--------|


D|--------|--------|--------|--------|--------|--------|--------|--------|
A|--------|--------|--------|--------|--------|--------|--------|--------|
F|--------|--------|--------|--------|--------|--------|--------|--------|
C|--------|--------|--------|--------|--------|--------|--------|--------|
G|--------|--------|--------|--------|--------|--------|--------|--------|
C|--------|--------|--------|--------|--------|--------|--------|--------|





Track 13: Rythem

D|--------|--------|--------|--------|--------|--------|--------|--------|--------|
A|--------|--------|--------|--------|--------|--------|--------|--------|--------|
F|--------|--------|--------|--------|--------|--------|--------|--------|--------|
C|--------|--------|--------|--------|--------|--------|--------|--------|--------|
G|--------|--------|--------|--------|--------|--------|--------|--------|--------|
C|--------|--------|--------|--------|--------|--------|--------|--------|--------|


D|--------|--------|--------|--------|--------|--------|--------|--------|--------|
A|--------|--------|--------|--------|--------|--------|--------|--------|--------|
F|--------|--------|--------|--------|--------|--------|--------|--------|--------|
C|--------|--------|--------|--------|--------|--------|--------|--------|--------|
G|--------|--------|--------|--------|--------|--------|--------|--------|--------|
C|--------|--------|--------|--------|--------|--------|--------|--------|--------|


D|--------|--------|--------|--------|--------|--------|--------|--------|--------|
A|--------|--------|--------|--------|--------|--------|--------|--------|--------|
F|--------|--------|--------|--------|--------|--------|--------|--------|--------|
C|--------|--------|--------|--------|--------|--------|--------|--------|--------|
G|--------|--------|--------|--------|--------|--------|--------|--------|--------|
C|--------|--------|--------|--------|--------|--------|--------|--------|--------|


D|--------|--------|--------|--------|--------|--------|--------|--------|--------|
A|--------|--------|--------|--------|--------|--------|--------|--------|--------|
F|--------|--------|--------|--------|--------|--------|--------|--------|--------|
C|--------|--------|--------|--------|--------|--------|--------|--------|--------|
G|--------|--------|--------|--------|--------|--------|--------|--------|--------|
C|--------|--------|--------|--------|--------|--------|--------|--------|--------|


D|--------|--------|--------|--------|--------|--------|--------|--------|--------|
A|--------|--------|--------|--------|--------|--------|--------|--------|--------|
F|--------|--------|--------|--------|--------|--------|--------|--------|--------|
C|--------|--------|--------|--------|--------|--------|--------|--------|--------|
G|--------|--------|--------|--------|--------|--------|--------|--------|--------|
C|--------|--------|--------|--------|--------|--------|--------|--------|--------|


D|--------|--------|--------|--------|--------|--------|--------|--------|--------|
A|--------|--------|--------|--------|--------|--------|--------|--------|--------|
F|--------|--------|--------|--------|--------|--------|--------|--------|--------|
C|--------|--------|--------|--------|--------|--------|--------|--------|--------|
G|--------|--------|--------|--------|--------|--------|--------|--------|--------|
C|--------|--------|--------|--------|--------|--------|--------|--------|--------|


D|--------|--------|--------|--------|--------|--------|--------|--------|--------|
A|--------|--------|--------|--------|--------|--------|--------|--------|--------|
F|--------|--------|--------|--------|--------|--------|--------|--------|--------|
C|--------|--------|--------|--------|--------|--------|--------|--------|--------|
G|--------|--------|--------|--------|--------|--------|--------|--------|--------|
C|--------|--------|--------|--------|--------|--------|--------|--------|--------|


D|--------|--------|--------|--------|--------|--------|--------|--------|--------|
A|--------|--------|--------|--------|--------|--------|--------|--------|--------|
F|--------|--------|--------|--------|--------|--------|--------|--------|--------|
C|--------|--------|--------|--------|--------|--------|--------|--------|--------|
G|--------|--------|--------|--------|--------|--------|--------|--------|--------|
C|--------|--------|--------|--------|--------|--------|--------|--------|--------|


D|--------|--------|--------|--------|--------|--------|--------|--------|--------|
A|--------|--------|--------|--------|--------|--------|--------|--------|--------|
F|--------|--------|--------|--------|--------|--------|--------|--------|--------|
C|--------|--------|--------|--------|--------|--------|--------|--------|--------|
G|--------|--------|--------|--------|--------|--------|--------|--------|--------|
C|--------|--------|--------|--------|--------|--------|--------|--------|--------|


D|--------|--------|--------|--------|--------|--------|--------|--------|--------|
A|--------|--------|--------|--------|--------|--------|--------|--------|--------|
F|--------|--------|--------|--------|--------|--------|--------|--------|--------|
C|--------|--------|--------|--------|--------|--------|--------|--------|--------|
G|--------|--------|--------|--------|--------|--------|--------|--------|--------|
C|--------|--------|--------|--------|--------|--------|--------|--------|--------|


D|--------|--------|--------|--------|--------|--------|--------|--------|--------|
A|--------|--------|--------|--------|--------|--------|--------|--------|--------|
F|--------|--------|--------|--------|--------|--------|--------|--------|--------|
C|--------|--------|--------|--------|--------|--------|--------|--------|--------|
G|--------|--------|--------|--------|--------|--------|--------|--------|--------|
C|--------|--------|--------|--------|--------|--------|--------|--------|--------|


D|--------|--------|--------|--------|--------|-------------8---7------------|-------------------8---|
A|--------|--------|--------|--------|--------|------8--------------8--------|------------8----------|
F|--------|--------|--------|--------|--------|-------------------------5----|-----------------------|
C|--------|--------|--------|--------|--------|-7--------7-------------------|-------7--------7------|
G|--------|--------|--------|--------|--------|-7-----------------------7----|-------3---------------|
C|--------|--------|--------|--------|--------|-2-----------------------2----|-----------------------|


D|-7-------------------|--------|--------|--------|--------|--------|--------|--------|
A|-----8---------------|--------|--------|--------|--------|--------|--------|--------|
F|---------7-----------|--------|--------|--------|--------|--------|--------|--------|
C|---------------------|--------|--------|--------|--------|--------|--------|--------|
G|---------3-----2-----|--------|--------|--------|--------|--------|--------|--------|
C|---------------------|--------|--------|--------|--------|--------|--------|--------|


D|--------|--------|--------|--------|--------|
A|--------|--------|--------|--------|--------|
F|--------|--------|--------|--------|--------|
C|--------|--------|--------|--------|--------|
G|--------|--------|--------|--------|--------|
C|--------|--------|--------|--------|--------|





Track 14: Untitled

G|--------|--------|--------|--------|--------|--------|--------|--------|--------|
D|--------|--------|--------|--------|--------|--------|--------|--------|--------|
A|--------|--------|--------|--------|--------|--------|--------|--------|--------|
E|--------|--------|--------|--------|--------|--------|--------|--------|--------|


G|--------|--------|--------|--------|--------|--------|--------|--------|--------|
D|--------|--------|--------|--------|--------|--------|--------|--------|--------|
A|--------|--------|--------|--------|--------|--------|--------|--------|--------|
E|--------|--------|--------|--------|--------|--------|--------|--------|--------|


G|--------|--------|--------|--------|--------|--------|--------|--------|--------|
D|--------|--------|--------|--------|--------|--------|--------|--------|--------|
A|--------|--------|--------|--------|--------|--------|--------|--------|--------|
E|--------|--------|--------|--------|--------|--------|--------|--------|--------|


G|--------|--------|--------|--------|--------|--------|--------|--------|--------|
D|--------|--------|--------|--------|--------|--------|--------|--------|--------|
A|--------|--------|--------|--------|--------|--------|--------|--------|--------|
E|--------|--------|--------|--------|--------|--------|--------|--------|--------|


G|--------|--------|--------|--------|--------|--------|--------|--------|--------|
D|--------|--------|--------|--------|--------|--------|--------|--------|--------|
A|--------|--------|--------|--------|--------|--------|--------|--------|--------|
E|--------|--------|--------|--------|--------|--------|--------|--------|--------|


G|--------|--------|--------|--------|--------|--------|--------|--------|--------|
D|--------|--------|--------|--------|--------|--------|--------|--------|--------|
A|--------|--------|--------|--------|--------|--------|--------|--------|--------|
E|--------|--------|--------|--------|--------|--------|--------|--------|--------|


G|--------|--------|--------|--------|--------|--------|--------|--------|--------|
D|--------|--------|--------|--------|--------|--------|--------|--------|--------|
A|--------|--------|--------|--------|--------|--------|--------|--------|--------|
E|--------|--------|--------|--------|--------|--------|--------|--------|--------|


G|--------|--------|--------|--------|--------|--------|--------|--------|--------|
D|--------|--------|--------|--------|--------|--------|--------|--------|--------|
A|--------|--------|--------|--------|--------|--------|--------|--------|--------|
E|--------|--------|--------|--------|--------|--------|--------|--------|--------|


G|--------|--------|--------|--------|--------|--------|--------|--------|--------|
D|--------|--------|--------|--------|--------|--------|--------|--------|--------|
A|--------|--------|--------|--------|--------|--------|--------|--------|--------|
E|--------|--------|--------|--------|--------|--------|--------|--------|--------|


G|--------|--------|--------|--------|--------|--------|--------|--------|--------|
D|--------|--------|--------|--------|--------|--------|--------|--------|--------|
A|--------|--------|--------|--------|--------|--------|--------|--------|--------|
E|--------|--------|--------|--------|--------|--------|--------|--------|--------|


G|--------|--------|--------|--------|--------|--------|--------|--------|--------|
D|--------|--------|--------|--------|--------|--------|--------|--------|--------|
A|--------|--------|--------|--------|--------|--------|--------|--------|--------|
E|--------|--------|--------|--------|--------|--------|--------|--------|--------|


G|--------|--------|--------|--------|--------|--------|--------|--------|--------|
D|--------|--------|--------|--------|--------|--------|--------|--------|--------|
A|--------|--------|--------|--------|--------|--------|--------|--------|--------|
E|--------|--------|--------|--------|--------|--------|--------|--------|--------|


G|--------|--------|--------|--------|--------|--------|--------|--------|--------|
D|--------|--------|--------|--------|--------|--------|--------|--------|--------|
A|--------|--------|--------|--------|--------|--------|--------|--------|--------|
E|--------|--------|--------|--------|--------|--------|--------|--------|--------|


G|--------|--------|
D|--------|--------|
A|--------|--------|
E|--------|--------|