Menu:

 

Search:

 

the sky is falling - ending of a dream:

 



Title: Ending Of A Dream
Artist: 
Album: 
Author: The Sky Is Falling


Track 1: Clean

D|--------|--------|--------|--------|--------|--------|--------|--------|-------------|
A|--------|--------|--------|--------|--------|--------|--------|--------|-------------|
F|--------|--------|--------|--------|--------|--------|--------|--------|--------5----|
C|-7------|-7------|-10-----|-10-----|-7------|-7------|-10-----|-10-----|-7------7----|
G|-8------|-8------|-0------|-0------|-8------|-8------|-0------|-0------|-8-----------|
C|--------|--------|--------|--------|--------|--------|--------|--------|-------------|


D|-------------|-------------|-------------|-------------|-------------|-------------|
A|-------------|-------------|-------------|-------------|-------------|-------------|
F|--------5----|--------9----|--------9----|--------5----|--------5----|--------9----|
C|-7------7----|-10-----10---|-10-----10---|-7------7----|-7------7----|-10-----10---|
G|-8-----------|-0-----------|-0-----------|-8-----------|-8-----------|-0-----------|
C|-------------|-------------|-------------|-------------|-------------|-------------|


D|-------------|-------------|-------------|-------------|-------------|-------------|
A|-------------|-------------|-------------|-------------|-------------|-------------|
F|--------9----|--------5----|--------5----|--------9----|--------9----|--------5----|
C|-10-----10---|-7------7----|-7------7----|-10-----10---|-10-----10---|-7------7----|
G|-0-----------|-8-----------|-8-----------|-0-----------|-0-----------|-8-----------|
C|-------------|-------------|-------------|-------------|-------------|-------------|


D|-------------|-------------|-------------|-----------15-----------|-----------15-----------|
A|-------------|-------------|-------------|------10-------10-------|------10-------10-------|
F|--------5----|--------9----|--------9----|------------------------|------------------------|
C|-7------7----|-10-----10---|-10-----10---|-7-----------------7----|-7-----------------7----|
G|-8-----------|-0-----------|-0-----------|------------------------|------------------------|
C|-------------|-------------|-------------|------------------------|------------------------|


D|-----------15-----------|-----------15-----------|-----------15-----------|-----------15-----------|
A|------10-------10-------|------10-------10-------|------10-------10-------|------10-------10-------|
F|------------------------|------------------------|------------------------|------------------------|
C|-10----------------10---|-10----------------10---|-7-----------------7----|-7-----------------7----|
G|------------------------|------------------------|------------------------|------------------------|
C|------------------------|------------------------|------------------------|------------------------|


D|-----------15-----------|-----------15-----------|--------|--------|--------|--------|
A|------10-------10-------|------10-------10-------|--------|--------|--------|--------|
F|------------------------|------------------------|--------|--------|--------|--------|
C|-10----------------10---|-10----------------10---|-7------|-7------|-10-----|-10-----|
G|------------------------|------------------------|-8------|-8------|-0------|-0------|
C|------------------------|------------------------|--------|--------|--------|--------|


D|--------|--------|--------|--------|-----------0------------|-----------0------------|
A|--------|--------|--------|--------|------------------------|------------------------|
F|--------|--------|--------|--------|------10-------10-------|------10-------10-------|
C|-7------|-7------|-10-----|-10-----|------------------------|------------------------|
G|-8------|-8------|-0------|-0------|-8-----------------8----|-8-----------------8----|
C|--------|--------|--------|--------|------------------------|------------------------|


D|-----------0------------|-----------0------------|--------|--------|--------|--------|
A|------------------------|------------------------|--------|--------|--------|--------|
F|------10-------10-------|------10-------10-------|--------|--------|--------|--------|
C|------------------------|------------------------|--------|--------|--------|--------|
G|-0-----------------0----|-0-----------------0----|--------|--------|--------|--------|
C|------------------------|------------------------|--------|--------|--------|--------|


D|--------|--------|--------|--------|--------|--------|--------|--------|--------|
A|--------|--------|--------|--------|--------|--------|--------|--------|--------|
F|--------|--------|--------|--------|--------|--------|--------|--------|--------|
C|--------|--------|--------|--------|--------|--------|--------|--------|--------|
G|--------|--------|--------|--------|--------|--------|--------|--------|--------|
C|--------|--------|--------|--------|--------|--------|--------|--------|--------|


D|--------|--------|--------|--------|--------|--------|--------|--------|--------|
A|--------|--------|--------|--------|--------|--------|--------|--------|--------|
F|--------|--------|--------|--------|--------|--------|--------|--------|--------|
C|--------|--------|--------|--------|--------|--------|--------|--------|--------|
G|--------|--------|--------|--------|--------|--------|--------|--------|--------|
C|--------|--------|--------|--------|--------|--------|--------|--------|--------|


D|--------|--------|--------|--------|--------|--------|--------|--------|--------|
A|--------|--------|--------|--------|--------|--------|--------|--------|--------|
F|--------|--------|--------|--------|--------|--------|--------|--------|--------|
C|--------|--------|--------|--------|--------|--------|--------|--------|--------|
G|--------|--------|--------|--------|--------|--------|--------|--------|--------|
C|--------|--------|--------|--------|--------|--------|--------|--------|--------|


D|--------|--------|--------|--------|--------|--------|--------|--------|--------|
A|--------|--------|--------|--------|--------|--------|--------|--------|--------|
F|--------|--------|--------|--------|--------|--------|--------|--------|--------|
C|--------|--------|--------|--------|--------|--------|--------|--------|--------|
G|--------|--------|--------|--------|--------|--------|--------|--------|--------|
C|--------|--------|--------|--------|--------|--------|--------|--------|--------|


D|--------|--------|--------|--------|--------|--------|--------|--------|--------|
A|--------|--------|--------|--------|--------|--------|--------|--------|--------|
F|--------|--------|--------|--------|--------|--------|--------|--------|--------|
C|--------|--------|--------|--------|--------|--------|--------|--------|-7------|
G|--------|--------|--------|--------|--------|--------|--------|--------|-8------|
C|--------|--------|--------|--------|--------|--------|--------|--------|--------|


D|--------|--------|--------|--------|--------|--------|--------|-------------|-------------|
A|--------|--------|--------|--------|--------|--------|--------|-------------|-------------|
F|--------|--------|--------|--------|--------|--------|--------|--------5----|--------5----|
C|-7------|-10-----|-10-----|-7------|-7------|-10-----|-10-----|-7------7----|-7------7----|
G|-8------|-0------|-0------|-8------|-8------|-0------|-0------|-8-----------|-8-----------|
C|--------|--------|--------|--------|--------|--------|--------|-------------|-------------|


D|-------------|-------------|-------------|-------------|-------------|-------------|
A|-------------|-------------|-------------|-------------|-------------|-------------|
F|--------9----|--------9----|--------5----|--------5----|--------9----|--------9----|
C|-10-----10---|-10-----10---|-7------7----|-7------7----|-10-----10---|-10-----10---|
G|-0-----------|-0-----------|-8-----------|-8-----------|-0-----------|-0-----------|
C|-------------|-------------|-------------|-------------|-------------|-------------|


D|--------|--------|--------|--------|--------|--------|--------|--------|--------|
A|--------|--------|--------|--------|--------|--------|--------|--------|--------|
F|--------|--------|--------|--------|--------|--------|--------|--------|--------|
C|--------|--------|--------|--------|--------|--------|--------|--------|--------|
G|--------|--------|--------|--------|--------|--------|--------|--------|--------|
C|--------|--------|--------|--------|--------|--------|--------|--------|--------|


D|--------|--------|--------|--------|--------|--------|--------|--------|--------|
A|--------|--------|--------|--------|--------|--------|--------|--------|--------|
F|--------|--------|--------|--------|--------|--------|--------|--------|--------|
C|--------|--------|--------|--------|--------|--------|--------|--------|--------|
G|--------|--------|--------|--------|--------|--------|--------|--------|--------|
C|--------|--------|--------|--------|--------|--------|--------|--------|--------|


D|--------|--------|--------|--------|--------|--------|--------|--------|--------|
A|--------|--------|--------|--------|--------|--------|--------|--------|--------|
F|--------|--------|--------|--------|--------|--------|--------|--------|--------|
C|--------|--------|--------|--------|--------|--------|--------|--------|--------|
G|--------|--------|--------|--------|--------|--------|--------|--------|--------|
C|--------|--------|--------|--------|--------|--------|--------|--------|--------|


D|--------|--------|--------|--------|--------|--------|--------|--------|--------|
A|--------|--------|--------|--------|--------|--------|--------|--------|--------|
F|--------|--------|--------|--------|--------|--------|--------|--------|--------|
C|--------|--------|--------|--------|--------|--------|--------|--------|--------|
G|--------|--------|--------|--------|--------|--------|--------|--------|--------|
C|--------|--------|--------|--------|--------|--------|--------|--------|--------|


D|--------|--------|--------|--------|--------|--------|--------|--------|--------|
A|--------|--------|--------|--------|--------|--------|--------|--------|--------|
F|--------|--------|--------|--------|--------|--------|--------|--------|--------|
C|--------|--------|--------|--------|--------|--------|--------|--------|--------|
G|--------|--------|--------|--------|--------|--------|--------|--------|--------|
C|--------|--------|--------|--------|--------|--------|--------|--------|--------|


D|--------|--------|--------|--------|--------|--------|--------|--------|--------|
A|--------|--------|--------|--------|--------|--------|--------|--------|--------|
F|--------|--------|--------|--------|--------|--------|--------|--------|--------|
C|--------|--------|--------|--------|--------|--------|--------|--------|--------|
G|--------|--------|--------|--------|--------|--------|--------|--------|--------|
C|--------|--------|--------|--------|--------|--------|--------|--------|--------|


D|--------|--------|--------|--------|--------|--------|--------|--------|--------|
A|--------|--------|--------|--------|--------|--------|--------|--------|--------|
F|--------|--------|--------|--------|--------|--------|--------|--------|--------|
C|--------|--------|--------|--------|--------|--------|--------|--------|--------|
G|--------|--------|--------|--------|--------|--------|--------|--------|--------|
C|--------|--------|--------|--------|--------|--------|--------|--------|--------|


D|--------|--------|--------|--------|--------|--------|--------|--------|--------|
A|--------|--------|--------|--------|--------|--------|--------|--------|--------|
F|--------|--------|--------|--------|--------|--------|--------|--------|--------|
C|--------|--------|--------|--------|--------|--------|--------|--------|--------|
G|--------|--------|--------|--------|--------|--------|--------|--------|--------|
C|--------|--------|--------|--------|--------|--------|--------|--------|--------|


D|--------|--------|--------|--------|--------|--------|--------|--------|--------|
A|--------|--------|--------|--------|--------|--------|--------|--------|--------|
F|--------|--------|--------|--------|--------|--------|--------|--------|--------|
C|--------|--------|--------|--------|--------|--------|--------|--------|--------|
G|--------|--------|--------|--------|--------|--------|--------|--------|--------|
C|--------|--------|--------|--------|--------|--------|--------|--------|--------|


D|--------|--------|--------|--------|--------|--------|--------|--------|-------------|
A|--------|--------|--------|--------|--------|--------|--------|--------|-------------|
F|--------|--------|--------|--------|--------|--------|--------|--------|--------5----|
C|--------|--------|--------|--------|--------|--------|--------|--------|-7------7----|
G|--------|--------|--------|--------|--------|--------|--------|--------|-8-----------|
C|--------|--------|--------|--------|--------|--------|--------|--------|-------------|


D|-------------|-------------|-------------|-------------|-------------|-------------|
A|-------------|-------------|-------------|-------------|-------------|-------------|
F|--------5----|--------9----|--------9----|--------5----|--------5----|--------9----|
C|-7------7----|-10-----10---|-10-----10---|-7------7----|-7------7----|-10-----10---|
G|-8-----------|-0-----------|-0-----------|-8-----------|-8-----------|-0-----------|
C|-------------|-------------|-------------|-------------|-------------|-------------|


D|-------------|-------------|-------------|-------------|-------------|-------------|
A|-------------|-------------|-------------|-------------|-------------|-------------|
F|--------9----|--------5----|--------5----|--------9----|--------9----|--------5----|
C|-10-----10---|-7------7----|-7------7----|-10-----10---|-10-----10---|-7------7----|
G|-0-----------|-8-----------|-8-----------|-0-----------|-0-----------|-8-----------|
C|-------------|-------------|-------------|-------------|-------------|-------------|


D|-------------|-------------|-------------|-------------|-------------|-------------|
A|-------------|-------------|-------------|-------------|-------------|-------------|
F|--------5----|--------9----|--------9----|--------5----|--------5----|--------9----|
C|-7------7----|-10-----10---|-10-----10---|-7------7----|-7------7----|-10-----10---|
G|-8-----------|-0-----------|-0-----------|-8-----------|-8-----------|-0-----------|
C|-------------|-------------|-------------|-------------|-------------|-------------|


D|-------------|-------------|-------------|-------------|-------------|--------|--------|
A|-------------|-------------|-------------|-------------|-------------|--------|--------|
F|--------9----|--------5----|--------5----|--------9----|--------9----|--------|--------|
C|-10-----10---|-7------7----|-7------7----|-10-----10---|-10-----10---|-7------|--------|
G|-0-----------|-8-----------|-8-----------|-0-----------|-0-----------|--------|--------|
C|-------------|-------------|-------------|-------------|-------------|--------|--------|


D|--------|--------|--------|--------|--------|--------|--------|--------|--------|
A|--------|--------|--------|--------|--------|--------|--------|--------|--------|
F|--------|--------|--------|--------|--------|--------|--------|--------|--------|
C|--------|--------|--------|--------|--------|--------|--------|--------|--------|
G|--------|--------|--------|--------|--------|--------|--------|--------|--------|
C|--------|--------|--------|--------|--------|--------|--------|--------|--------|


D|--------|--------|--------|--------|--------|--------|--------|--------|--------|
A|--------|--------|--------|--------|--------|--------|--------|--------|--------|
F|--------|--------|--------|--------|--------|--------|--------|--------|--------|
C|--------|--------|--------|--------|--------|--------|--------|--------|--------|
G|--------|--------|--------|--------|--------|--------|--------|--------|--------|
C|--------|--------|--------|--------|--------|--------|--------|--------|--------|


D|--------|--------|--------|--------|--------|--------|--------|--------|--------|
A|--------|--------|--------|--------|--------|--------|--------|--------|--------|
F|--------|--------|--------|--------|--------|--------|--------|--------|--------|
C|--------|--------|--------|--------|--------|--------|--------|--------|--------|
G|--------|--------|--------|--------|--------|--------|--------|--------|--------|
C|--------|--------|--------|--------|--------|--------|--------|--------|--------|


D|--------|--------|--------|--------|--------|--------|--------|--------|--------|
A|--------|--------|--------|--------|--------|--------|--------|--------|--------|
F|--------|--------|--------|--------|--------|--------|--------|--------|--------|
C|--------|--------|--------|--------|--------|--------|--------|--------|--------|
G|--------|--------|--------|--------|--------|--------|--------|--------|--------|
C|--------|--------|--------|--------|--------|--------|--------|--------|--------|


D|--------|--------|
A|--------|--------|
F|--------|--------|
C|--------|--------|
G|--------|--------|
C|--------|--------|





Track 2: Clean2

D|-----------0------------|-----------0------------|-----------0------------|-----------0------------|
A|------------------------|------------------------|------------------------|------------------------|
F|------10-------10-------|------10-------10-------|------10-------10-------|------10-------10-------|
C|------------------------|------------------------|------------------------|------------------------|
G|-8-----------------8----|-8-----------------8----|-0-----------------0----|-0-----------------0----|
C|------------------------|------------------------|------------------------|------------------------|


D|-----------0------------|-----------0------------|-----------0------------|-----------0------------|
A|------------------------|------------------------|------------------------|------------------------|
F|------10-------10-------|------10-------10-------|------10-------10-------|------10-------10-------|
C|------------------------|------------------------|------------------------|------------------------|
G|-8-----------------8----|-8-----------------8----|-0-----------------0----|-0-----------------0----|
C|------------------------|------------------------|------------------------|------------------------|


D|-----------0------------|-----------0------------|-----------0------------|-----------0------------|
A|------------------------|------------------------|------------------------|------------------------|
F|------10-------10-------|------10-------10-------|------10-------10-------|------10-------10-------|
C|------------------------|------------------------|------------------------|------------------------|
G|-8-----------------8----|-8-----------------8----|-0-----------------0----|-0-----------------0----|
C|------------------------|------------------------|------------------------|------------------------|


D|-----------0------------|-----------0------------|-----------0------------|-----------0------------|
A|------------------------|------------------------|------------------------|------------------------|
F|------10-------10-------|------10-------10-------|------10-------10-------|------10-------10-------|
C|------------------------|------------------------|------------------------|------------------------|
G|-8-----------------8----|-8-----------------8----|-0-----------------0----|-0-----------------0----|
C|------------------------|------------------------|------------------------|------------------------|


D|-----------0------------|-----------0------------|-----------0------------|-----------0------------|
A|------------------------|------------------------|------------------------|------------------------|
F|------10-------10-------|------10-------10-------|------10-------10-------|------10-------10-------|
C|------------------------|------------------------|------------------------|------------------------|
G|-8-----------------8----|-8-----------------8----|-0-----------------0----|-0-----------------0----|
C|------------------------|------------------------|------------------------|------------------------|


D|-----------0------------|-----------0------------|-----------0------------|-----------0------------|
A|------------------------|------------------------|------------------------|------------------------|
F|------10-------10-------|------10-------10-------|------10-------10-------|------10-------10-------|
C|------------------------|------------------------|------------------------|------------------------|
G|-8-----------------8----|-8-----------------8----|-0-----------------0----|-0-----------------0----|
C|------------------------|------------------------|------------------------|------------------------|


D|-----------0------------|-----------0------------|-----------0------------|-----------0------------|
A|------------------------|------------------------|------------------------|------------------------|
F|------10-------10-------|------10-------10-------|------10-------10-------|------10-------10-------|
C|------------------------|------------------------|------------------------|------------------------|
G|-8-----------------8----|-8-----------------8----|-0-----------------0----|-0-----------------0----|
C|------------------------|------------------------|------------------------|------------------------|


D|-----------0------------|-----------0------------|-----------0------------|-----------0------------|
A|------------------------|------------------------|------------------------|------------------------|
F|------10-------10-------|------10-------10-------|------10-------10-------|------10-------10-------|
C|------------------------|------------------------|------------------------|------------------------|
G|-8-----------------8----|-8-----------------8----|-0-----------------0----|-0-----------------0----|
C|------------------------|------------------------|------------------------|------------------------|


D|-----------0------------|-----------0------------|-----------0------------|-----------0------------|
A|------------------------|------------------------|------------------------|------------------------|
F|------10-------10-------|------10-------10-------|------10-------10-------|------10-------10-------|
C|------------------------|------------------------|------------------------|------------------------|
G|-8-----------------8----|-8-----------------8----|-0-----------------0----|-0-----------------0----|
C|------------------------|------------------------|------------------------|------------------------|


D|-----------0------------|-----------0------------|-----------0------------|-----------0------------|
A|------------------------|------------------------|------------------------|------------------------|
F|------10-------10-------|------10-------10-------|------10-------10-------|------10-------10-------|
C|------------------------|------------------------|------------------------|------------------------|
G|-8-----------------8----|-8-----------------8----|-0-----------------0----|-0-----------------0----|
C|------------------------|------------------------|------------------------|------------------------|


D|--------|--------|--------|--------|--------|--------|--------|--------|--------|
A|--------|--------|--------|--------|--------|--------|--------|--------|--------|
F|--------|--------|--------|--------|--------|--------|--------|--------|--------|
C|--------|--------|--------|--------|--------|--------|--------|--------|--------|
G|--------|--------|--------|--------|--------|--------|--------|--------|--------|
C|--------|--------|--------|--------|--------|--------|--------|--------|--------|


D|--------|--------|--------|--------|--------|--------|--------|--------|--------|
A|--------|--------|--------|--------|--------|--------|--------|--------|--------|
F|--------|--------|--------|--------|--------|--------|--------|--------|--------|
C|--------|--------|--------|--------|--------|--------|--------|--------|--------|
G|--------|--------|--------|--------|--------|--------|--------|--------|--------|
C|--------|--------|--------|--------|--------|--------|--------|--------|--------|


D|--------|--------|--------|--------|--------|--------|--------|--------|--------|
A|--------|--------|--------|--------|--------|--------|--------|--------|--------|
F|--------|--------|--------|--------|--------|--------|--------|--------|--------|
C|--------|--------|--------|--------|--------|--------|--------|--------|--------|
G|--------|--------|--------|--------|--------|--------|--------|--------|--------|
C|--------|--------|--------|--------|--------|--------|--------|--------|--------|


D|--------|--------|--------|--------|--------|--------|--------|--------|--------|
A|--------|--------|--------|--------|--------|--------|--------|--------|--------|
F|--------|--------|--------|--------|--------|--------|--------|--------|--------|
C|--------|--------|--------|--------|--------|--------|--------|--------|--------|
G|--------|--------|--------|--------|--------|--------|--------|--------|--------|
C|--------|--------|--------|--------|--------|--------|--------|--------|--------|


D|--------|--------|--------|--------|--------|--------|--------|--------|--------|
A|--------|--------|--------|--------|--------|--------|--------|--------|--------|
F|--------|--------|--------|--------|--------|--------|--------|--------|--------|
C|--------|--------|--------|--------|--------|--------|--------|--------|--------|
G|--------|--------|--------|--------|--------|--------|--------|--------|--------|
C|--------|--------|--------|--------|--------|--------|--------|--------|--------|


D|--------|--------|--------|--------|--------|--------|--------|-----------0------------|
A|--------|--------|--------|--------|--------|--------|--------|------------------------|
F|--------|--------|--------|--------|--------|--------|--------|------10-------10-------|
C|--------|--------|--------|--------|--------|--------|--------|------------------------|
G|--------|--------|--------|--------|--------|--------|--------|-8-----------------8----|
C|--------|--------|--------|--------|--------|--------|--------|------------------------|


D|-----------0------------|-----------0------------|-----------0------------|-----------0------------|
A|------------------------|------------------------|------------------------|------------------------|
F|------10-------10-------|------10-------10-------|------10-------10-------|------10-------10-------|
C|------------------------|------------------------|------------------------|------------------------|
G|-8-----------------8----|-0-----------------0----|-0-----------------0----|-8-----------------8----|
C|------------------------|------------------------|------------------------|------------------------|


D|-----------0------------|-----------0------------|-----------0------------|-----------0------------|
A|------------------------|------------------------|------------------------|------------------------|
F|------10-------10-------|------10-------10-------|------10-------10-------|------10-------10-------|
C|------------------------|------------------------|------------------------|------------------------|
G|-8-----------------8----|-0-----------------0----|-0-----------------0----|-8-----------------8----|
C|------------------------|------------------------|------------------------|------------------------|


D|-----------0------------|-----------0------------|-----------0------------|-----------0------------|
A|------------------------|------------------------|------------------------|------------------------|
F|------10-------10-------|------10-------10-------|------10-------10-------|------10-------10-------|
C|------------------------|------------------------|------------------------|------------------------|
G|-8-----------------8----|-0-----------------0----|-0-----------------0----|-8-----------------8----|
C|------------------------|------------------------|------------------------|------------------------|


D|-----------0------------|-----------0------------|-----------0------------|--------|
A|------------------------|------------------------|------------------------|--------|
F|------10-------10-------|------10-------10-------|------10-------10-------|--------|
C|------------------------|------------------------|------------------------|--------|
G|-8-----------------8----|-0-----------------0----|-0-----------------0----|--------|
C|------------------------|------------------------|------------------------|--------|


D|--------|--------|--------|--------|--------|--------|--------|--------|--------|
A|--------|--------|--------|--------|--------|--------|--------|--------|--------|
F|--------|--------|--------|--------|--------|--------|--------|--------|--------|
C|--------|--------|--------|--------|--------|--------|--------|--------|--------|
G|--------|--------|--------|--------|--------|--------|--------|--------|--------|
C|--------|--------|--------|--------|--------|--------|--------|--------|--------|


D|--------|--------|--------|--------|--------|--------|--------|--------|--------|
A|--------|--------|--------|--------|--------|--------|--------|--------|--------|
F|--------|--------|--------|--------|--------|--------|--------|--------|--------|
C|--------|--------|--------|--------|--------|--------|--------|--------|--------|
G|--------|--------|--------|--------|--------|--------|--------|--------|--------|
C|--------|--------|--------|--------|--------|--------|--------|--------|--------|


D|--------|--------|--------|--------|--------|--------|--------|--------|--------|
A|--------|--------|--------|--------|--------|--------|--------|--------|--------|
F|--------|--------|--------|--------|--------|--------|--------|--------|--------|
C|--------|--------|--------|--------|--------|--------|--------|--------|--------|
G|--------|--------|--------|--------|--------|--------|--------|--------|--------|
C|--------|--------|--------|--------|--------|--------|--------|--------|--------|


D|--------|--------|--------|--------|--------|--------|--------|--------|--------|
A|--------|--------|--------|--------|--------|--------|--------|--------|--------|
F|--------|--------|--------|--------|--------|--------|--------|--------|--------|
C|--------|--------|--------|--------|--------|--------|--------|--------|--------|
G|--------|--------|--------|--------|--------|--------|--------|--------|--------|
C|--------|--------|--------|--------|--------|--------|--------|--------|--------|


D|--------|--------|--------|--------|--------|--------|--------|--------|--------|
A|--------|--------|--------|--------|--------|--------|--------|--------|--------|
F|--------|--------|--------|--------|--------|--------|--------|--------|--------|
C|--------|--------|--------|--------|--------|--------|--------|--------|--------|
G|--------|--------|--------|--------|--------|--------|--------|--------|--------|
C|--------|--------|--------|--------|--------|--------|--------|--------|--------|


D|--------|--------|--------|--------|--------|--------|--------|--------|--------|
A|--------|--------|--------|--------|--------|--------|--------|--------|--------|
F|--------|--------|--------|--------|--------|--------|--------|--------|--------|
C|--------|--------|--------|--------|--------|--------|--------|--------|--------|
G|--------|--------|--------|--------|--------|--------|--------|--------|--------|
C|--------|--------|--------|--------|--------|--------|--------|--------|--------|


D|--------|--------|--------|--------|--------|--------|--------|--------|--------|
A|--------|--------|--------|--------|--------|--------|--------|--------|--------|
F|--------|--------|--------|--------|--------|--------|--------|--------|--------|
C|--------|--------|--------|--------|--------|--------|--------|--------|--------|
G|--------|--------|--------|--------|--------|--------|--------|--------|--------|
C|--------|--------|--------|--------|--------|--------|--------|--------|--------|


D|--------|--------|--------|--------|--------|--------|--------|--------|--------|
A|--------|--------|--------|--------|--------|--------|--------|--------|--------|
F|--------|--------|--------|--------|--------|--------|--------|--------|--------|
C|--------|--------|--------|--------|--------|--------|--------|--------|--------|
G|--------|--------|--------|--------|--------|--------|--------|--------|--------|
C|--------|--------|--------|--------|--------|--------|--------|--------|--------|


D|--------|--------|--------|--------|--------|--------|--------|--------|--------|
A|--------|--------|--------|--------|--------|--------|--------|--------|--------|
F|--------|--------|--------|--------|--------|--------|--------|--------|--------|
C|--------|--------|--------|--------|--------|--------|--------|--------|--------|
G|--------|--------|--------|--------|--------|--------|--------|--------|--------|
C|--------|--------|--------|--------|--------|--------|--------|--------|--------|


D|--------|--------|--------|--------|--------|--------|--------|-----------0------------|
A|--------|--------|--------|--------|--------|--------|--------|------------------------|
F|--------|--------|--------|--------|--------|--------|--------|------10-------10-------|
C|--------|--------|--------|--------|--------|--------|--------|------------------------|
G|--------|--------|--------|--------|--------|--------|--------|-8-----------------8----|
C|--------|--------|--------|--------|--------|--------|--------|------------------------|


D|-----------0------------|-----------0------------|-----------0------------|-----------0------------|
A|------------------------|------------------------|------------------------|------------------------|
F|------10-------10-------|------10-------10-------|------10-------10-------|------10-------10-------|
C|------------------------|------------------------|------------------------|------------------------|
G|-8-----------------8----|-0-----------------0----|-0-----------------0----|-8-----------------8----|
C|------------------------|------------------------|------------------------|------------------------|


D|-----------0------------|-----------0------------|-----------0------------|-----------0------------|
A|------------------------|------------------------|------------------------|------------------------|
F|------10-------10-------|------10-------10-------|------10-------10-------|------10-------10-------|
C|------------------------|------------------------|------------------------|------------------------|
G|-8-----------------8----|-0-----------------0----|-0-----------------0----|-8-----------------8----|
C|------------------------|------------------------|------------------------|------------------------|


D|-----------0------------|-----------0------------|-----------0------------|-----------0------------|
A|------------------------|------------------------|------------------------|------------------------|
F|------10-------10-------|------10-------10-------|------10-------10-------|------10-------10-------|
C|------------------------|------------------------|------------------------|------------------------|
G|-8-----------------8----|-0-----------------0----|-0-----------------0----|-8-----------------8----|
C|------------------------|------------------------|------------------------|------------------------|


D|-----------0------------|-----------0------------|-----------0------------|-----------0------------|
A|------------------------|------------------------|------------------------|------------------------|
F|------10-------10-------|------10-------10-------|------10-------10-------|------10-------10-------|
C|------------------------|------------------------|------------------------|------------------------|
G|-8-----------------8----|-0-----------------0----|-0-----------------0----|-8-----------------8----|
C|------------------------|------------------------|------------------------|------------------------|


D|-----------0------------|-----------0------------|-----------0------------|-----------0------------|
A|------------------------|------------------------|------------------------|------------------------|
F|------10-------10-------|------10-------10-------|------10-------10-------|------10-------10-------|
C|------------------------|------------------------|------------------------|------------------------|
G|-8-----------------8----|-0-----------------0----|-0-----------------0----|-8-----------------8----|
C|------------------------|------------------------|------------------------|------------------------|


D|-----------0------------|-----------0------------|-----------0------------|--------|
A|------------------------|------------------------|------------------------|--------|
F|------10-------10-------|------10-------10-------|------10-------10-------|--------|
C|------------------------|------------------------|------------------------|-10-----|
G|-8-----------------8----|-0-----------------0----|-0-----------------0----|--------|
C|------------------------|------------------------|------------------------|--------|


D|--------|--------|--------|--------|--------|--------|--------|--------|--------|
A|--------|--------|--------|--------|--------|--------|--------|--------|--------|
F|--------|--------|--------|--------|--------|--------|--------|--------|--------|
C|--------|--------|--------|--------|--------|--------|--------|--------|--------|
G|--------|--------|--------|--------|--------|--------|--------|--------|--------|
C|--------|--------|--------|--------|--------|--------|--------|--------|--------|


D|--------|--------|--------|--------|--------|--------|--------|--------|--------|
A|--------|--------|--------|--------|--------|--------|--------|--------|--------|
F|--------|--------|--------|--------|--------|--------|--------|--------|--------|
C|--------|--------|--------|--------|--------|--------|--------|--------|--------|
G|--------|--------|--------|--------|--------|--------|--------|--------|--------|
C|--------|--------|--------|--------|--------|--------|--------|--------|--------|


D|--------|--------|--------|--------|--------|--------|--------|--------|--------|
A|--------|--------|--------|--------|--------|--------|--------|--------|--------|
F|--------|--------|--------|--------|--------|--------|--------|--------|--------|
C|--------|--------|--------|--------|--------|--------|--------|--------|--------|
G|--------|--------|--------|--------|--------|--------|--------|--------|--------|
C|--------|--------|--------|--------|--------|--------|--------|--------|--------|


D|--------|--------|--------|--------|--------|--------|--------|--------|--------|
A|--------|--------|--------|--------|--------|--------|--------|--------|--------|
F|--------|--------|--------|--------|--------|--------|--------|--------|--------|
C|--------|--------|--------|--------|--------|--------|--------|--------|--------|
G|--------|--------|--------|--------|--------|--------|--------|--------|--------|
C|--------|--------|--------|--------|--------|--------|--------|--------|--------|


D|--------|--------|--------|
A|--------|--------|--------|
F|--------|--------|--------|
C|--------|--------|--------|
G|--------|--------|--------|
C|--------|--------|--------|





Track 3: Bass

F|--------|--------|--------|--------|--------|--------|--------|--------|-----------------|
C|--------|--------|--------|--------|--------|--------|--------|--------|-----------------|
G|--------|--------|--------|--------|--------|--------|--------|--------|-8-----8----8----|
C|--------|--------|--------|--------|--------|--------|--------|--------|-----------------|


F|-----------------|-----------------|-----------------|-----------------|-----------------|
C|-----------------|-----------------|-----------------|-----------------|-----------------|
G|-8-----8----8----|-0-----0----0----|-0-----0----0----|-8-----8----8----|-8-----8----8----|
C|-----------------|-----------------|-----------------|-----------------|-----------------|


F|-----------------|-----------------|-----------------|-----------------|-----------------|
C|-----------------|-----------------|-----------------|-----------------|-----------------|
G|-0-----0----0----|-0-----0----0----|-8-----8----8----|-8-----8----8----|-0-----0----0----|
C|-----------------|-----------------|-----------------|-----------------|-----------------|


F|-----------------|-----------------|-----------------|-----------------|-----------------|
C|-----------------|-----------------|-----------------|-----------------|-----------------|
G|-0-----0----0----|-8-----8----8----|-8-----8----8----|-0-----0----0----|-0-----0----0----|
C|-----------------|-----------------|-----------------|-----------------|-----------------|


F|-----------------|-----------------|-----------------|-----------------|-----------------|
C|-----------------|-----------------|-----------------|-----------------|-----------------|
G|-8-----8----8----|-8-----8----8----|-0-----0----0----|-0-----0----0----|-8-----8----8----|
C|-----------------|-----------------|-----------------|-----------------|-----------------|


F|-----------------|-----------------|-----------------|--------|--------|--------|
C|-----------------|-----------------|-----------------|--------|--------|--------|
G|-8-----8----8----|-0-----0----0----|-0-----0----0----|--------|--------|--------|
C|-----------------|-----------------|-----------------|--------|--------|--------|


F|--------|--------|--------|--------|--------|--------|--------|--------|--------|
C|--------|--------|--------|--------|--------|--------|--------|--------|--------|
G|--------|--------|--------|--------|--------|--------|--------|--------|--------|
C|--------|--------|--------|--------|--------|--------|--------|--------|--------|


F|--------|--------|--------|--------|--------|--------|--------|--------|--------|
C|--------|--------|--------|--------|--------|--------|--------|--------|--------|
G|--------|--------|--------|--------|--------|--------|--------|--------|--------|
C|--------|--------|--------|--------|--------|--------|--------|--------|--------|


F|--------|--------|--------|--------|--------|--------|--------|--------|--------|
C|--------|--------|--------|--------|--------|--------|--------|--------|--------|
G|--------|--------|--------|--------|--------|--------|--------|--------|--------|
C|--------|--------|--------|--------|--------|--------|--------|--------|--------|


F|--------|--------|--------|--------|--------|--------|--------|--------|--------|
C|--------|--------|--------|--------|--------|--------|--------|--------|--------|
G|--------|--------|--------|--------|--------|--------|--------|--------|--------|
C|--------|--------|--------|--------|--------|--------|--------|--------|--------|


F|--------|--------|--------|--------|--------|--------|--------|--------|--------|
C|--------|--------|--------|--------|--------|--------|--------|--------|--------|
G|--------|--------|--------|--------|--------|--------|--------|--------|--------|
C|--------|--------|--------|--------|--------|--------|--------|--------|--------|


F|--------|--------|--------|--------|--------|--------|--------|--------|--------|
C|--------|--------|--------|--------|--------|--------|--------|--------|--------|
G|--------|--------|--------|--------|--------|--------|--------|--------|--------|
C|--------|--------|--------|--------|--------|--------|--------|--------|--------|


F|--------|--------|--------|--------|--------|--------|--------|--------|--------|
C|--------|--------|--------|--------|--------|--------|--------|--------|--------|
G|--------|--------|--------|--------|--------|--------|--------|--------|--------|
C|--------|--------|--------|--------|--------|--------|--------|--------|--------|


F|--------|--------|-----------------|-----------------|-----------------|-----------------|
C|--------|--------|-----------------|-----------------|-----------------|-----------------|
G|--------|--------|-8-----8----8----|-8-----8----8----|-0-----0----0----|-0-----0----0----|
C|--------|--------|-----------------|-----------------|-----------------|-----------------|


F|-----------------|-----------------|-----------------|-----------------|--------|
C|-----------------|-----------------|-----------------|-----------------|--------|
G|-8-----8----8----|-8-----8----8----|-0-----0----0----|-0-----0----0----|--------|
C|-----------------|-----------------|-----------------|-----------------|--------|


F|--------|--------|--------|--------|--------|--------|--------|--------|--------|
C|--------|--------|--------|--------|--------|--------|--------|--------|--------|
G|--------|--------|--------|--------|--------|--------|--------|--------|--------|
C|--------|--------|--------|--------|--------|--------|--------|--------|--------|


F|--------|--------|--------|--------|--------|--------|--------|--------|--------|
C|--------|--------|--------|--------|--------|--------|--------|--------|--------|
G|--------|--------|--------|--------|--------|--------|--------|--------|--------|
C|--------|--------|--------|--------|--------|--------|--------|--------|--------|


F|--------|--------|--------|--------|--------|--------|--------|--------|--------|
C|--------|--------|--------|--------|--------|--------|--------|--------|--------|
G|--------|--------|--------|--------|--------|--------|--------|--------|--------|
C|--------|--------|--------|--------|--------|--------|--------|--------|--------|


F|--------|--------|--------|--------|--------|--------|--------|--------|--------|
C|--------|--------|--------|--------|--------|--------|--------|--------|--------|
G|--------|--------|--------|--------|--------|--------|--------|--------|--------|
C|--------|--------|--------|--------|--------|--------|--------|--------|--------|


F|--------|--------|--------|--------|--------|--------|--------|--------|--------|
C|--------|--------|--------|--------|--------|--------|--------|--------|--------|
G|--------|--------|--------|--------|--------|--------|--------|--------|--------|
C|--------|--------|--------|--------|--------|--------|--------|--------|--------|


F|--------|--------|--------|--------|--------|---------------------------------|---------------------------------|
C|--------|--------|--------|--------|--------|---------------------------------|---------------------------------|
G|--------|--------|--------|--------|--------|---------------------------------|---------------------------------|
C|--------|--------|--------|--------|--------|-7---7---7---7---7---7---7---7---|-7---7---3---3---3---3---3---3---|


F|---------------------------------|---------------------------------|---------------------------------|
C|---------------------------------|---------------------------------|---------------------------------|
G|---------------------------------|---------------------------------|---------------------------------|
C|-3---3---3---3---0---0---0---0---|-0---0---0---0---0---0---2---2---|-2---2---2---2---5---5---5---5---|


F|---------------------------------|---------------------------------|---------------------------------|
C|---------------------------------|---------------------------------|---------------------------------|
G|---------------------------------|---------------------------------|---------------------------------|
C|-7---7---7---7---7---7---7---7---|-7---7---3---3---3---3---3---3---|-3---3---3---3---0---0---0---0---|


F|---------------------------------|---------------------------------|---------------------------------|
C|---------------------------------|---------------------------------|---------------------------------|
G|---------------------------------|---------------------------------|---------------------------------|
C|-0---0---0---0---0---0---2---2---|-2---2---2---2---5---5---5---5---|-7---7---7---7---7---7---7---7---|


F|---------------------------------|---------------------------------|---------------------------------|
C|---------------------------------|---------------------------------|---------------------------------|
G|---------------------------------|---------------------------------|---------------------------------|
C|-7---7---3---3---3---3---3---3---|-3---3---3---3---0---0---0---0---|-0---0---0---0---0---0---2---2---|


F|---------------------------------|---------------------------------|---------------------------------|
C|---------------------------------|---------------------------------|---------------------------------|
G|---------------------------------|---------------------------------|---------------------------------|
C|-2---2---2---2---5---5---5---5---|-7---7---7---7---7---7---7---7---|-7---7---3---3---3---3---3---3---|


F|---------------------------------|---------------------------------|---------------------------------|
C|---------------------------------|---------------------------------|---------------------------------|
G|---------------------------------|---------------------------------|---------------------------------|
C|-3---3---3---3---0---0---0---0---|-0---0---0---0---0---0---2---2---|-2---2---2---2---5---5---5---5---|


F|---------------------------------|---------------------------------|---------------------------------|
C|---------------------------------|---------------------------------|---------------------------------|
G|---------------------------------|---------------------------------|---------------------------------|
C|-7---7---7---7---7---7---7---7---|-7---7---3---3---3---3---3---3---|-3---3---3---3---0---0---0---0---|


F|---------------------------------|---------------------------------|---------------------------------|
C|---------------------------------|---------------------------------|---------------------------------|
G|---------------------------------|---------------------------------|---------------------------------|
C|-0---0---0---0---0---0---2---2---|-2---2---2---2---5---5---5---5---|-3---3---3---3---3---3---3---3---|


F|---------------------------------|---------------------------------|---------------------------------|
C|---------------------3-----------|---------------------------------|---------------------10----------|
G|-----------------3-------3-------|---------------------------------|-----------------7-------7-------|
C|-3---3---3---3---------------3---|-7---7---7---7---7---7---7---7---|-7---7---7---7---------------7---|


F|---------------------------------|---------------------------------|---------------------------------|
C|---------------------------------|---------------------3-----------|---------------------------------|
G|---------------------------------|-----------------3-------3-------|---------------------------------|
C|-3---3---3---3---3---3---3---3---|-3---3---3---3---------------3---|-7---7---7---7---7---7---7---7---|


F|---------------------------------|---------------------------------------------|
C|---------------------10----------|-------------------------2---3---------------|
G|-----------------7-------7-------|---------------------------------------------|
C|-7---7---7---7---------------7---|-3--3--3--3--3--3--3--3----------3--3--3--3--|


F|------------------------|---------------------------|--------|-------------|-----------------|
C|------------------------|---------------------------|--------|-------------|-----------------|
G|------------------------|---------------------------|--------|-------------|-8-----8----8----|
C|-3----3----3---3---3----|-5---5---5----5---5---5----|-7------|-10----9-----|-----------------|


F|-----------------|-----------------|-----------------|-----------------|-----------------|
C|-----------------|-----------------|-----------------|-----------------|-----------------|
G|-8-----8----8----|-0-----0----0----|-0-----0----0----|-8-----8----8----|-8-----8----8----|
C|-----------------|-----------------|-----------------|-----------------|-----------------|


F|-----------------|-----------------|-----------------|-----------------|-----------------|
C|-----------------|-----------------|-----------------|-----------------|-----------------|
G|-0-----0----0----|-0-----0----0----|-8-----8----8----|-8-----8----8----|-0-----0----0----|
C|-----------------|-----------------|-----------------|-----------------|-----------------|


F|-----------------|-----------------|-----------------|-----------------|-----------------|
C|-----------------|-----------------|-----------------|-----------------|-----------------|
G|-0-----0----0----|-8-----8----8----|-8-----8----8----|-0-----0----0----|-0-----0----0----|
C|-----------------|-----------------|-----------------|-----------------|-----------------|


F|-----------------|-----------------|-----------------|-----------------|-----------------|
C|-----------------|-----------------|-----------------|-----------------|-----------------|
G|-8-----8----8----|-8-----8----8----|-0-----0----0----|-0-----0----0----|-8-----8----8----|
C|-----------------|-----------------|-----------------|-----------------|-----------------|


F|-----------------|-----------------|-----------------|--------|--------|--------|
C|-----------------|-----------------|-----------------|--------|--------|--------|
G|-8-----8----8----|-0-----0----0----|-0-----0----0----|--------|--------|--------|
C|-----------------|-----------------|-----------------|-7------|--------|--------|


F|--------|--------|--------|--------|--------|--------|--------|--------|--------|
C|--------|--------|--------|--------|--------|--------|--------|--------|--------|
G|--------|--------|--------|--------|--------|--------|--------|--------|--------|
C|--------|--------|--------|--------|--------|--------|--------|--------|--------|


F|--------|--------|--------|--------|--------|--------|--------|--------|--------|
C|--------|--------|--------|--------|--------|--------|--------|--------|--------|
G|--------|--------|--------|--------|--------|--------|--------|--------|--------|
C|--------|--------|--------|--------|--------|--------|--------|--------|--------|


F|--------|--------|--------|--------|--------|--------|--------|--------|--------|
C|--------|--------|--------|--------|--------|--------|--------|--------|--------|
G|--------|--------|--------|--------|--------|--------|--------|--------|--------|
C|--------|--------|--------|--------|--------|--------|--------|--------|--------|


F|--------|--------|--------|--------|--------|--------|--------|--------|--------|
C|--------|--------|--------|--------|--------|--------|--------|--------|--------|
G|--------|--------|--------|--------|--------|--------|--------|--------|--------|
C|--------|--------|--------|--------|--------|--------|--------|--------|--------|


F|--------|
C|--------|
G|--------|
C|--------|





Track 4: rythem

D|--------|--------|--------|--------|--------|--------|--------|--------|--------|
A|--------|--------|--------|--------|--------|--------|--------|--------|--------|
F|--------|--------|--------|--------|--------|--------|--------|--------|--------|
C|--------|--------|--------|--------|--------|--------|--------|--------|--------|
G|--------|--------|--------|--------|--------|--------|--------|--------|--------|
C|--------|--------|--------|--------|--------|--------|--------|--------|--------|


D|--------|--------|--------|--------|--------|--------|--------|--------|--------|
A|--------|--------|--------|--------|--------|--------|--------|--------|--------|
F|--------|--------|--------|--------|--------|--------|--------|--------|--------|
C|--------|--------|--------|--------|--------|--------|--------|--------|--------|
G|--------|--------|--------|--------|--------|--------|--------|--------|--------|
C|--------|--------|--------|--------|--------|--------|--------|--------|--------|


D|--------|--------|--------|--------|--------|--------|--------|--------|--------|
A|--------|--------|--------|--------|--------|--------|--------|--------|--------|
F|--------|--------|--------|--------|--------|--------|--------|--------|--------|
C|--------|--------|--------|--------|--------|--------|--------|--------|--------|
G|--------|--------|--------|--------|--------|--------|--------|--------|--------|
C|--------|--------|--------|--------|--------|--------|--------|--------|--------|


D|--------|--------|--------|--------|--------|--------|--------|--------|--------|
A|--------|--------|--------|--------|--------|--------|--------|--------|--------|
F|--------|--------|--------|--------|--------|-8------|-8------|-0------|-0------|
C|--------|--------|--------|--------|--------|--------|--------|--------|--------|
G|--------|--------|--------|--------|--------|--------|--------|--------|--------|
C|--------|--------|--------|--------|--------|--------|--------|--------|--------|


D|--------|--------|--------|--------|--------|--------|--------|--------|--------------0------------|
A|--------|--------|--------|--------|--------|--------|--------|--------|---------------------------|
F|-8------|-8------|-0------|-0------|--------|--------|--------|--------|---------10-------10-------|
C|--------|--------|--------|--------|--------|--------|--------|--------|---------------------------|
G|--------|--------|--------|--------|--------|--------|--------|-7------|-8---8----------------8----|
C|--------|--------|--------|--------|--------|--------|--------|-7------|---------------------------|


D|--------------0------------|--------------0------------|--------------0------------|
A|---------------------------|---------------------------|---------------------------|
F|---------10-------10-------|---------10-------10-------|---------10-------10-------|
C|---------------------------|---------------------------|---------------------------|
G|-8---8----------------8----|-0---0----------------0----|-0---0----------------0----|
C|---------------------------|---------------------------|---------------------------|


D|--------------0------------|--------------0------------|--------------0------------|
A|---------------------------|---------------------------|---------------------------|
F|---------10-------10-------|---------10-------10-------|---------10-------10-------|
C|---------------------------|---------------------------|---------------------------|
G|-8---8----------------8----|-8---8----------------8----|-0---0----------------0----|
C|---------------------------|---------------------------|---------------------------|


D|--------------0------------|--------------0------------|--------------0------------|
A|---------------------------|---------------------------|---------------------------|
F|---------10-------10-------|---------10-------10-------|---------10-------10-------|
C|---------------------------|---------------------------|---------------------------|
G|-0---0----------------0----|-8---8----------------8----|-8---8----------------8----|
C|---------------------------|---------------------------|---------------------------|


D|--------------0------------|--------------0------------|--------------0------------|
A|---------------------------|---------------------------|---------------------------|
F|---------10-------10-------|---------10-------10-------|---------10-------10-------|
C|---------------------------|---------------------------|---------------------------|
G|-0---0----------------0----|-0---0----------------0----|-8---8----------------8----|
C|---------------------------|---------------------------|---------------------------|


D|--------------0------------|--------------0------------|--------------0------------|
A|---------------------------|---------------------------|---------------------------|
F|---------10-------10-------|---------10-------10-------|---------10-------10-------|
C|---------------------------|---------------------------|---------------------------|
G|-8---8----------------8----|-0---0----------------0----|-0---0----------------0----|
C|---------------------------|---------------------------|---------------------------|


D|-------------|-------------|-------------|-------------|-------------|-------------|
A|-------------|-------------|-------------|-------------|-------------|-------------|
F|-------------|-------------|-------------|-------------|-------------|-------------|
C|-3------3----|-3------3----|-7------7----|-7------7----|-3------3----|-3------3----|
G|-3------3----|-3------3----|-7------7----|-7------7----|-3------3----|-3------3----|
C|-3------3----|-3------3----|-7------7----|-7------7----|-3------3----|-3------3----|


D|-------------|-------------|---------------------------|---------------------------|
A|-------------|-------------|---------------------------|---------------------------|
F|-------------|-------------|---------------------------|---------------------------|
C|-7------7----|-7------7----|-3--------2---3---2---3----|-3--------2---3---2---3----|
G|-7------7----|-7------7----|-3----3---------------3----|-3----3---------------3----|
C|-7------7----|-7------7----|-3--------------------3----|-3--------------------3----|


D|-----------------------------|---------------------------|---------------------------|
A|-----------------------------|---------------------------|---------------------------|
F|-----------------------------|---------------------------|---------------------------|
C|-7------------10-9------7----|-7--------------------7----|-3--------2---3---2---3----|
G|-7----7---8---------10--7----|-7----7---8---7---5---7----|-3----3---------------3----|
C|-7----------------------7----|-7--------------------7----|-3--------------------3----|


D|---------------------------|-----------------------------|---------------------------|
A|---------------------------|-----------------------------|---------------------------|
F|---------------------------|-----------------------------|---------------------------|
C|-3--------2---3---2---3----|-7------------10-9------7----|-7--------------------7----|
G|-3----3---------------3----|-7----7---8---------10--7----|-7----7---8---7---5---7----|
C|-3--------------------3----|-7----------------------7----|-7--------------------7----|


D|---------------------10----------|---------------------10----------|---------------------10----------|
A|-10--------------10------10--13--|-10--------------10------10--13--|-10--------------10------10--13--|
F|-----10--12--10------------------|-----10--12--10------------------|-----10--12--10------------------|
C|---------------------------------|---------------------------------|---------------------------------|
G|---------------------------------|---------------------------------|---------------------------------|
C|---------------------------------|---------------------------------|---------------------------------|


D|-13------12------10--------------|---------------------10----------|---------------------10----------|
A|-----13------13------13--10------|-10--------------10------10--13--|-10--------------10------10--13--|
F|-----------------------------10--|-----10--12--10------------------|-----10--12--10------------------|
C|---------------------------------|---------------------------------|---------------------------------|
G|---------------------------------|---------------------------------|---------------------------------|
C|---------------------------------|---------------------------------|---------------------------------|


D|---------------------10----------|-13------12------10--------------|---------------------10----------|
A|-10--------------10------10--13--|-----13------13------13--10------|-10--------------10------10--13--|
F|-----10--12--10------------------|-----------------------------10--|-----10--12--10------------------|
C|---------------------------------|---------------------------------|---------------------------------|
G|---------------------------------|---------------------------------|---------------------------------|
C|---------------------------------|---------------------------------|---------------------------------|


D|---------------------10----------|---------------------10----------|-13------12------10--------------|
A|-10--------------10------10--13--|-10--------------10------10--13--|-----13------13------13--10------|
F|-----10--12--10------------------|-----10--12--10------------------|-----------------------------10--|
C|---------------------------------|---------------------------------|---------------------------------|
G|---------------------------------|---------------------------------|---------------------------------|
C|---------------------------------|---------------------------------|---------------------------------|


D|---------------------10----------|---------------------10----------|---------------------10----------|
A|-10--------------10------10--13--|-10--------------10------10--13--|-10--------------10------10--13--|
F|-----10--12--10------------------|-----10--12--10------------------|-----10--12--10------------------|
C|---------------------------------|---------------------------------|---------------------------------|
G|---------------------------------|---------------------------------|---------------------------------|
C|---------------------------------|---------------------------------|---------------------------------|


D|-13------12------10--------------|--------|--------|--------|--------|--------|--------|
A|-----13------13------13--10------|--------|--------|--------|--------|--------|--------|
F|-----------------------------10--|--------|--------|--------|--------|--------|--------|
C|---------------------------------|--------|--------|--------|--------|--------|--------|
G|---------------------------------|--------|--------|--------|--------|--------|--------|
C|---------------------------------|--------|--------|--------|--------|--------|--------|


D|--------|--------|--------|--------|--------|--------|--------|--------|--------|
A|--------|--------|--------|--------|--------|--------|--------|--------|--------|
F|--------|--------|--------|--------|--------|--------|--------|--------|--------|
C|--------|--------|--------|--------|--------|--------|--------|--------|--------|
G|--------|--------|--------|--------|--------|--------|--------|--------|--------|
C|--------|--------|--------|--------|--------|--------|--------|--------|--------|


D|--------|-------------|-------------|--------|--------|-------------|-------------|
A|--------|-------------|-------------|--------|--------|-------------|-------------|
F|--------|-------------|-------------|--------|--------|-------------|-------------|
C|--------|-3-----------|-3-----------|-7------|-10-----|-3-----------|-3-----------|
G|--------|-3-----------|-3-----------|-7------|-7------|-3-----------|-3-----------|
C|--------|-3-----------|-3-----------|-7------|-7------|-3-----------|-3-----------|


D|--------|--------|-----------------------------------------|-----------------------------------------|
A|--------|--------|-----------------------------------------|-----------------------------------------|
F|--------|--------|-----------------------------------------|-----------------------------------------|
C|-7------|-10-----|-----------3---------2---------3---------|-------5---------2--3--2---------0---2---|
G|-7------|-7------|-0--0--0-------0--0------0--0------0--0--|-0--0------0--0------------0--0----------|
C|-7------|-7------|-----------------------------------------|-----------------------------------------|


D|-----------------------------------------|---------------------------------------|
A|-----------------------------------------|-------------------------------6---5---|
F|-----------------------------------------|-----------------5---4-----------------|
C|-----------3---------2---------3---------|-------5-------------------------------|
G|-0--0--0-------0--0------0--0------0--0--|-0--0------0--0----------0--0----------|
C|-----------------------------------------|---------------------------------------|


D|-----------------------------------------|-----------------------------------------|
A|-----------------------------------------|-----------------------------------------|
F|-----------------------------------------|-----------------------------------------|
C|-----------3---------2---------3---------|-------5---------2--3--2---------0---2---|
G|-0--0--0-------0--0------0--0------0--0--|-0--0------0--0------------0--0----------|
C|-----------------------------------------|-----------------------------------------|


D|-----------------------------------------|---------------------------------------|
A|-----------------------------------------|-------------------------------6---5---|
F|-----------------------------------------|-----------------5---4-----------------|
C|-----------3---------2---------3---------|-------5-------------------------------|
G|-0--0--0-------0--0------0--0------0--0--|-0--0------0--0----------0--0----------|
C|-----------------------------------------|---------------------------------------|


D|-----------------------------------------|-----------------------------------------|
A|-----------------------------------------|-----------------------------------------|
F|-----------------------------------------|-----------------------------------------|
C|-----------3---------2---------3---------|-------5---------2--3--2---------0---2---|
G|-0--0--0-------0--0------0--0------0--0--|-0--0------0--0------------0--0----------|
C|-----------------------------------------|-----------------------------------------|


D|-----------------------------------------|---------------------------------------|
A|-----------------------------------------|-------------------------------6---5---|
F|-----------------------------------------|-----------------5---4-----------------|
C|-----------3---------2---------3---------|-------5-------------------------------|
G|-0--0--0-------0--0------0--0------0--0--|-0--0------0--0----------0--0----------|
C|-----------------------------------------|---------------------------------------|


D|-----------------------------------------|-----------------------------------------|
A|-----------------------------------------|-----------------------------------------|
F|-----------------------------------------|-----------------------------------------|
C|-----------3---------2---------3---------|-------5---------2--3--2---------0---2---|
G|-0--0--0-------0--0------0--0------0--0--|-0--0------0--0------------0--0----------|
C|-----------------------------------------|-----------------------------------------|


D|-----------------------------------------|---------------------------------------|
A|-----------------------------------------|-------------------------------6---5---|
F|-----------------------------------------|-----------------5---4-----------------|
C|-----------3---------2---------3---------|-------5-------------------------------|
G|-0--0--0-------0--0------0--0------0--0--|-0--0------0--0----------0--0----------|
C|-----------------------------------------|---------------------------------------|


D|--------|--------|-----------------|-----------------|-----------------|-------------|
A|--------|--------|-----------------|-----------------|-----------------|-------------|
F|--------|--------|-----------------|-----------------|-----------------|-------------|
C|-2------|-0------|-7----7----------|-7----7----------|-7----7----------|-5-----3-----|
G|--------|--------|-7----7----------|-7----7----------|-7----7----------|-5-----3-----|
C|--------|--------|-7----7----------|-7----7----------|-7----7----------|-5-----3-----|


D|---------------------------|---------------------------|---------------------------|
A|---------------------------|---------------------------|---------------------------|
F|---------------------------|---------------------------|---------------------------|
C|-7----7----7---------------|-7----7----7---------------|-7----7----7---------------|
G|-7----7--------8---7-------|-7----7--------8---7-------|-7----7--------8---7-------|
C|-7----7----------------10--|-7----7----------------10--|-7----7----------------10--|


D|---------------------|---------------------------|---------------------------|---------------------------|
A|---------------------|---------------------------|---------------------------|---------------------------|
F|-----------5----5----|---------------------------|---------------------------|---------------------------|
C|-5----5----5----5----|-7----7----7---------------|-7----7----7---------------|-7----7----7---------------|
G|-5----5----3----3----|-7----7--------8---7-------|-7----7--------8---7-------|-7----7--------8---7-------|
C|-5----5--------------|-7----7----------------10--|-7----7----------------10--|-7----7----------------10--|


D|---------------------|---------------------------|---------------------------|---------------------------|
A|---------------------|---------------------------|---------------------------|---------------------------|
F|-----------5----5----|---------------------------|---------------------------|---------------------------|
C|-5----5----5----5----|-7----7----7---------------|-7----7----7---------------|-7----7----7---------------|
G|-5----5----3----3----|-7----7--------8---7-------|-7----7--------8---7-------|-7----7--------8---7-------|
C|-5----5--------------|-7----7----------------10--|-7----7----------------10--|-7----7----------------10--|


D|---------------------|---------------------------|---------------------------|---------------------------|
A|---------------------|---------------------------|---------------------------|---------------------------|
F|-----------5----5----|---------------------------|---------------------------|---------------------------|
C|-5----5----5----5----|-7----7----7---------------|-7----7----7---------------|-7----7----7---------------|
G|-5----5----3----3----|-7----7--------8---7-------|-7----7--------8---7-------|-7----7--------8---7-------|
C|-5----5--------------|-7----7----------------10--|-7----7----------------10--|-7----7----------------10--|


D|---------------------|--------|--------|--------|--------|--------|--------|-------------|
A|---------------------|--------|--------|--------|--------|--------|--------|-------------|
F|-----------5----5----|--------|--------|--------|--------|--------|--------|-------------|
C|-5----5----5----5----|--------|--------|--------|--------|--------|-7------|-7----3------|
G|-5----5----3----3----|--------|--------|--------|--------|--------|-7------|-7----3------|
C|-5----5--------------|--------|--------|--------|--------|--------|-7------|-7----3------|


D|-----------------|-----------------|-----------------|---------------------------------|
A|-----------------|-----------------|-----------------|---------------------------------|
F|-----------------|-----------------|-----------------|---------------------------------|
C|------3----0-----|-------0----2----|------2----5-----|---------5-------2-------0-------|
G|------3----0-----|-------0----2----|------2----5-----|-0---0-------0-------0-------0---|
C|------3----0-----|-------0----2----|------2----5-----|---------------------------------|


D|---------------------------------|---------------------------------|---------------------------------|
A|---------------------------------|---------------------------------|---------------------------------|
F|---------------------------------|---------------------------------|---------------------------------|
C|-5---7-----------5-------2-------|-0-------5---7-----------5-------|-2-------0-------5---7-----------|
G|---------0---0-------0-------0---|-----0-----------0---0-------0---|-----0-------0-----------0---0---|
C|---------------------------------|---------------------------------|---------------------------------|


D|---------------------------------|---------------------------------|---------------------------------|
A|---------------------------------|---------------------------------|---------------------------------|
F|---------------------------------|---------------------------------|---------------------------------|
C|-5-------2-------0-------5---7---|---------5-------2-------0-------|-5---7-----------5-------2-------|
G|-----0-------0-------0-----------|-0---0-------0-------0-------0---|---------0---0-------0-------0---|
C|---------------------------------|---------------------------------|---------------------------------|


D|---------------------------------|---------------------------------|---------------------------------|
A|---------------------------------|---------------------------------|---------------------------------|
F|---------------------------------|---------------------------------|---------------------------------|
C|-0-------5---7-----------5-------|-2-------0-------5---7-----------|-5-------2-------0-------5---7---|
G|-----0-----------0---0-------0---|-----0-------0-----------0---0---|-----0-------0-------0-----------|
C|---------------------------------|---------------------------------|---------------------------------|


D|---------------------------------|---------------------------------|---------------------------------|
A|---------------------------------|---------------------------------|---------------------------------|
F|---------------------------------|---------------------------------|---------------------------------|
C|---------5-------2-------0-------|-5---7-----------5-------2-------|-0-------5---7-----------5-------|
G|-0---0-------0-------0-------0---|---------0---0-------0-------0---|-----0-----------0---0-------0---|
C|---------------------------------|---------------------------------|---------------------------------|


D|---------------------------------|---------------------------------|---------------------------------|
A|---------------------------------|---------------------------------|---------------------------------|
F|---------------------------------|---------------------------------|---------------------------------|
C|-2-------0-------5---7-----------|-5-------2-------0-------5---7---|---------5-------2-------0-------|
G|-----0-------0-----------0---0---|-----0-------0-------0-----------|-0---0-------0-------0-------0---|
C|---------------------------------|---------------------------------|---------------------------------|


D|---------------------------------|---------------------------------|---------------------------------|
A|---------------------------------|---------------------------------|---------------------------------|
F|---------------------------------|---------------------------------|---------------------------------|
C|-5---7-----------5-------2-------|-0-------5---7-----------5-------|-2-------0-------5---7-----------|
G|---------0---0-------0-------0---|-----0-----------0---0-------0---|-----0-------0-----------0---0---|
C|---------------------------------|---------------------------------|---------------------------------|


D|---------------------------------|---------------------------|---------------------------|
A|---------------------------------|---------------------------|---------------------------|
F|---------------------------------|---------------------------|---------------------------|
C|-5-------2-------0-------5---7---|-3--------2---3---2---3----|-3--------2---3---2---3----|
G|-----0-------0-------0-----------|-3----3---------------3----|-3----3---------------3----|
C|---------------------------------|-3--------------------3----|-3--------------------3----|


D|-----------------------------|---------------------------|---------------------------|
A|-----------------------------|---------------------------|---------------------------|
F|-----------------------------|---------------------------|---------------------------|
C|-7------------10-9------7----|-7--------------------7----|-3--------2---3---2---3----|
G|-7----7---8---------10--7----|-7----7---8---7---5---7----|-3----3---------------3----|
C|-7----------------------7----|-7--------------------7----|-3--------------------3----|


D|---------------------------|-----------------------------|---------------------------|
A|---------------------------|-----------------------------|---------------------------|
F|---------------------------|-----------------------------|---------------------------|
C|-3--------2---3---2---3----|-7------------10-9------7----|-7--------------------7----|
G|-3----3---------------3----|-7----7---8---------10--7----|-7----7---8---7---5---7----|
C|-3--------------------3----|-7----------------------7----|-7--------------------7----|


D|------------------------------------------|--------|--------|--------|---------------------|
A|------------------------------------------|--------|--------|--------|---------------------|
F|------------------------------------------|--------|--------|--------|---------------------|
C|-------------------------3----------------|-3------|-5------|-7------|-7----5---------5----|
G|-3--3--3--3--3--3--3--3--3----3--3--3--3--|-3------|-5------|-7------|-----------8---------|
C|-3--3--3--3--3--3--3--3--3----3--3--3--3--|-3------|-5------|-7------|---------------------|


D|--------|--------|--------|--------|--------|--------|--------|--------|--------|
A|--------|--------|--------|--------|--------|--------|--------|--------|--------|
F|--------|--------|--------|--------|--------|--------|--------|--------|--------|
C|--------|--------|--------|--------|--------|--------|--------|--------|--------|
G|--------|--------|--------|--------|--------|--------|--------|--------|--------|
C|--------|--------|--------|--------|--------|--------|--------|--------|--------|


D|--------|--------|--------|--------|--------|--------|--------|--------|--------|
A|--------|--------|--------|--------|--------|--------|--------|--------|--------|
F|--------|--------|--------|--------|--------|--------|--------|--------|--------|
C|--------|--------|--------|--------|--------|--------|--------|--------|--------|
G|--------|--------|--------|--------|--------|--------|--------|--------|--------|
C|--------|--------|--------|--------|--------|--------|--------|--------|--------|


D|--------|--------|--------|--------|--------|--------|--------|--------|--------|
A|--------|--------|--------|--------|--------|--------|--------|--------|--------|
F|--------|--------|--------|--------|--------|--------|--------|--------|--------|
C|--------|--------|--------|--------|--------|--------|--------|--------|--------|
G|--------|--------|--------|--------|--------|--------|--------|--------|--------|
C|--------|--------|--------|--------|--------|--------|--------|--------|--------|


D|--------|--------|--------|--------|--------|--------|--------|--------|--------|
A|--------|--------|--------|--------|--------|--------|--------|--------|--------|
F|--------|--------|--------|--------|--------|--------|--------|--------|--------|
C|--------|--------|--------|--------|--------|--------|--------|--------|--------|
G|--------|--------|--------|--------|--------|--------|--------|--------|--------|
C|--------|--------|--------|--------|--------|--------|--------|--------|--------|


D|--------|--------|--------|--------|--------|--------|--------|--------|--------|
A|--------|--------|--------|--------|--------|--------|--------|--------|--------|
F|--------|--------|--------|--------|--------|--------|--------|--------|--------|
C|--------|--------|--------|--------|--------|--------|--------|--------|--------|
G|--------|--------|--------|--------|--------|--------|--------|--------|--------|
C|--------|--------|--------|--------|--------|--------|--------|--------|--------|


D|--------|--------|--------|--------|--------|--------|--------|--------|--------|
A|--------|--------|--------|--------|--------|--------|--------|--------|--------|
F|--------|--------|--------|--------|--------|--------|--------|--------|--------|
C|--------|--------|--------|--------|--------|--------|--------|--------|--------|
G|--------|--------|--------|--------|--------|--------|--------|--------|--------|
C|--------|--------|--------|--------|--------|--------|--------|--------|--------|


D|--------|--------|--------|--------|--------|--------|--------|--------|--------|
A|--------|--------|--------|--------|--------|--------|--------|--------|--------|
F|--------|--------|--------|--------|--------|--------|--------|--------|--------|
C|--------|--------|--------|--------|--------|--------|--------|--------|--------|
G|--------|--------|--------|--------|--------|--------|--------|--------|--------|
C|--------|--------|--------|--------|--------|--------|--------|--------|--------|


D|--------|
A|--------|
F|--------|
C|--------|
G|--------|
C|--------|





Track 5: rythem

D|--------|--------|--------|--------|--------|--------|--------|--------|--------|
A|--------|--------|--------|--------|--------|--------|--------|--------|--------|
F|--------|--------|--------|--------|--------|--------|--------|--------|--------|
C|--------|--------|--------|--------|--------|--------|--------|--------|--------|
G|--------|--------|--------|--------|--------|--------|--------|--------|--------|
C|--------|--------|--------|--------|--------|--------|--------|--------|--------|


D|--------|--------|--------|--------|--------|--------|--------|--------|--------|
A|--------|--------|--------|--------|--------|--------|--------|--------|--------|
F|--------|--------|--------|--------|--------|--------|--------|--------|--------|
C|--------|--------|--------|--------|--------|--------|--------|--------|--------|
G|--------|--------|--------|--------|--------|--------|--------|--------|--------|
C|--------|--------|--------|--------|--------|--------|--------|--------|--------|


D|--------|--------|--------|--------|--------|--------|--------|--------|--------|
A|--------|--------|--------|--------|--------|--------|--------|--------|--------|
F|--------|--------|--------|--------|--------|--------|--------|--------|--------|
C|--------|--------|--------|--------|--------|--------|--------|--------|--------|
G|--------|--------|--------|--------|--------|--------|--------|--------|--------|
C|--------|--------|--------|--------|--------|--------|--------|--------|--------|


D|--------|--------|--------|--------|--------|--------|--------|--------|--------|
A|--------|--------|--------|--------|--------|--------|--------|--------|--------|
F|--------|--------|--------|--------|--------|--------|--------|--------|--------|
C|--------|--------|--------|--------|--------|--------|--------|--------|--------|
G|--------|--------|--------|--------|--------|--------|--------|--------|--------|
C|--------|--------|--------|--------|--------|--------|--------|--------|--------|


D|--------|--------|--------|--------|--------|--------|--------|--------|--------|
A|--------|--------|--------|--------|--------|--------|--------|--------|--------|
F|--------|--------|--------|--------|-8------|-8------|-0------|-0------|--------|
C|--------|--------|--------|--------|--------|--------|--------|--------|--------|
G|--------|--------|--------|--------|--------|--------|--------|--------|--------|
C|--------|--------|--------|--------|--------|--------|--------|--------|--------|


D|--------|--------|--------|--------|--------|--------|--------|--------|--------|
A|--------|--------|--------|--------|--------|--------|--------|--------|--------|
F|--------|--------|--------|--------|--------|--------|--------|--------|--------|
C|--------|--------|--------|--------|--------|--------|--------|--------|--------|
G|--------|--------|--------|--------|--------|--------|--------|--------|--------|
C|--------|--------|--------|--------|--------|--------|--------|--------|--------|


D|--------|--------|--------|--------|--------|--------|--------|--------|--------|
A|--------|--------|--------|--------|--------|--------|--------|--------|--------|
F|--------|--------|--------|--------|--------|--------|--------|--------|--------|
C|--------|--------|--------|--------|--------|--------|--------|--------|--------|
G|--------|--------|--------|--------|--------|--------|--------|--------|--------|
C|--------|--------|--------|--------|--------|--------|--------|--------|--------|


D|--------|--------|--------|--------|--------|--------|--------|--------|--------|
A|--------|--------|--------|--------|--------|--------|--------|--------|--------|
F|--------|--------|--------|--------|--------|--------|--------|--------|--------|
C|--------|--------|--------|--------|--------|--------|--------|--------|--------|
G|--------|--------|--------|--------|--------|--------|--------|--------|--------|
C|--------|--------|--------|--------|--------|--------|--------|--------|--------|


D|--------|--------|--------|--------|--------|--------|--------|--------|--------|
A|--------|--------|--------|--------|--------|--------|--------|--------|--------|
F|--------|--------|--------|--------|--------|--------|--------|--------|--------|
C|--------|--------|--------|--------|--------|--------|--------|--------|--------|
G|--------|--------|--------|--------|--------|--------|--------|--------|--------|
C|--------|--------|--------|--------|--------|--------|--------|--------|--------|


D|--------|--------|--------|--------|--------|--------|--------|--------|--------|
A|--------|--------|--------|--------|--------|--------|--------|--------|--------|
F|--------|--------|--------|--------|--------|--------|--------|--------|--------|
C|--------|--------|--------|--------|--------|--------|--------|--------|--------|
G|--------|--------|--------|--------|--------|--------|--------|--------|--------|
C|--------|--------|--------|--------|--------|--------|--------|--------|--------|


D|--------|--------|--------|--------|--------|--------|--------|--------|--------|
A|--------|--------|--------|--------|--------|--------|--------|--------|--------|
F|--------|--------|--------|--------|--------|--------|--------|--------|--------|
C|--------|--------|--------|--------|--------|--------|--------|--------|--------|
G|--------|--------|--------|--------|--------|--------|--------|--------|--------|
C|--------|--------|--------|--------|--------|--------|--------|--------|--------|


D|--------|--------|--------|--------|--------|--------|--------|--------|--------|
A|--------|--------|--------|--------|--------|--------|--------|--------|--------|
F|--------|--------|--------|--------|--------|--------|--------|--------|--------|
C|--------|--------|--------|--------|--------|--------|--------|--------|--------|
G|--------|--------|--------|--------|--------|--------|--------|--------|--------|
C|--------|--------|--------|--------|--------|--------|--------|--------|--------|


D|--------|--------|--------|--------|--------|--------|--------|--------|--------|
A|--------|--------|--------|--------|--------|--------|--------|--------|--------|
F|--------|--------|--------|--------|--------|--------|--------|--------|--------|
C|--------|--------|--------|--------|--------|--------|--------|--------|--------|
G|--------|--------|--------|--------|--------|--------|--------|--------|--------|
C|--------|--------|--------|--------|--------|--------|--------|--------|--------|


D|--------|--------|--------|--------|--------|--------|--------|--------|--------|
A|--------|--------|--------|--------|--------|--------|--------|--------|--------|
F|--------|--------|--------|--------|--------|--------|--------|--------|--------|
C|--------|--------|--------|--------|--------|--------|--------|--------|--------|
G|--------|--------|--------|--------|--------|--------|--------|--------|--------|
C|--------|--------|--------|--------|--------|--------|--------|--------|--------|


D|--------|--------|--------|--------|--------|--------|--------|--------|--------|
A|--------|--------|--------|--------|--------|--------|--------|--------|--------|
F|--------|--------|--------|--------|--------|--------|--------|--------|--------|
C|--------|--------|--------|--------|--------|--------|--------|--------|--------|
G|--------|--------|--------|--------|--------|--------|--------|--------|--------|
C|--------|--------|--------|--------|--------|--------|--------|--------|--------|


D|--------|--------|--------|--------|--------|--------|--------|--------|--------|
A|--------|--------|--------|--------|--------|--------|--------|--------|--------|
F|--------|--------|--------|--------|--------|--------|--------|--------|--------|
C|--------|--------|--------|--------|--------|--------|--------|--------|--------|
G|--------|--------|--------|--------|--------|--------|--------|--------|--------|
C|--------|--------|--------|--------|--------|--------|--------|--------|--------|


D|--------|--------|--------|--------|--------|--------|--------|--------|--------|
A|--------|--------|--------|--------|--------|--------|--------|--------|--------|
F|--------|--------|--------|--------|--------|--------|--------|--------|--------|
C|--------|--------|--------|--------|--------|--------|--------|--------|--------|
G|--------|--------|--------|--------|--------|--------|--------|--------|--------|
C|--------|--------|--------|--------|--------|--------|--------|--------|--------|


D|--------|--------|--------|--------|--------|--------|--------|--------|--------|
A|--------|--------|--------|--------|--------|--------|--------|--------|--------|
F|--------|--------|--------|--------|--------|--------|--------|--------|--------|
C|--------|--------|--------|--------|--------|--------|--------|--------|--------|
G|--------|--------|--------|--------|--------|--------|--------|--------|--------|
C|--------|--------|--------|--------|--------|--------|--------|--------|--------|


D|--------|--------|--------|--------|--------|--------|--------|--------|--------|
A|--------|--------|--------|--------|--------|--------|--------|--------|--------|
F|--------|--------|--------|--------|--------|--------|--------|--------|--------|
C|--------|--------|--------|--------|--------|--------|--------|--------|--------|
G|--------|--------|--------|--------|--------|--------|--------|--------|--------|
C|--------|--------|--------|--------|--------|--------|--------|--------|--------|


D|--------|--------|--------|--------|--------|--------|--------|--------|--------|
A|--------|--------|--------|--------|--------|--------|--------|--------|--------|
F|--------|--------|--------|--------|--------|--------|--------|--------|--------|
C|--------|--------|--------|--------|--------|--------|--------|--------|--------|
G|--------|--------|--------|--------|--------|--------|--------|--------|--------|
C|--------|--------|--------|--------|--------|--------|--------|--------|--------|


D|--------|--------|--------|--------|--------|--------|--------|--------|--------|
A|--------|--------|--------|--------|--------|--------|--------|--------|--------|
F|--------|--------|--------|--------|--------|--------|--------|--------|--------|
C|--------|--------|--------|--------|--------|--------|--------|--------|--------|
G|--------|--------|--------|--------|--------|--------|--------|--------|--------|
C|--------|--------|--------|--------|--------|--------|--------|--------|--------|


D|--------|--------|--------|--------|--------|--------|--------|--------|--------|
A|--------|--------|--------|--------|--------|--------|--------|--------|--------|
F|--------|--------|--------|--------|--------|--------|--------|--------|--------|
C|--------|--------|--------|--------|--------|--------|--------|--------|--------|
G|--------|--------|--------|--------|--------|--------|--------|--------|--------|
C|--------|--------|--------|--------|--------|--------|--------|--------|--------|


D|--------|--------|--------|--------|--------|--------|--------|--------|--------|
A|--------|--------|--------|--------|--------|--------|--------|--------|--------|
F|--------|--------|--------|--------|--------|--------|--------|--------|--------|
C|--------|--------|--------|--------|--------|--------|--------|--------|--------|
G|--------|--------|--------|--------|--------|--------|--------|--------|--------|
C|--------|--------|--------|--------|--------|--------|--------|--------|--------|


D|--------|--------|--------|--------|--------|--------|--------|--------|--------|
A|--------|--------|--------|--------|--------|--------|--------|--------|--------|
F|--------|--------|--------|--------|--------|--------|--------|--------|--------|
C|--------|--------|--------|--------|--------|--------|--------|--------|--------|
G|--------|--------|--------|--------|--------|--------|--------|--------|--------|
C|--------|--------|--------|--------|--------|--------|--------|--------|--------|


D|--------|--------|--------|--------|--------|--------|--------|--------|--------|
A|--------|--------|--------|--------|--------|--------|--------|--------|--------|
F|--------|--------|--------|--------|--------|--------|--------|--------|--------|
C|--------|--------|--------|--------|--------|--------|--------|--------|--------|
G|--------|--------|--------|--------|--------|--------|--------|--------|--------|
C|--------|--------|--------|--------|--------|--------|--------|--------|--------|


D|--------|--------|--------|--------|--------|--------|--------|--------|--------|
A|--------|--------|--------|--------|--------|--------|--------|--------|--------|
F|--------|--------|--------|--------|--------|--------|--------|--------|--------|
C|--------|--------|--------|--------|--------|--------|--------|--------|--------|
G|--------|--------|--------|--------|--------|--------|--------|--------|--------|
C|--------|--------|--------|--------|--------|--------|--------|--------|--------|


D|--------|--------|--------|--------|--------|--------|--------|--------|--------|
A|--------|--------|--------|--------|--------|--------|--------|--------|--------|
F|--------|--------|--------|--------|--------|--------|--------|--------|--------|
C|--------|--------|--------|--------|--------|--------|--------|--------|--------|
G|--------|--------|--------|--------|--------|--------|--------|--------|--------|
C|--------|--------|--------|--------|--------|--------|--------|--------|--------|


D|--------|--------|--------|--------|--------|--------|--------|--------|--------|
A|--------|--------|--------|--------|--------|--------|--------|--------|--------|
F|--------|--------|--------|--------|--------|--------|--------|--------|--------|
C|--------|--------|--------|--------|--------|--------|--------|--------|--------|
G|--------|--------|--------|--------|--------|--------|--------|--------|--------|
C|--------|--------|--------|--------|--------|--------|--------|--------|--------|


D|--------|--------|--------|--------|--------|--------|--------|--------|--------|
A|--------|--------|--------|--------|--------|--------|--------|--------|--------|
F|--------|--------|--------|--------|--------|--------|--------|--------|--------|
C|--------|--------|--------|--------|--------|--------|--------|--------|--------|
G|--------|--------|--------|--------|--------|--------|--------|--------|--------|
C|--------|--------|--------|--------|--------|--------|--------|--------|--------|





Track 6: Lead

D|--------|--------|--------|--------|--------|--------|--------|--------|--------|
A|--------|--------|--------|--------|--------|--------|--------|--------|--------|
F|--------|--------|--------|--------|--------|--------|--------|--------|--------|
C|--------|--------|--------|--------|--------|--------|--------|--------|--------|
G|--------|--------|--------|--------|--------|--------|--------|--------|--------|
C|--------|--------|--------|--------|--------|--------|--------|--------|--------|


D|--------|--------|--------|--------|--------|--------|--------|--------|--------|
A|--------|--------|--------|--------|--------|--------|--------|--------|--------|
F|--------|--------|--------|--------|--------|--------|--------|--------|--------|
C|--------|--------|--------|--------|--------|--------|--------|--------|--------|
G|--------|--------|--------|--------|--------|--------|--------|--------|--------|
C|--------|--------|--------|--------|--------|--------|--------|--------|--------|


D|--------|--------|--------|--------|--------|--------|--------|--------|--------|
A|--------|--------|--------|--------|--------|--------|--------|--------|--------|
F|--------|--------|--------|--------|--------|--------|--------|--------|--------|
C|--------|--------|--------|--------|--------|--------|--------|--------|--------|
G|--------|--------|--------|--------|--------|--------|--------|--------|--------|
C|--------|--------|--------|--------|--------|--------|--------|--------|--------|


D|--------|--------|--------|--------|--------|--------|--------|--------|--------|
A|--------|--------|--------|--------|--------|--------|--------|--------|--------|
F|--------|--------|--------|--------|--------|--------|--------|--------|--------|
C|--------|--------|--------|--------|--------|--------|--------|--------|--------|
G|--------|--------|--------|--------|--------|--------|--------|--------|--------|
C|--------|--------|--------|--------|--------|--------|--------|--------|--------|


D|--------|--------|--------|--------|--------|--------|--------|--------|---------------------------------|
A|--------|--------|--------|--------|--------|--------|--------|--------|---------------------------------|
F|--------|--------|--------|--------|--------|--------|--------|--------|-10--10--10--10--10--10--10--10--|
C|--------|--------|--------|--------|--------|--------|--------|--------|-7---7---7---7---7---7---7---7---|
G|--------|--------|--------|--------|--------|--------|--------|--------|-8---8---8---8---8---8---8---8---|
C|--------|--------|--------|--------|--------|--------|--------|--------|---------------------------------|


D|---------------------------------|---------------------------------|---------------------------------|
A|---------------------------------|---------------------------------|---------------------------------|
F|-9---9---9---9---9---9---9---9---|---------------------------------|---------------------------------|
C|-7---7---7---7---7---7---7---7---|-10--10--10--10--10--10--10--10--|-9---9---9---9---9---9---9---9---|
G|-8---8---8---8---8---8---8---8---|-7---7---7---7---7---7---7---7---|-7---7---7---7---7---7---7---7---|
C|---------------------------------|-7---7---7---7---7---7---7---7---|-7---7---7---7---7---7---7---7---|


D|---------------------------------|---------------------------------|---------------------------------|
A|---------------------------------|---------------------------------|---------------------------------|
F|-10--10--10--10--10--10--10--10--|-9---9---9---9---9---9---9---9---|---------------------------------|
C|-7---7---7---7---7---7---7---7---|-7---7---7---7---7---7---7---7---|-10--10--10--10--10--10--10--10--|
G|-8---8---8---8---8---8---8---8---|-8---8---8---8---8---8---8---8---|-7---7---7---7---7---7---7---7---|
C|---------------------------------|---------------------------------|-7---7---7---7---7---7---7---7---|


D|---------------------------------|---------------------------------|---------------------------------|
A|---------------------------------|---------------------------------|---------------------------------|
F|---------------------------------|---------------------------------|-------------------------12--10--|
C|-9---9---9---9---9---9---9---9---|---------10--9-----------10--9---|-----10------10------------------|
G|-7---7---7---7---7---7---7---7---|-8---8-----------8---8-----------|-8-------8-------8---8-----------|
C|-7---7---7---7---7---7---7---7---|---------------------------------|---------------------------------|


D|---------------------------------|---------------------------------|---------------------------------|
A|---------------------------------|---------------------------------|---------------------------------|
F|---------------------------------|---------------------------------|---------------------------------|
C|---------10--9-----------10--9---|-----7-------9-----------10--9---|---------10--9-----------10--9---|
G|-0---0-----------0---0-----------|-0-------0-------0---0-----------|-8---8-----------8---8-----------|
C|---------------------------------|---------------------------------|---------------------------------|


D|---------------------------------|---------------------------------|---------------------------------|
A|---------------------------------|---------------------------------|---------------------------------|
F|-------------------------12--10--|---------------------------------|---------------------------------|
C|-----10------10------------------|---------10--9-----------10--9---|-----7-------9-----------10--9---|
G|-8-------8-------8---8-----------|-0---0-----------0---0-----------|-0-------0-------0---0-----------|
C|---------------------------------|---------------------------------|---------------------------------|


D|---------------------------------|---------------------------------|---------------------------------|
A|-10--10--10--10--10--10--10--10--|-12--12--13--13--15--15--18--18--|-17--17--17--17--17--17--17--17--|
F|---------------------------------|---------------------------------|---------------------------------|
C|-7---7---7---7---7---7---7---7---|-9---9---10--10--12--12--15--15--|-14--14--14--14--14--14--14--14--|
G|---------------------------------|---------------------------------|---------------------------------|
C|---------------------------------|---------------------------------|---------------------------------|


D|---------------------------------|---------------------------------|---------------------------------|
A|-15--15--13--13--12--12--13--15--|-10--10--10--10--10--10--10--10--|-12--12--13--13--15--15--18--18--|
F|---------------------------------|---------------------------------|---------------------------------|
C|-12--12--10--10--9---9---10--12--|-7---7---7---7---7---7---7---7---|-9---9---10--10--12--12--15--15--|
G|---------------------------------|---------------------------------|---------------------------------|
C|---------------------------------|---------------------------------|---------------------------------|


D|---------------------------------|---------------------------------|---------------------------------|
A|-17--17--17--17--17--17--17--17--|-15--15--13--13--12--12--13--15--|-10--10--10--10--10--10--10--10--|
F|---------------------------------|---------------------------------|---------------------------------|
C|-14--14--14--14--14--14--14--14--|-12--12--10--10--9---9---10--12--|-7---7---7---7---7---7---7---7---|
G|---------------------------------|---------------------------------|---------------------------------|
C|---------------------------------|---------------------------------|---------------------------------|


D|---------------------------------|---------------------------------|---------------------------------|
A|-12--12--13--13--15--15--18--18--|-17--17--17--17--17--17--17--17--|-15--15--13--13--12--12--13--15--|
F|---------------------------------|---------------------------------|---------------------------------|
C|-9---9---10--10--12--12--15--15--|-14--14--14--14--14--14--14--14--|-12--12--10--10--9---9---10--12--|
G|---------------------------------|---------------------------------|---------------------------------|
C|---------------------------------|---------------------------------|---------------------------------|


D|---------------------------------|---------------------------------|---------------------------------|
A|-10--10--10--10--10--10--10--10--|-12--12--13--13--15--15--18--18--|-17--17--17--17--17--17--17--17--|
F|---------------------------------|---------------------------------|---------------------------------|
C|-7---7---7---7---7---7---7---7---|-9---9---10--10--12--12--15--15--|-14--14--14--14--14--14--14--14--|
G|---------------------------------|---------------------------------|---------------------------------|
C|---------------------------------|---------------------------------|---------------------------------|


D|---------------------------------|---------------------------------|---------------------------------|
A|-15--15--13--13--12--12--13--15--|-10--10--10--10--10--10--10--10--|-12--12--13--13--15--15--18--18--|
F|---------------------------------|---------------------------------|---------------------------------|
C|-12--12--10--10--9---9---10--12--|-7---7---7---7---7---7---7---7---|-9---9---10--10--12--12--15--15--|
G|---------------------------------|---------------------------------|---------------------------------|
C|---------------------------------|---------------------------------|---------------------------------|


D|---------------------------------|---------------------------------|---------------------------------|
A|-17--17--17--17--17--17--17--17--|-15--15--13--13--12--12--13--15--|-10--10--10--10--10--10--10--10--|
F|---------------------------------|---------------------------------|---------------------------------|
C|-14--14--14--14--14--14--14--14--|-12--12--10--10--9---9---10--12--|-7---7---7---7---7---7---7---7---|
G|---------------------------------|---------------------------------|---------------------------------|
C|---------------------------------|---------------------------------|---------------------------------|


D|---------------------------------|---------------------------------|---------------------------------|
A|-12--12--13--13--15--15--18--18--|-17--17--17--17--17--17--17--17--|-15--15--13--13--12--12--13--15--|
F|---------------------------------|---------------------------------|---------------------------------|
C|-9---9---10--10--12--12--15--15--|-14--14--14--14--14--14--14--14--|-12--12--10--10--9---9---10--12--|
G|---------------------------------|---------------------------------|---------------------------------|
C|---------------------------------|---------------------------------|---------------------------------|


D|---------------------------------|---------------------------------|---------------------------------|
A|-10--10--10--10--10--10--10--10--|-12--12--13--13--15--15--18--18--|-17--17--17--17--17--17--17--17--|
F|---------------------------------|---------------------------------|---------------------------------|
C|-7---7---7---7---7---7---7---7---|-9---9---10--10--12--12--15--15--|-14--14--14--14--14--14--14--14--|
G|---------------------------------|---------------------------------|---------------------------------|
C|---------------------------------|---------------------------------|---------------------------------|


D|---------------------------------|---------------------------------|---------------------------------|
A|-15--15--13--13--12--12--13--15--|-10--10--10--10--10--10--10--10--|-12--12--13--13--15--15--18--18--|
F|---------------------------------|---------------------------------|---------------------------------|
C|-12--12--10--10--9---9---10--12--|-7---7---7---7---7---7---7---7---|-9---9---10--10--12--12--15--15--|
G|---------------------------------|---------------------------------|---------------------------------|
C|---------------------------------|---------------------------------|---------------------------------|


D|---------------------------------|---------------------------------|--------|--------|
A|-17--17--17--17--17--17--17--17--|-15--15--13--13--12--12--13--15--|--------|--------|
F|---------------------------------|---------------------------------|--------|--------|
C|-14--14--14--14--14--14--14--14--|-12--12--10--10--9---9---10--12--|--------|--------|
G|---------------------------------|---------------------------------|--------|--------|
C|---------------------------------|---------------------------------|--------|--------|


D|--------|--------|--------|--------|--------|--------|--------|--------|--------|
A|--------|--------|--------|--------|--------|--------|--------|--------|--------|
F|--------|--------|--------|--------|--------|--------|--------|--------|--------|
C|--------|--------|--------|--------|--------|--------|--------|--------|--------|
G|--------|--------|--------|--------|--------|--------|--------|--------|--------|
C|--------|--------|--------|--------|--------|--------|--------|--------|--------|


D|--------|--------|--------|--------|--------|---------------------------------|-----------------------------------|
A|--------|--------|--------|--------|--------|---------------------------------|-----------------------------------|
F|--------|--------|--------|--------|--------|---------------------------------|-----------------------------------|
C|--------|--------|--------|--------|--------|---------3-------2-------3-------|-----5-------2--3--2-------0---2---|
G|--------|--------|--------|--------|--------|-0---0-------0-------0-------0---|-0-------0-------------0-----------|
C|--------|--------|--------|--------|--------|---------------------------------|-----------------------------------|


D|---------------------------------|---------------------------------|---------------------------------|
A|---------------------------------|-------------------------6---5---|---------------------------------|
F|---------------------------------|-------------5---4---------------|---------------------------------|
C|---------3-------2-------3-------|-----5---------------------------|---------3-------2-------3-------|
G|-0---0-------0-------0-------0---|-0-------0-----------0-----------|-0---0-------0-------0-------0---|
C|---------------------------------|---------------------------------|---------------------------------|


D|-----------------------------------|---------------------------------|---------------------------------|
A|-----------------------------------|---------------------------------|-------------------------6---5---|
F|-----------------------------------|---------------------------------|-------------5---4---------------|
C|-----5-------2--3--2-------0---2---|---------3-------2-------3-------|-----5---------------------------|
G|-0-------0-------------0-----------|-0---0-------0-------0-------0---|-0-------0-----------0-----------|
C|-----------------------------------|---------------------------------|---------------------------------|


D|-----------------------------------------|-----------------------------------------|
A|-----------------------------------------|-----------------------------------------|
F|-----------------------------------------|-----------------------------------------|
C|-----------7---------5---------7---------|-------9---------5--7--5---------3---5---|
G|-0--0--0-------0--0------0--0------0--0--|-0--0------0--0------------0--0----------|
C|-----------------------------------------|-----------------------------------------|


D|-----------------------------------------|---------------------------------------|
A|-----------------------------------------|-------------------------------10--8---|
F|-----------------------------------------|-----------------9---7-----------------|
C|-----------7---------5---------7---------|-------9-------------------------------|
G|-0--0--0-------0--0------0--0------0--0--|-0--0------0--0----------0--0----------|
C|-----------------------------------------|---------------------------------------|


D|-----------------------------------------|-----------------------------------------|
A|-----------------------------------------|-----------------------------------------|
F|-----------------------------------------|-----------------------------------------|
C|-----------7---------5---------7---------|-------9---------5--7--5---------3---5---|
G|-0--0--0-------0--0------0--0------0--0--|-0--0------0--0------------0--0----------|
C|-----------------------------------------|-----------------------------------------|


D|-----------------------------------------|---------------------------------------|
A|-----------------------------------------|-------------------------------10--8---|
F|-----------------------------------------|-----------------9---7-----------------|
C|-----------7---------5---------7---------|-------9-------------------------------|
G|-0--0--0-------0--0------0--0------0--0--|-0--0------0--0----------0--0----------|
C|-----------------------------------------|---------------------------------------|


D|-----------------------------------------|-----------------------------------------|
A|-----------------------------------------|-----------------------------------------|
F|-----------------------------------------|-----------------------------------------|
C|-----------7---------5---------7---------|-------9---------5--7--5---------3---5---|
G|-0--0--0-------0--0------0--0------0--0--|-0--0------0--0------------0--0----------|
C|-----------------------------------------|-----------------------------------------|


D|-----------------------------------------|---------------------------------------|
A|-----------------------------------------|-------------------------------10--8---|
F|-----------------------------------------|-----------------9---7-----------------|
C|-----------7---------5---------7---------|-------9-------------------------------|
G|-0--0--0-------0--0------0--0------0--0--|-0--0------0--0----------0--0----------|
C|-----------------------------------------|---------------------------------------|


D|-----------------------------------------|-----------------------------------------|
A|-----------------------------------------|-----------------------------------------|
F|-----------------------------------------|-----------------------------------------|
C|-----------7---------5---------7---------|-------9---------5--7--5---------3---5---|
G|-0--0--0-------0--0------0--0------0--0--|-0--0------0--0------------0--0----------|
C|-----------------------------------------|-----------------------------------------|


D|-----------------------------------------|---------------------------------------|
A|-----------------------------------------|-------------------------------10--8---|
F|-----------------------------------------|-----------------9---7-----------------|
C|-----------7---------5---------7---------|-------9-------------------------------|
G|-0--0--0-------0--0------0--0------0--0--|-0--0------0--0----------0--0----------|
C|-----------------------------------------|---------------------------------------|


D|--------|--------|---------------------------|---------------------------|---------------------------|
A|--------|--------|---------------------------|---------------------------|---------------------------|
F|--------|--------|---------------------------|---------------------------|---------------------------|
C|-3------|-5------|-7----7----7---------------|-7----7----7---------------|-7----7----7---------------|
G|-3------|-5------|-7----7--------8---7-------|-7----7--------8---7-------|-7----7--------8---7-------|
C|-3------|-5------|-7----7----------------10--|-7----7----------------10--|-7----7----------------10--|


D|---------------------|---------------------------|---------------------------|---------------------------|
A|---------------------|---------------------------|---------------------------|---------------------------|
F|-----------5----5----|-----------5---------------|-----------5---------------|-----------5---------------|
C|-5----5----5----5----|---------------7---5-------|---------------7---5-------|---------------7---5-------|
G|-5----5----3----3----|-0----0----------------7---|-0----0----------------7---|-0----0----------------7---|
C|-5----5--------------|---------------------------|---------------------------|---------------------------|


D|---------------------|---------------------------|---------------------------|---------------------------|
A|---------------------|---------------------------|---------------------------|---------------------------|
F|---------------------|-----------5---------------|-----------5---------------|-----------5---------------|
C|---------------------|---------------7---5-------|---------------7---5-------|---------------7---5-------|
G|-2----2----0---------|-0----0----------------7---|-0----0----------------7---|-0----0----------------7---|
C|----------------5----|---------------------------|---------------------------|---------------------------|


D|---------------------|-------------------------------------|-------------------------------------|
A|---------------------|-------------------------------------|-------------------------------------|
F|---------------------|-5---------------4---5---7---5---4---|-5---------------4---5---7---5---4---|
C|---------------------|-7---7--7--7--7--5---------------5---|-7---7--7--7--7--5---------------5---|
G|-2----2----0---------|-------------------------------------|-------------------------------------|
C|----------------5----|-------------------------------------|-------------------------------------|


D|-------------------------------------|-----------------------------------------|
A|-------------------------------------|-----------------------------------------|
F|-5---------------4---5---7---5---4---|-9---------------9---7---------------7---|
C|-7---7--7--7--7--5---------------5---|-10--10-10-10-10-10--9---9--9--9--9--9---|
G|-------------------------------------|-----------------------------------------|
C|-------------------------------------|-----------------------------------------|


D|-------------------------------------|-------------------------------------|-------------------------------------|
A|-------------------------------------|-------------------------------------|-------------------------------------|
F|-5---------------4---5---7---5---4---|-5---------------4---5---7---5---4---|-5---------------4---5---7---5---4---|
C|-7---7--7--7--7--5---------------5---|-7---7--7--7--7--5---------------5---|-7---7--7--7--7--5---------------5---|
G|-------------------------------------|-------------------------------------|-------------------------------------|
C|-------------------------------------|-------------------------------------|-------------------------------------|


D|-----------------------------------------|---------------------------------|---------------------------------|
A|-----------------------------------------|---------------------------------|---------------------------------|
F|-9---------------9---7---------------7---|---------9-----------------------|-----------------9---------------|
C|-10--10-10-10-10-10--9---9--9--9--9--9---|-----------------10------9-------|-9---10------------------10------|
G|-----------------------------------------|-0---0-------0-------0-------0---|---------8---8-------8-------8---|
C|-----------------------------------------|---------------------------------|---------------------------------|


D|---------------------------------|---------------------------------|---------------------------------|
A|---------------------------------|---------------------------------|---------------------------------|
F|-------------------------9-------|---------------------------------|-9-------------------------------|
C|-9-------9---10--0---0-------0---|-10--0---9---0---9---10----------|---------10------9-------9---10--|
G|-----8---------------------------|-------------------------7---7---|-----7-------7-------7-----------|
C|---------------------------------|---------------------------------|---------------------------------|


D|---------------------------------|---------------------------------|---------------------------------|
A|---------------------------------|---------------------------------|---------------------------------|
F|---------9-----------------------|-----------------9---------------|-------------------------9-------|
C|-----------------10------9-------|-9---10------------------10------|-9-------9---10--0---0-------0---|
G|-0---0-------0-------0-------0---|---------8---8-------8-------8---|-----8---------------------------|
C|---------------------------------|---------------------------------|---------------------------------|


D|---------------------------------|---------------------------------|---------------------------------|
A|---------------------------------|---------------------------------|---------------------------------|
F|---------------------------------|-9-------------------------------|---------9-----------------------|
C|-10--0---9---0---9---10----------|---------10------9-------9---10--|-----------------10------9-------|
G|-------------------------7---7---|-----7-------7-------7-----------|-0---0-------0-------0-------0---|
C|---------------------------------|---------------------------------|---------------------------------|


D|---------------------------------|---------------------------------|---------------------------------|
A|---------------------------------|---------------------------------|---------------------------------|
F|-----------------9---------------|-------------------------9-------|---------------------------------|
C|-9---10------------------10------|-9-------9---10------------------|-10------9-------9---10----------|
G|---------0---0-------0-------0---|-----0-----------0---0-------0---|-----0-------0-----------0---0---|
C|---------------------------------|---------------------------------|---------------------------------|


D|---------------------------------|---------------------------------|---------------------------------|
A|---------------------------------|---------------------------------|---------------------------------|
F|-9-------------------------------|---------9-----------------------|-----------------9---------------|
C|---------10------9-------9---10--|-----------------10------9-------|-9---10------------------10------|
G|-----0-------0-------0-----------|-0---0-------0-------0-------0---|---------0---0-------0-------0---|
C|---------------------------------|---------------------------------|---------------------------------|


D|---------------------------------|---------------------------------|---------------------------------|
A|---------------------------------|---------------------------------|---------------------------------|
F|-------------------------9-------|---------------------------------|-9-------------------------------|
C|-9-------9---10------------------|-10------9-------9---10----------|---------10------9-------9---10--|
G|-----0-----------0---0-------0---|-----0-------0-----------0---0---|-----0-------0-------0-----------|
C|---------------------------------|---------------------------------|---------------------------------|


D|---------------------------------|---------------------------------|---------------------------------|
A|---------------------------------|---------------------------------|---------------------------------|
F|---------9-----------------------|-----------------9---------------|-------------------------9-------|
C|-----------------10------9-------|-9---10------------------10------|-9-------9---10------------------|
G|-0---0-------0-------0-------0---|---------0---0-------0-------0---|-----0-----------0---0-------0---|
C|---------------------------------|---------------------------------|---------------------------------|


D|---------------------------------|---------------------------------|---------------------------------|
A|---------------------------------|---------------------------------|---------------------------------|
F|---------------------------------|-9-------------------------------|---------9-----------------------|
C|-10------9-------9---10----------|---------10------9-------9---10--|-----------------10------9-------|
G|-----0-------0-----------0---0---|-----0-------0-------0-----------|-0---0-------0-------0-------0---|
C|---------------------------------|---------------------------------|---------------------------------|


D|---------------------------------|---------------------------------|---------------------------------|
A|---------------------------------|---------------------------------|---------------------------------|
F|-----------------9---------------|-------------------------9-------|---------------------------------|
C|-9---10------------------10------|-9-------9---10------------------|-10------9-------9---10----------|
G|---------0---0-------0-------0---|-----0-----------0---0-------0---|-----0-------0-----------0---0---|
C|---------------------------------|---------------------------------|---------------------------------|


D|---------------------------------|----------3---5---3--------|----------3---5---3--------|
A|---------------------------------|-6----5---------------6----|-6----5---------------6----|
F|-9-------------------------------|---------------------------|---------------------------|
C|---------10------9-------9---10--|---------------------------|---------------------------|
G|-----0-------0-------0-----------|---------------------------|---------------------------|
C|---------------------------------|---------------------------|---------------------------|


D|--------------12-10----------|---------------------------|----------3---5---3--------|
A|-10---8---10--------12--10---|-10---8---10--8---6---10---|-6----5---------------6----|
F|-----------------------------|---------------------------|---------------------------|
C|-----------------------------|---------------------------|---------------------------|
G|-----------------------------|---------------------------|---------------------------|
C|-----------------------------|---------------------------|---------------------------|


D|----------3---5---3--------|--------------12-10----------|---------------------------|
A|-6----5---------------6----|-10---8---10--------12--10---|-10---8---10--8---6---10---|
F|---------------------------|-----------------------------|---------------------------|
C|---------------------------|-----------------------------|---------------------------|
G|---------------------------|-----------------------------|---------------------------|
C|---------------------------|-----------------------------|---------------------------|


D|------------------------------------------|--------|--------|--------|---------------------|
A|------------------------------------------|--------|--------|--------|---------------------|
F|------------------------------------------|--------|--------|--------|---------------------|
C|-------------------------3----------------|-3------|-5------|-7------|---------------------|
G|-3--3--3--3--3--3--3--3--3----3--3--3--3--|-3------|-5------|-7------|-8----7----5----7----|
C|-3--3--3--3--3--3--3--3--3----3--3--3--3--|-3------|-5------|-7------|---------------------|


D|--------|--------|--------|--------|--------|--------|--------|--------|--------|
A|--------|--------|--------|--------|--------|--------|--------|--------|--------|
F|--------|--------|--------|--------|--------|--------|--------|--------|--------|
C|--------|--------|--------|--------|--------|--------|--------|--------|--------|
G|--------|--------|--------|--------|--------|--------|--------|--------|--------|
C|--------|--------|--------|--------|--------|--------|--------|--------|--------|


D|--------|--------|--------|--------|--------|--------|--------|--------|--------|
A|--------|--------|--------|--------|--------|--------|--------|--------|--------|
F|--------|--------|--------|--------|--------|--------|--------|--------|--------|
C|--------|--------|--------|--------|--------|--------|--------|--------|--------|
G|--------|--------|--------|--------|--------|--------|--------|--------|--------|
C|--------|--------|--------|--------|--------|--------|--------|--------|--------|


D|--------|--------|--------|--------|--------|--------|--------|--------|--------|
A|--------|--------|--------|--------|--------|--------|--------|--------|--------|
F|--------|--------|--------|--------|--------|--------|--------|--------|--------|
C|--------|--------|--------|--------|--------|--------|--------|--------|--------|
G|--------|--------|--------|--------|--------|--------|--------|--------|--------|
C|--------|--------|--------|--------|--------|--------|--------|--------|--------|


D|--------|--------|--------|--------|--------|--------|--------|--------|--------|
A|--------|--------|--------|--------|--------|--------|--------|--------|--------|
F|--------|--------|--------|--------|--------|--------|--------|--------|--------|
C|--------|--------|--------|--------|--------|--------|--------|--------|--------|
G|--------|--------|--------|--------|--------|--------|--------|--------|--------|
C|--------|--------|--------|--------|--------|--------|--------|--------|--------|


D|--------|--------|--------|--------|--------|--------|--------|--------|--------|
A|--------|--------|--------|--------|--------|--------|--------|--------|--------|
F|--------|--------|--------|--------|--------|--------|--------|--------|--------|
C|--------|--------|--------|--------|--------|--------|--------|--------|--------|
G|--------|--------|--------|--------|--------|--------|--------|--------|--------|
C|--------|--------|--------|--------|--------|--------|--------|--------|--------|


D|--------|--------|--------|--------|--------|--------|--------|--------|--------|
A|--------|--------|--------|--------|--------|--------|--------|--------|--------|
F|--------|--------|--------|--------|--------|--------|--------|--------|--------|
C|--------|--------|--------|--------|--------|--------|--------|--------|--------|
G|--------|--------|--------|--------|--------|--------|--------|--------|--------|
C|--------|--------|--------|--------|--------|--------|--------|--------|--------|


D|--------|--------|--------|--------|--------|--------|--------|--------|--------|
A|--------|--------|--------|--------|--------|--------|--------|--------|--------|
F|--------|--------|--------|--------|--------|--------|--------|--------|--------|
C|--------|--------|--------|--------|--------|--------|--------|--------|--------|
G|--------|--------|--------|--------|--------|--------|--------|--------|--------|
C|--------|--------|--------|--------|--------|--------|--------|--------|--------|


D|--------|
A|--------|
F|--------|
C|--------|
G|--------|
C|--------|





Track 7: rythem

D|--------|--------|--------|--------|--------|--------|--------|--------|--------|
A|--------|--------|--------|--------|--------|--------|--------|--------|--------|
F|--------|--------|--------|--------|--------|--------|--------|--------|--------|
C|--------|--------|--------|--------|--------|--------|--------|--------|--------|
G|--------|--------|--------|--------|--------|--------|--------|--------|--------|
C|--------|--------|--------|--------|--------|--------|--------|--------|--------|


D|--------|--------|--------|--------|--------|--------|--------|--------|--------|
A|--------|--------|--------|--------|--------|--------|--------|--------|--------|
F|--------|--------|--------|--------|--------|--------|--------|--------|--------|
C|--------|--------|--------|--------|--------|--------|--------|--------|--------|
G|--------|--------|--------|--------|--------|--------|--------|--------|--------|
C|--------|--------|--------|--------|--------|--------|--------|--------|--------|


D|--------|--------|--------|--------|--------|--------|--------|--------|--------|
A|--------|--------|--------|--------|--------|--------|--------|--------|--------|
F|--------|--------|--------|--------|--------|--------|--------|--------|--------|
C|--------|--------|--------|--------|--------|--------|--------|--------|--------|
G|--------|--------|--------|--------|--------|--------|--------|--------|--------|
C|--------|--------|--------|--------|--------|--------|--------|--------|--------|


D|--------|--------|--------|--------|--------|--------|--------|--------|--------|
A|--------|--------|--------|--------|--------|--------|--------|--------|--------|
F|--------|--------|--------|--------|--------|--------|--------|--------|--------|
C|--------|--------|--------|--------|--------|--------|--------|--------|--------|
G|--------|--------|--------|--------|--------|--------|--------|--------|--------|
C|--------|--------|--------|--------|--------|--------|--------|--------|--------|


D|--------|--------|--------|--------|--------|--------|--------|--------|---------------------------|
A|--------|--------|--------|--------|--------|--------|--------|--------|---------------------------|
F|--------|--------|--------|--------|--------|--------|--------|--------|-8----8---8---8----8---8---|
C|--------|--------|--------|--------|--------|--------|--------|--------|---------------------------|
G|--------|--------|--------|--------|--------|--------|--------|--------|---------------------------|
C|--------|--------|--------|--------|--------|--------|--------|--------|---------------------------|


D|---------------------------|---------------------------|---------------------------|
A|-------------------9---10--|---------------------------|-------------------10--9---|
F|-8----8---8---8------------|-0----0---0---0----0---0---|-0----0---0---0------------|
C|---------------------------|---------------------------|---------------------------|
G|---------------------------|---------------------------|---------------------------|
C|---------------------------|---------------------------|---------------------------|


D|---------------------------|---------------------------|---------------------------|
A|---------------------------|-------------------9---10--|---------------------------|
F|-8----8---8---8----8---8---|-8----8---8---8------------|-0----0---0---0----0---0---|
C|---------------------------|---------------------------|---------------------------|
G|---------------------------|---------------------------|---------------------------|
C|---------------------------|---------------------------|---------------------------|


D|---------------------------|--------|--------|--------|--------|--------|--------|
A|-------------------10--9---|--------|--------|--------|--------|--------|--------|
F|-0----0---0---0------------|--------|--------|--------|--------|--------|--------|
C|---------------------------|--------|--------|--------|--------|--------|--------|
G|---------------------------|--------|--------|--------|--------|--------|--------|
C|---------------------------|--------|--------|--------|--------|--------|--------|


D|--------|--------|--------|--------|--------|--------|--------|--------|--------|
A|--------|--------|--------|--------|--------|--------|--------|--------|--------|
F|--------|--------|--------|--------|--------|--------|--------|--------|--------|
C|--------|--------|--------|--------|--------|--------|--------|--------|--------|
G|--------|--------|--------|--------|--------|--------|--------|--------|--------|
C|--------|--------|--------|--------|--------|--------|--------|--------|--------|


D|--------|--------|--------|--------|--------|--------|--------|--------|--------|
A|--------|--------|--------|--------|--------|--------|--------|--------|--------|
F|--------|--------|--------|--------|--------|--------|--------|--------|--------|
C|--------|--------|--------|--------|--------|--------|--------|--------|--------|
G|--------|--------|--------|--------|--------|--------|--------|--------|--------|
C|--------|--------|--------|--------|--------|--------|--------|--------|--------|


D|--------|--------|--------|--------|--------|--------|--------|--------|--------|
A|--------|--------|--------|--------|--------|--------|--------|--------|--------|
F|--------|--------|--------|--------|--------|--------|--------|--------|--------|
C|--------|--------|--------|--------|--------|--------|--------|--------|--------|
G|--------|--------|--------|--------|--------|--------|--------|--------|--------|
C|--------|--------|--------|--------|--------|--------|--------|--------|--------|


D|--------|--------|--------|--------|--------|--------|--------|--------|--------|
A|--------|--------|--------|--------|--------|--------|--------|--------|--------|
F|--------|--------|--------|--------|--------|--------|--------|--------|--------|
C|--------|--------|--------|--------|--------|--------|--------|--------|--------|
G|--------|--------|--------|--------|--------|--------|--------|--------|--------|
C|--------|--------|--------|--------|--------|--------|--------|--------|--------|


D|--------|--------|--------|--------|--------|--------|--------|--------|--------|
A|--------|--------|--------|--------|--------|--------|--------|--------|--------|
F|--------|--------|--------|--------|--------|--------|--------|--------|--------|
C|--------|--------|--------|--------|--------|--------|--------|--------|--------|
G|--------|--------|--------|--------|--------|--------|--------|--------|--------|
C|--------|--------|--------|--------|--------|--------|--------|--------|--------|


D|--------|--------|--------|--------|--------|--------|--------|--------|--------|
A|--------|--------|--------|--------|--------|--------|--------|--------|--------|
F|--------|--------|--------|--------|--------|--------|--------|--------|--------|
C|--------|--------|--------|--------|--------|--------|--------|--------|--------|
G|--------|--------|--------|--------|--------|--------|--------|--------|--------|
C|--------|--------|--------|--------|--------|--------|--------|--------|--------|


D|--------|--------|--------|--------|--------|--------|--------|--------|--------|
A|--------|--------|--------|--------|--------|--------|--------|--------|--------|
F|--------|--------|--------|--------|--------|--------|--------|--------|--------|
C|--------|--------|--------|--------|--------|--------|--------|--------|--------|
G|--------|--------|--------|--------|--------|--------|--------|--------|--------|
C|--------|--------|--------|--------|--------|--------|--------|--------|--------|


D|--------|--------|--------|--------|--------|--------|--------|--------|--------|
A|--------|--------|--------|--------|--------|--------|--------|--------|--------|
F|--------|--------|--------|--------|--------|--------|--------|--------|--------|
C|--------|--------|--------|--------|--------|--------|--------|--------|--------|
G|--------|--------|--------|--------|--------|--------|--------|--------|--------|
C|--------|--------|--------|--------|--------|--------|--------|--------|--------|


D|--------|--------|--------|--------|--------|--------|--------|--------|--------|
A|--------|--------|--------|--------|--------|--------|--------|--------|--------|
F|--------|--------|--------|--------|--------|--------|--------|--------|--------|
C|--------|--------|--------|--------|--------|--------|--------|--------|--------|
G|--------|--------|--------|--------|--------|--------|--------|--------|--------|
C|--------|--------|--------|--------|--------|--------|--------|--------|--------|


D|--------|--------|--------|--------|--------|--------|--------|--------|--------|
A|--------|--------|--------|--------|--------|--------|--------|--------|--------|
F|--------|--------|--------|--------|--------|--------|--------|--------|--------|
C|--------|--------|--------|--------|--------|--------|--------|--------|--------|
G|--------|--------|--------|--------|--------|--------|--------|--------|--------|
C|--------|--------|--------|--------|--------|--------|--------|--------|--------|


D|--------|--------|--------|--------|--------|--------|--------|--------|--------|
A|--------|--------|--------|--------|--------|--------|--------|--------|--------|
F|--------|--------|--------|--------|--------|--------|--------|--------|--------|
C|--------|--------|--------|--------|--------|--------|--------|--------|--------|
G|--------|--------|--------|--------|--------|--------|--------|--------|--------|
C|--------|--------|--------|--------|--------|--------|--------|--------|--------|


D|--------|--------|--------|--------|--------|--------|--------|--------|--------|
A|--------|--------|--------|--------|--------|--------|--------|--------|--------|
F|--------|--------|--------|--------|--------|--------|--------|--------|--------|
C|--------|--------|--------|--------|--------|--------|--------|--------|--------|
G|--------|--------|--------|--------|--------|--------|--------|--------|--------|
C|--------|--------|--------|--------|--------|--------|--------|--------|--------|


D|--------|--------|--------|--------|--------|--------|--------|--------|--------|
A|--------|--------|--------|--------|--------|--------|--------|--------|--------|
F|--------|--------|--------|--------|--------|--------|--------|--------|--------|
C|--------|--------|--------|--------|--------|--------|--------|--------|--------|
G|--------|--------|--------|--------|--------|--------|--------|--------|--------|
C|--------|--------|--------|--------|--------|--------|--------|--------|--------|


D|--------|--------|--------|--------|--------|--------|--------|--------|--------|
A|--------|--------|--------|--------|--------|--------|--------|--------|--------|
F|--------|--------|--------|--------|--------|--------|--------|--------|--------|
C|--------|--------|--------|--------|--------|--------|--------|--------|--------|
G|--------|--------|--------|--------|--------|--------|--------|--------|--------|
C|--------|--------|--------|--------|--------|--------|--------|--------|--------|


D|--------|--------|--------|--------|--------|--------|--------|--------|--------|
A|--------|--------|--------|--------|--------|--------|--------|--------|--------|
F|--------|--------|--------|--------|--------|--------|--------|--------|--------|
C|--------|--------|--------|--------|--------|--------|--------|--------|--------|
G|--------|--------|--------|--------|--------|--------|--------|--------|--------|
C|--------|--------|--------|--------|--------|--------|--------|--------|--------|


D|--------|--------|--------|--------|--------|--------|--------|--------|--------|
A|--------|--------|--------|--------|--------|--------|--------|--------|--------|
F|--------|--------|--------|--------|--------|--------|--------|--------|--------|
C|--------|--------|--------|--------|--------|--------|--------|--------|--------|
G|--------|--------|--------|--------|--------|--------|--------|--------|--------|
C|--------|--------|--------|--------|--------|--------|--------|--------|--------|


D|--------|--------|--------|--------|--------|--------|--------|--------|--------|
A|--------|--------|--------|--------|--------|--------|--------|--------|--------|
F|--------|--------|--------|--------|--------|--------|--------|--------|--------|
C|--------|--------|--------|--------|--------|--------|--------|--------|--------|
G|--------|--------|--------|--------|--------|--------|--------|--------|--------|
C|--------|--------|--------|--------|--------|--------|--------|--------|--------|


D|--------|--------|--------|--------|--------|--------|--------|--------|--------|
A|--------|--------|--------|--------|--------|--------|--------|--------|--------|
F|--------|--------|--------|--------|--------|--------|--------|--------|--------|
C|--------|--------|--------|--------|--------|--------|--------|--------|--------|
G|--------|--------|--------|--------|--------|--------|--------|--------|--------|
C|--------|--------|--------|--------|--------|--------|--------|--------|--------|


D|--------|--------|--------|--------|--------|--------|--------|--------|--------|
A|--------|--------|--------|--------|--------|--------|--------|--------|--------|
F|--------|--------|--------|--------|--------|--------|--------|--------|--------|
C|--------|--------|--------|--------|--------|--------|--------|--------|--------|
G|--------|--------|--------|--------|--------|--------|--------|--------|--------|
C|--------|--------|--------|--------|--------|--------|--------|--------|--------|


D|--------|--------|--------|--------|--------|--------|--------|--------|--------|
A|--------|--------|--------|--------|--------|--------|--------|--------|--------|
F|--------|--------|--------|--------|--------|--------|--------|--------|--------|
C|--------|--------|--------|--------|--------|--------|--------|--------|--------|
G|--------|--------|--------|--------|--------|--------|--------|--------|--------|
C|--------|--------|--------|--------|--------|--------|--------|--------|--------|


D|--------|--------|--------|--------|--------|--------|--------|--------|--------|
A|--------|--------|--------|--------|--------|--------|--------|--------|--------|
F|--------|--------|--------|--------|--------|--------|--------|--------|--------|
C|--------|--------|--------|--------|--------|--------|--------|--------|--------|
G|--------|--------|--------|--------|--------|--------|--------|--------|--------|
C|--------|--------|--------|--------|--------|--------|--------|--------|--------|


D|--------|--------|--------|--------|--------|--------|--------|--------|--------|
A|--------|--------|--------|--------|--------|--------|--------|--------|--------|
F|--------|--------|--------|--------|--------|--------|--------|--------|--------|
C|--------|--------|--------|--------|--------|--------|--------|--------|--------|
G|--------|--------|--------|--------|--------|--------|--------|--------|--------|
C|--------|--------|--------|--------|--------|--------|--------|--------|--------|


D|--------|--------|--------|--------|--------|
A|--------|--------|--------|--------|--------|
F|--------|--------|--------|--------|--------|
C|--------|--------|--------|--------|--------|
G|--------|--------|--------|--------|--------|
C|--------|--------|--------|--------|--------|





Track 8: rythem

D|--------|--------|--------|--------|--------|--------|--------|--------|--------|
A|--------|--------|--------|--------|--------|--------|--------|--------|--------|
F|--------|--------|--------|--------|--------|--------|--------|--------|--------|
C|--------|--------|--------|--------|--------|--------|--------|--------|--------|
G|--------|--------|--------|--------|--------|--------|--------|--------|--------|
C|--------|--------|--------|--------|--------|--------|--------|--------|--------|


D|--------|--------|--------|--------|--------|--------|--------|--------|--------|
A|--------|--------|--------|--------|--------|--------|--------|--------|--------|
F|--------|--------|--------|--------|--------|--------|--------|--------|--------|
C|--------|--------|--------|--------|--------|--------|--------|--------|--------|
G|--------|--------|--------|--------|--------|--------|--------|--------|--------|
C|--------|--------|--------|--------|--------|--------|--------|--------|--------|


D|--------|--------|--------|--------|--------|--------|--------|--------|--------|
A|--------|--------|--------|--------|--------|--------|--------|--------|--------|
F|--------|--------|--------|--------|--------|--------|--------|--------|--------|
C|--------|--------|--------|--------|--------|--------|--------|--------|--------|
G|--------|--------|--------|--------|--------|--------|--------|--------|--------|
C|--------|--------|--------|--------|--------|--------|--------|--------|--------|


D|--------|--------|--------|--------|--------|--------|--------|--------|--------|
A|--------|--------|--------|--------|--------|--------|--------|--------|--------|
F|--------|--------|--------|--------|--------|--------|--------|--------|--------|
C|--------|--------|--------|--------|--------|--------|--------|--------|--------|
G|--------|--------|--------|--------|--------|--------|--------|--------|--------|
C|--------|--------|--------|--------|--------|--------|--------|--------|--------|


D|--------|--------|--------|--------|--------|--------|--------|--------|--------|
A|--------|--------|--------|--------|--------|--------|--------|--------|--------|
F|--------|--------|--------|--------|--------|--------|--------|--------|--------|
C|--------|--------|--------|--------|--------|--------|--------|--------|--------|
G|--------|--------|--------|--------|--------|--------|--------|--------|--------|
C|--------|--------|--------|--------|--------|--------|--------|--------|--------|


D|--------|--------|--------|--------|--------|--------|--------|---------------------------|
A|--------|--------|--------|--------|--------|--------|--------|---------------------------|
F|--------|--------|--------|--------|--------|--------|--------|-8----8---8---8----8---8---|
C|--------|--------|--------|--------|--------|--------|--------|---------------------------|
G|--------|--------|--------|--------|--------|--------|--------|---------------------------|
C|--------|--------|--------|--------|--------|--------|--------|---------------------------|


D|---------------------------|---------------------------|---------------------------|
A|-------------------9---10--|---------------------------|-------------------10--9---|
F|-8----8---8---8------------|-0----0---0---0----0---0---|-0----0---0---0------------|
C|---------------------------|---------------------------|---------------------------|
G|---------------------------|---------------------------|---------------------------|
C|---------------------------|---------------------------|---------------------------|


D|---------------------------|---------------------------|---------------------------|
A|---------------------------|-------------------9---10--|---------------------------|
F|-8----8---8---8----8---8---|-8----8---8---8------------|-0----0---0---0----0---0---|
C|---------------------------|---------------------------|---------------------------|
G|---------------------------|---------------------------|---------------------------|
C|---------------------------|---------------------------|---------------------------|


D|---------------------------|---------------------------------|---------------------------------|
A|-------------------10--9---|---------------------------------|---------------------------------|
F|-0----0---0---0------------|---------------------------------|---------------------------------|
C|---------------------------|-3---3---3---3---3---3---3---3---|-3---3---3---3---3---3---3---3---|
G|---------------------------|---------------------------------|---------------------------------|
C|---------------------------|---------------------------------|---------------------------------|


D|---------------------------------|---------------------------------|---------------------------------|
A|---------------------------------|---------------------------------|---------------------------------|
F|-0---0---0---0---0---0---0---0---|-0---0---0---0---0---0---0---0---|---------------------------------|
C|---------------------------------|---------------------------------|-3---3---3---3---3---3---3---3---|
G|---------------------------------|---------------------------------|---------------------------------|
C|---------------------------------|---------------------------------|---------------------------------|


D|---------------------------------|---------------------------------|---------------------------------|
A|---------------------------------|---------------------------------|---------------------------------|
F|---------------------------------|-0---0---0---0---0---0---0---0---|-0---0---0---0---0---0---0---0---|
C|-3---3---3---3---3---3---3---3---|---------------------------------|---------------------------------|
G|---------------------------------|---------------------------------|---------------------------------|
C|---------------------------------|---------------------------------|---------------------------------|


D|---------------------------------|---------------------------------|---------------------------------|
A|---------------------------------|---------------------------------|---------------------------------|
F|---------------------------------|---------------------------------|-0---0---0---0---0---0---0---0---|
C|-3---3---3---3---3---3---3---3---|-3---3---3---3---3---3---3---3---|---------------------------------|
G|---------------------------------|---------------------------------|---------------------------------|
C|---------------------------------|---------------------------------|---------------------------------|


D|---------------------------------|---------------------------------|---------------------------------|
A|---------------------------------|---------------------------------|---------------------------------|
F|-0---0---0---0---0---0---0---0---|---------------------------------|---------------------------------|
C|---------------------------------|-3---3---3---3---3---3---3---3---|-3---3---3---3---3---3---3---3---|
G|---------------------------------|---------------------------------|---------------------------------|
C|---------------------------------|---------------------------------|---------------------------------|


D|---------------------------------|---------------------------------|---------------------------------|
A|---------------------------------|---------------------------------|---------------------------------|
F|-0---0---0---0---0---0---0---0---|-0---0---0---0---0---0---0---0---|---------------------------------|
C|---------------------------------|---------------------------------|-3---3---3---3---3---3---3---3---|
G|---------------------------------|---------------------------------|---------------------------------|
C|---------------------------------|---------------------------------|---------------------------------|


D|---------------------------------|---------------------------------|---------------------------------|
A|---------------------------------|---------------------------------|---------------------------------|
F|---------------------------------|-0---0---0---0---0---0---0---0---|-0---0---0---0---0---0---0---0---|
C|-3---3---3---3---3---3---3---3---|---------------------------------|---------------------------------|
G|---------------------------------|---------------------------------|---------------------------------|
C|---------------------------------|---------------------------------|---------------------------------|


D|---------------------------------|---------------------------------|---------------------------------|
A|---------------------------------|---------------------------------|---------------------------------|
F|---------------------------------|---------------------------------|-0---0---0---0---0---0---0---0---|
C|-3---3---3---3---3---3---3---3---|-3---3---3---3---3---3---3---3---|---------------------------------|
G|---------------------------------|---------------------------------|---------------------------------|
C|---------------------------------|---------------------------------|---------------------------------|


D|---------------------------------|---------------------------------|---------------------------------|
A|---------------------------------|---------------------------------|---------------------------------|
F|-0---0---0---0---0---0---0---0---|---------------------------------|---------------------------------|
C|---------------------------------|-3---3---3---3---3---3---3---3---|-3---3---3---3---3---3---3---3---|
G|---------------------------------|---------------------------------|---------------------------------|
C|---------------------------------|---------------------------------|---------------------------------|


D|---------------------------------|---------------------------------|---------------------------------|
A|---------------------------------|---------------------------------|---------------------------------|
F|-0---0---0---0---0---0---0---0---|-0---0---0---0---0---0---0---0---|---------------------------------|
C|---------------------------------|---------------------------------|-3---3---3---3---3---3---3---3---|
G|---------------------------------|---------------------------------|---------------------------------|
C|---------------------------------|---------------------------------|---------------------------------|


D|---------------------------------|---------------------------------|---------------------------------|
A|---------------------------------|---------------------------------|---------------------------------|
F|---------------------------------|-0---0---0---0---0---0---0---0---|-0---0---0---0---0---0---0---0---|
C|-3---3---3---3---3---3---3---3---|---------------------------------|---------------------------------|
G|---------------------------------|---------------------------------|---------------------------------|
C|---------------------------------|---------------------------------|---------------------------------|


D|--------|--------|--------|--------|--------|--------|--------|--------|--------|
A|--------|--------|--------|--------|--------|--------|--------|--------|--------|
F|--------|--------|--------|--------|--------|--------|--------|--------|--------|
C|--------|--------|--------|--------|--------|--------|--------|--------|--------|
G|--------|--------|--------|--------|--------|--------|--------|--------|--------|
C|--------|--------|--------|--------|--------|--------|--------|--------|--------|


D|--------|--------|--------|--------|--------|--------|--------|--------|--------|
A|--------|--------|--------|--------|--------|--------|--------|--------|--------|
F|--------|--------|--------|--------|--------|--------|--------|--------|--------|
C|--------|--------|--------|--------|--------|--------|--------|--------|--------|
G|--------|--------|--------|--------|--------|--------|--------|--------|--------|
C|--------|--------|--------|--------|--------|--------|--------|--------|--------|


D|--------|--------|--------|--------|--------|--------|--------|--------|--------|
A|--------|--------|--------|--------|--------|--------|--------|--------|--------|
F|--------|--------|--------|--------|--------|--------|--------|--------|--------|
C|--------|--------|--------|--------|--------|--------|--------|--------|--------|
G|--------|--------|--------|--------|--------|--------|--------|--------|--------|
C|--------|--------|--------|--------|--------|--------|--------|--------|--------|


D|--------|--------|--------|--------|--------|--------|--------|--------|--------|
A|--------|--------|--------|--------|--------|--------|--------|--------|--------|
F|--------|--------|--------|--------|--------|--------|--------|--------|--------|
C|--------|--------|--------|--------|--------|--------|--------|--------|--------|
G|--------|--------|--------|--------|--------|--------|--------|--------|--------|
C|--------|--------|--------|--------|--------|--------|--------|--------|--------|


D|--------|--------|--------|--------|--------|--------|--------|--------|--------|
A|--------|--------|--------|--------|--------|--------|--------|--------|--------|
F|--------|--------|--------|--------|--------|--------|--------|--------|--------|
C|--------|--------|--------|--------|--------|--------|--------|--------|--------|
G|--------|--------|--------|--------|--------|--------|--------|--------|--------|
C|--------|--------|--------|--------|--------|--------|--------|--------|--------|


D|--------|--------|--------|--------|--------|--------|--------|--------|--------|
A|--------|--------|--------|--------|--------|--------|--------|--------|--------|
F|--------|--------|--------|--------|--------|--------|--------|--------|--------|
C|--------|--------|--------|--------|--------|--------|--------|--------|--------|
G|--------|--------|--------|--------|--------|--------|--------|--------|--------|
C|--------|--------|--------|--------|--------|--------|--------|--------|--------|


D|--------|--------|--------|--------|--------|--------|--------|--------|--------|
A|--------|--------|--------|--------|--------|--------|--------|--------|--------|
F|--------|--------|--------|--------|--------|--------|--------|--------|--------|
C|--------|--------|--------|--------|--------|--------|--------|--------|--------|
G|--------|--------|--------|--------|--------|--------|--------|--------|--------|
C|--------|--------|--------|--------|--------|--------|--------|--------|--------|


D|--------|--------|--------|--------|--------|--------|--------|--------|--------|
A|--------|--------|--------|--------|--------|--------|--------|--------|--------|
F|--------|--------|--------|--------|--------|--------|--------|--------|--------|
C|--------|--------|--------|--------|--------|--------|--------|--------|--------|
G|--------|--------|--------|--------|--------|--------|--------|--------|--------|
C|--------|--------|--------|--------|--------|--------|--------|--------|--------|


D|--------|--------|--------|--------|--------|--------|--------|--------|--------|
A|--------|--------|--------|--------|--------|--------|--------|--------|--------|
F|--------|--------|--------|--------|--------|--------|--------|--------|--------|
C|--------|--------|--------|--------|--------|--------|--------|--------|--------|
G|--------|--------|--------|--------|--------|--------|--------|--------|--------|
C|--------|--------|--------|--------|--------|--------|--------|--------|--------|


D|--------|--------|--------|--------|--------|--------|--------|--------|--------|
A|--------|--------|--------|--------|--------|--------|--------|--------|--------|
F|--------|--------|--------|--------|--------|--------|--------|--------|--------|
C|--------|--------|--------|--------|--------|--------|--------|--------|--------|
G|--------|--------|--------|--------|--------|--------|--------|--------|--------|
C|--------|--------|--------|--------|--------|--------|--------|--------|--------|


D|--------|--------|--------|--------|--------|--------|--------|--------|--------|
A|--------|--------|--------|--------|--------|--------|--------|--------|--------|
F|--------|--------|--------|--------|--------|--------|--------|--------|--------|
C|--------|--------|--------|--------|--------|--------|--------|--------|--------|
G|--------|--------|--------|--------|--------|--------|--------|--------|--------|
C|--------|--------|--------|--------|--------|--------|--------|--------|--------|


D|--------|--------|--------|--------|--------|--------|--------|--------|--------|
A|--------|--------|--------|--------|--------|--------|--------|--------|--------|
F|--------|--------|--------|--------|--------|--------|--------|--------|--------|
C|--------|--------|--------|--------|--------|--------|--------|--------|--------|
G|--------|--------|--------|--------|--------|--------|--------|--------|--------|
C|--------|--------|--------|--------|--------|--------|--------|--------|--------|


D|--------|--------|--------|--------|--------|--------|--------|--------|--------|
A|--------|--------|--------|--------|--------|--------|--------|--------|--------|
F|--------|--------|--------|--------|--------|--------|--------|--------|--------|
C|--------|--------|--------|--------|--------|--------|--------|--------|--------|
G|--------|--------|--------|--------|--------|--------|--------|--------|--------|
C|--------|--------|--------|--------|--------|--------|--------|--------|--------|


D|--------|--------|--------|--------|--------|--------|--------|--------|--------|
A|--------|--------|--------|--------|--------|--------|--------|--------|--------|
F|--------|--------|--------|--------|--------|--------|--------|--------|--------|
C|--------|--------|--------|--------|--------|--------|--------|--------|--------|
G|--------|--------|--------|--------|--------|--------|--------|--------|--------|
C|--------|--------|--------|--------|--------|--------|--------|--------|--------|


D|--------|--------|--------|--------|--------|--------|--------|--------|--------|
A|--------|--------|--------|--------|--------|--------|--------|--------|--------|
F|--------|--------|--------|--------|--------|--------|--------|--------|--------|
C|--------|--------|--------|--------|--------|--------|--------|--------|--------|
G|--------|--------|--------|--------|--------|--------|--------|--------|--------|
C|--------|--------|--------|--------|--------|--------|--------|--------|--------|


D|--------|--------|--------|--------|--------|--------|--------|--------|--------|
A|--------|--------|--------|--------|--------|--------|--------|--------|--------|
F|--------|--------|--------|--------|--------|--------|--------|--------|--------|
C|--------|--------|--------|--------|--------|--------|--------|--------|--------|
G|--------|--------|--------|--------|--------|--------|--------|--------|--------|
C|--------|--------|--------|--------|--------|--------|--------|--------|--------|


D|--------|--------|--------|--------|--------|--------|--------|--------|--------|
A|--------|--------|--------|--------|--------|--------|--------|--------|--------|
F|--------|--------|--------|--------|--------|--------|--------|--------|--------|
C|--------|--------|--------|--------|--------|--------|--------|--------|--------|
G|--------|--------|--------|--------|--------|--------|--------|--------|--------|
C|--------|--------|--------|--------|--------|--------|--------|--------|--------|


D|--------|--------|--------|--------|--------|--------|--------|--------|--------|
A|--------|--------|--------|--------|--------|--------|--------|--------|--------|
F|--------|--------|--------|--------|--------|--------|--------|--------|--------|
C|--------|--------|--------|--------|--------|--------|--------|--------|--------|
G|--------|--------|--------|--------|--------|--------|--------|--------|--------|
C|--------|--------|--------|--------|--------|--------|--------|--------|--------|


D|--------|--------|--------|--------|--------|--------|--------|
A|--------|--------|--------|--------|--------|--------|--------|
F|--------|--------|--------|--------|--------|--------|--------|
C|--------|--------|--------|--------|--------|--------|--------|
G|--------|--------|--------|--------|--------|--------|--------|
C|--------|--------|--------|--------|--------|--------|--------|





Track 9: rythem

D|--------|--------|--------|--------|--------|--------|--------|--------|--------|
A|--------|--------|--------|--------|--------|--------|--------|--------|--------|
F|--------|--------|--------|--------|--------|--------|--------|--------|--------|
C|--------|--------|--------|--------|--------|--------|--------|--------|--------|
G|--------|--------|--------|--------|--------|--------|--------|--------|--------|
C|--------|--------|--------|--------|--------|--------|--------|--------|--------|


D|--------|--------|--------|--------|--------|--------|--------|--------|--------|
A|--------|--------|--------|--------|--------|--------|--------|--------|--------|
F|--------|--------|--------|--------|--------|--------|--------|--------|--------|
C|--------|--------|--------|--------|--------|--------|--------|--------|--------|
G|--------|--------|--------|--------|--------|--------|--------|--------|--------|
C|--------|--------|--------|--------|--------|--------|--------|--------|--------|


D|--------|--------|--------|--------|--------|--------|--------|--------|--------|
A|--------|--------|--------|--------|--------|--------|--------|--------|--------|
F|--------|--------|--------|--------|--------|--------|--------|--------|--------|
C|--------|--------|--------|--------|--------|--------|--------|--------|--------|
G|--------|--------|--------|--------|--------|--------|--------|--------|--------|
C|--------|--------|--------|--------|--------|--------|--------|--------|--------|


D|--------|--------|--------|--------|--------|--------|--------|--------|--------|
A|--------|--------|--------|--------|--------|--------|--------|--------|--------|
F|--------|--------|--------|--------|--------|--------|--------|--------|--------|
C|--------|--------|--------|--------|--------|--------|--------|--------|--------|
G|--------|--------|--------|--------|--------|--------|--------|--------|--------|
C|--------|--------|--------|--------|--------|--------|--------|--------|--------|


D|--------|--------|--------|--------|--------|--------|--------|--------|--------|
A|--------|--------|--------|--------|--------|--------|--------|--------|--------|
F|--------|--------|--------|--------|--------|--------|--------|--------|--------|
C|--------|--------|--------|--------|--------|--------|--------|--------|--------|
G|--------|--------|--------|--------|--------|--------|--------|--------|--------|
C|--------|--------|--------|--------|--------|--------|--------|--------|--------|


D|--------|--------|--------|--------|--------|--------|--------|--------|--------|
A|--------|--------|--------|--------|--------|--------|--------|--------|--------|
F|--------|--------|--------|--------|--------|--------|--------|--------|--------|
C|--------|--------|--------|--------|--------|--------|--------|--------|--------|
G|--------|--------|--------|--------|--------|--------|--------|--------|--------|
C|--------|--------|--------|--------|--------|--------|--------|--------|--------|


D|--------|--------|--------|--------|--------|--------|--------|--------|--------|
A|--------|--------|--------|--------|--------|--------|--------|--------|--------|
F|--------|--------|--------|--------|--------|--------|--------|--------|--------|
C|--------|--------|--------|--------|--------|--------|--------|--------|--------|
G|--------|--------|--------|--------|--------|--------|--------|--------|--------|
C|--------|--------|--------|--------|--------|--------|--------|--------|--------|


D|--------|--------|--------|--------|--------|--------|--------|--------|--------|
A|--------|--------|--------|--------|--------|--------|--------|--------|--------|
F|--------|--------|--------|--------|--------|--------|--------|--------|--------|
C|--------|--------|--------|--------|--------|--------|--------|--------|--------|
G|--------|--------|--------|--------|--------|--------|--------|--------|--------|
C|--------|--------|--------|--------|--------|--------|--------|--------|--------|


D|--------|--------|--------|--------|--------|--------|--------|--------|--------|
A|--------|--------|--------|--------|--------|--------|--------|--------|--------|
F|--------|--------|--------|--------|--------|--------|--------|--------|--------|
C|--------|--------|--------|--------|--------|--------|--------|--------|--------|
G|--------|--------|--------|--------|--------|--------|--------|--------|--------|
C|--------|--------|--------|--------|--------|--------|--------|--------|--------|


D|--------|--------|--------|--------|--------|--------|--------|--------|--------|
A|--------|--------|--------|--------|--------|--------|--------|--------|--------|
F|--------|--------|--------|--------|--------|--------|--------|--------|--------|
C|--------|--------|--------|--------|--------|--------|--------|--------|--------|
G|--------|--------|--------|--------|--------|--------|--------|--------|--------|
C|--------|--------|--------|--------|--------|--------|--------|--------|--------|


D|--------|--------|--------|--------|--------|--------|--------|--------|--------|
A|--------|--------|--------|--------|--------|--------|--------|--------|--------|
F|--------|--------|-8------|-8------|-0------|-0------|-8------|-8------|-0------|
C|--------|--------|--------|--------|--------|--------|--------|--------|--------|
G|--------|--------|--------|--------|--------|--------|--------|--------|--------|
C|--------|--------|--------|--------|--------|--------|--------|--------|--------|


D|--------|--------|--------|--------|--------|--------|--------|--------|--------|
A|--------|--------|--------|--------|--------|--------|--------|--------|--------|
F|-0------|--------|--------|--------|--------|--------|--------|--------|--------|
C|--------|--------|--------|--------|--------|--------|--------|--------|--------|
G|--------|--------|--------|--------|--------|--------|--------|--------|--------|
C|--------|--------|--------|--------|--------|--------|--------|--------|--------|


D|--------|--------|--------|--------|--------|--------|--------|--------|--------|
A|--------|--------|--------|--------|--------|--------|--------|--------|--------|
F|--------|--------|--------|--------|--------|--------|--------|--------|--------|
C|--------|--------|--------|--------|--------|--------|--------|--------|--------|
G|--------|--------|--------|--------|--------|--------|--------|--------|--------|
C|--------|--------|--------|--------|--------|--------|--------|--------|--------|


D|--------|--------|--------|--------|--------|--------|--------|--------|--------|
A|--------|--------|--------|--------|--------|--------|--------|--------|--------|
F|--------|--------|--------|--------|--------|--------|--------|--------|--------|
C|--------|--------|--------|--------|--------|--------|--------|--------|--------|
G|--------|--------|--------|--------|--------|--------|--------|--------|--------|
C|--------|--------|--------|--------|--------|--------|--------|--------|--------|


D|--------|--------|--------|--------|--------|--------|--------|--------|--------|
A|--------|--------|--------|--------|--------|--------|--------|--------|--------|
F|--------|--------|--------|--------|--------|--------|--------|--------|--------|
C|--------|--------|--------|--------|--------|--------|--------|--------|--------|
G|--------|--------|--------|--------|--------|--------|--------|--------|--------|
C|--------|--------|--------|--------|--------|--------|--------|--------|--------|


D|--------|--------|--------|--------|--------|--------|--------|--------|--------|
A|--------|--------|--------|--------|--------|--------|--------|--------|--------|
F|--------|--------|--------|--------|--------|--------|--------|--------|--------|
C|--------|--------|--------|--------|--------|--------|--------|--------|--------|
G|--------|--------|--------|--------|--------|--------|--------|--------|--------|
C|--------|--------|--------|--------|--------|--------|--------|--------|--------|


D|--------|--------|--------|--------|--------|--------|--------|--------|--------|
A|--------|--------|--------|--------|--------|--------|--------|--------|--------|
F|--------|--------|--------|--------|--------|--------|--------|--------|--------|
C|--------|--------|--------|--------|--------|--------|--------|--------|--------|
G|--------|--------|--------|--------|--------|--------|--------|--------|--------|
C|--------|--------|--------|--------|--------|--------|--------|--------|--------|


D|--------|--------|--------|--------|--------|--------|--------|--------|--------|
A|--------|--------|--------|--------|--------|--------|--------|--------|--------|
F|--------|--------|--------|--------|--------|--------|--------|--------|--------|
C|--------|--------|--------|--------|--------|--------|--------|--------|--------|
G|--------|--------|--------|--------|--------|--------|--------|--------|--------|
C|--------|--------|--------|--------|--------|--------|--------|--------|--------|


D|--------|--------|--------|--------|--------|--------|--------|--------|--------|
A|--------|--------|--------|--------|--------|--------|--------|--------|--------|
F|--------|--------|--------|--------|--------|--------|--------|--------|--------|
C|--------|--------|--------|--------|--------|--------|--------|--------|--------|
G|--------|--------|--------|--------|--------|--------|--------|--------|--------|
C|--------|--------|--------|--------|--------|--------|--------|--------|--------|


D|--------|--------|--------|--------|--------|--------|--------|--------|--------|
A|--------|--------|--------|--------|--------|--------|--------|--------|--------|
F|--------|--------|--------|--------|--------|--------|--------|--------|--------|
C|--------|--------|--------|--------|--------|--------|--------|--------|--------|
G|--------|--------|--------|--------|--------|--------|--------|--------|--------|
C|--------|--------|--------|--------|--------|--------|--------|--------|--------|


D|--------|--------|--------|--------|--------|--------|--------|--------|--------|
A|--------|--------|--------|--------|--------|--------|--------|--------|--------|
F|--------|--------|--------|--------|--------|--------|--------|--------|--------|
C|--------|--------|--------|--------|--------|--------|--------|--------|--------|
G|--------|--------|--------|--------|--------|--------|--------|--------|--------|
C|--------|--------|--------|--------|--------|--------|--------|--------|--------|


D|--------|--------|--------|--------|--------|--------|--------|--------|--------|
A|--------|--------|--------|--------|--------|--------|--------|--------|--------|
F|--------|--------|--------|--------|--------|--------|--------|--------|--------|
C|--------|--------|--------|--------|--------|--------|--------|--------|--------|
G|--------|--------|--------|--------|--------|--------|--------|--------|--------|
C|--------|--------|--------|--------|--------|--------|--------|--------|--------|


D|--------|--------|--------|--------|--------|--------|--------|--------|--------|
A|--------|--------|--------|--------|--------|--------|--------|--------|--------|
F|--------|--------|--------|--------|--------|--------|--------|--------|--------|
C|--------|--------|--------|--------|--------|--------|--------|--------|--------|
G|--------|--------|--------|--------|--------|--------|--------|--------|--------|
C|--------|--------|--------|--------|--------|--------|--------|--------|--------|


D|--------|--------|--------|--------|--------|--------|--------|--------|--------|
A|--------|--------|--------|--------|--------|--------|--------|--------|--------|
F|--------|--------|--------|--------|--------|--------|--------|--------|--------|
C|--------|--------|--------|--------|--------|--------|--------|--------|--------|
G|--------|--------|--------|--------|--------|--------|--------|--------|--------|
C|--------|--------|--------|--------|--------|--------|--------|--------|--------|


D|--------|--------|--------|--------|--------|--------|--------|--------|--------|
A|--------|--------|--------|--------|--------|--------|--------|--------|--------|
F|--------|--------|--------|--------|--------|--------|--------|--------|--------|
C|--------|--------|--------|--------|--------|--------|--------|--------|--------|
G|--------|--------|--------|--------|--------|--------|--------|--------|--------|
C|--------|--------|--------|--------|--------|--------|--------|--------|--------|


D|--------|--------|--------|--------|--------|--------|--------|--------|--------|
A|--------|--------|--------|--------|--------|--------|--------|--------|--------|
F|--------|--------|--------|--------|--------|--------|--------|--------|--------|
C|--------|--------|--------|--------|--------|--------|--------|--------|--------|
G|--------|--------|--------|--------|--------|--------|--------|--------|--------|
C|--------|--------|--------|--------|--------|--------|--------|--------|--------|


D|--------|--------|--------|--------|--------|--------|--------|--------|--------|
A|--------|--------|--------|--------|--------|--------|--------|--------|--------|
F|--------|--------|--------|--------|--------|--------|--------|--------|--------|
C|--------|--------|--------|--------|--------|--------|--------|--------|--------|
G|--------|--------|--------|--------|--------|--------|--------|--------|--------|
C|--------|--------|--------|--------|--------|--------|--------|--------|--------|


D|--------|--------|--------|--------|--------|--------|--------|--------|--------|
A|--------|--------|--------|--------|--------|--------|--------|--------|--------|
F|--------|--------|--------|--------|--------|--------|--------|--------|--------|
C|--------|--------|--------|--------|--------|--------|--------|--------|--------|
G|--------|--------|--------|--------|--------|--------|--------|--------|--------|
C|--------|--------|--------|--------|--------|--------|--------|--------|--------|


D|--------|--------|--------|--------|--------|--------|--------|--------|--------|
A|--------|--------|--------|--------|--------|--------|--------|--------|--------|
F|--------|--------|--------|--------|--------|--------|--------|--------|--------|
C|--------|--------|--------|--------|--------|--------|--------|--------|--------|
G|--------|--------|--------|--------|--------|--------|--------|--------|--------|
C|--------|--------|--------|--------|--------|--------|--------|--------|--------|





Track 10: rythem

D|--------|--------|--------|--------|--------|--------|--------|--------|--------|
A|--------|--------|--------|--------|--------|--------|--------|--------|--------|
F|--------|--------|--------|--------|--------|--------|--------|--------|--------|
C|--------|--------|--------|--------|--------|--------|--------|--------|--------|
G|--------|--------|--------|--------|--------|--------|--------|--------|--------|
C|--------|--------|--------|--------|--------|--------|--------|--------|--------|


D|--------|--------|--------|--------|--------|--------|--------|--------|--------|
A|--------|--------|--------|--------|--------|--------|--------|--------|--------|
F|--------|--------|--------|--------|--------|--------|--------|--------|--------|
C|--------|--------|--------|--------|--------|--------|--------|--------|--------|
G|--------|--------|--------|--------|--------|--------|--------|--------|--------|
C|--------|--------|--------|--------|--------|--------|--------|--------|--------|


D|--------|--------|--------|--------|--------|--------|--------|--------|--------|
A|--------|--------|--------|--------|--------|--------|--------|--------|--------|
F|--------|--------|--------|--------|--------|--------|--------|--------|--------|
C|--------|--------|--------|--------|--------|--------|--------|--------|--------|
G|--------|--------|--------|--------|--------|--------|--------|--------|--------|
C|--------|--------|--------|--------|--------|--------|--------|--------|--------|


D|--------|--------|--------|--------|--------|--------|--------|--------|--------|
A|--------|--------|--------|--------|--------|--------|--------|--------|--------|
F|--------|--------|--------|--------|--------|--------|--------|--------|--------|
C|--------|--------|--------|--------|--------|--------|--------|--------|--------|
G|--------|--------|--------|--------|--------|--------|--------|--------|--------|
C|--------|--------|--------|--------|--------|--------|--------|--------|--------|


D|--------|--------|--------|--------|--------|--------|--------|--------|--------|
A|--------|--------|--------|--------|--------|--------|--------|--------|--------|
F|--------|--------|--------|--------|--------|--------|--------|--------|--------|
C|--------|--------|--------|--------|--------|--------|--------|--------|--------|
G|--------|--------|--------|--------|--------|--------|--------|--------|--------|
C|--------|--------|--------|--------|--------|--------|--------|--------|--------|


D|--------|--------|--------|--------|--------|--------|--------|--------|--------|
A|--------|--------|--------|--------|--------|--------|--------|--------|--------|
F|--------|--------|--------|--------|--------|--------|--------|--------|--------|
C|--------|--------|--------|--------|--------|--------|--------|--------|--------|
G|--------|--------|--------|--------|--------|--------|--------|--------|--------|
C|--------|--------|--------|--------|--------|--------|--------|--------|--------|


D|--------|--------|--------|--------|--------|--------|--------|--------|--------|
A|--------|--------|--------|--------|--------|--------|--------|--------|--------|
F|--------|--------|--------|--------|--------|--------|--------|--------|--------|
C|--------|--------|--------|--------|--------|--------|--------|--------|--------|
G|--------|--------|--------|--------|--------|--------|--------|--------|--------|
C|--------|--------|--------|--------|--------|--------|--------|--------|--------|


D|--------|--------|--------|--------|--------|--------|--------|--------|--------|
A|--------|--------|--------|--------|--------|--------|--------|--------|--------|
F|--------|--------|--------|--------|--------|--------|--------|--------|--------|
C|--------|--------|--------|--------|--------|--------|--------|--------|--------|
G|--------|--------|--------|--------|--------|--------|--------|--------|--------|
C|--------|--------|--------|--------|--------|--------|--------|--------|--------|


D|--------|--------|--------|--------|--------|--------|--------|--------|--------|
A|--------|--------|--------|--------|--------|--------|--------|--------|--------|
F|--------|--------|--------|--------|--------|--------|--------|--------|--------|
C|--------|--------|--------|--------|--------|--------|--------|--------|--------|
G|--------|--------|--------|--------|--------|--------|--------|--------|--------|
C|--------|--------|--------|--------|--------|--------|--------|--------|--------|


D|--------|--------|--------|--------|--------|--------|--------|--------|--------|
A|--------|--------|--------|--------|--------|--------|--------|--------|--------|
F|--------|--------|--------|--------|--------|--------|--------|--------|--------|
C|--------|--------|--------|--------|--------|--------|--------|--------|--------|
G|--------|--------|--------|--------|--------|--------|--------|--------|--------|
C|--------|--------|--------|--------|--------|--------|--------|--------|--------|


D|--------|--------|--------|--------|--------|--------|--------|--------|--------|
A|--------|--------|--------|--------|--------|--------|--------|--------|--------|
F|--------|--------|--------|--------|--------|--------|--------|--------|--------|
C|--------|--------|--------|--------|--------|--------|--------|--------|--------|
G|--------|--------|--------|--------|--------|--------|--------|--------|--------|
C|--------|--------|--------|--------|--------|--------|--------|--------|--------|


D|--------|--------|--------|--------|--------|--------|--------|--------|--------|
A|--------|--------|--------|--------|--------|--------|--------|--------|--------|
F|--------|--------|--------|--------|--------|--------|--------|--------|--------|
C|--------|--------|--------|--------|--------|--------|--------|--------|--------|
G|--------|--------|--------|--------|--------|--------|--------|--------|--------|
C|--------|--------|--------|--------|--------|--------|--------|--------|--------|


D|-------------|-------------|--------|--------|--------|--------|--------|--------|
A|-------------|-------------|--------|--------|--------|--------|--------|--------|
F|-------------|-------------|--------|--------|--------|--------|--------|--------|
C|-3-----------|-3-----------|-7------|-7------|--------|--------|--------|--------|
G|-------------|-------------|--------|--------|--------|--------|--------|--------|
C|-------------|-------------|--------|--------|--------|--------|--------|--------|


D|--------|--------|--------|--------|--------|--------|--------|--------|--------|
A|--------|--------|--------|--------|--------|--------|--------|--------|--------|
F|--------|--------|--------|--------|--------|--------|--------|--------|--------|
C|--------|--------|--------|--------|--------|--------|--------|--------|--------|
G|--------|--------|--------|--------|--------|--------|--------|--------|--------|
C|--------|--------|--------|--------|--------|--------|--------|--------|--------|


D|--------|--------|--------|--------|--------|--------|--------|--------|--------|
A|--------|--------|--------|--------|--------|--------|--------|--------|--------|
F|--------|--------|--------|--------|--------|--------|--------|--------|--------|
C|--------|--------|--------|--------|--------|--------|--------|--------|--------|
G|--------|--------|--------|--------|--------|--------|--------|--------|--------|
C|--------|--------|--------|--------|--------|--------|--------|--------|--------|


D|--------|--------|--------|--------|--------|--------|--------|--------|--------|
A|--------|--------|--------|--------|--------|--------|--------|--------|--------|
F|--------|--------|--------|--------|--------|--------|--------|--------|--------|
C|--------|--------|--------|--------|--------|--------|--------|--------|--------|
G|--------|--------|--------|--------|--------|--------|--------|--------|--------|
C|--------|--------|--------|--------|--------|--------|--------|--------|--------|


D|--------|--------|--------|--------|--------|--------|--------|--------|--------|
A|--------|--------|--------|--------|--------|--------|--------|--------|--------|
F|--------|--------|--------|--------|--------|--------|--------|--------|--------|
C|--------|--------|--------|--------|--------|--------|--------|--------|--------|
G|--------|--------|--------|--------|--------|--------|--------|--------|--------|
C|--------|--------|--------|--------|--------|--------|--------|--------|--------|


D|--------|--------|--------|--------|--------|--------|--------|--------|--------|
A|--------|--------|--------|--------|--------|--------|--------|--------|--------|
F|--------|--------|--------|--------|--------|--------|--------|--------|--------|
C|--------|--------|--------|--------|--------|--------|--------|--------|--------|
G|--------|--------|--------|--------|--------|--------|--------|--------|--------|
C|--------|--------|--------|--------|--------|--------|--------|--------|--------|


D|--------|--------|--------|--------|--------|--------|--------|--------|--------|
A|--------|--------|--------|--------|--------|--------|--------|--------|--------|
F|--------|--------|--------|--------|--------|--------|--------|--------|--------|
C|--------|--------|--------|--------|--------|--------|--------|--------|--------|
G|--------|--------|--------|--------|--------|--------|--------|--------|--------|
C|--------|--------|--------|--------|--------|--------|--------|--------|--------|


D|--------|--------|--------|--------|--------|--------|--------|--------|--------|
A|--------|--------|--------|--------|--------|--------|--------|--------|--------|
F|--------|--------|--------|--------|--------|--------|--------|--------|--------|
C|--------|--------|--------|--------|--------|--------|--------|--------|--------|
G|--------|--------|--------|--------|--------|--------|--------|--------|--------|
C|--------|--------|--------|--------|--------|--------|--------|--------|--------|


D|--------|--------|--------|--------|--------|--------|--------|--------|--------|
A|--------|--------|--------|--------|--------|--------|--------|--------|--------|
F|--------|--------|--------|--------|--------|--------|--------|--------|--------|
C|--------|--------|--------|--------|--------|--------|--------|--------|--------|
G|--------|--------|--------|--------|--------|--------|--------|--------|--------|
C|--------|--------|--------|--------|--------|--------|--------|--------|--------|


D|--------|--------|--------|--------|--------|--------|--------|--------|--------|
A|--------|--------|--------|--------|--------|--------|--------|--------|--------|
F|--------|--------|--------|--------|--------|--------|--------|--------|--------|
C|--------|--------|--------|--------|--------|--------|--------|--------|--------|
G|--------|--------|--------|--------|--------|--------|--------|--------|--------|
C|--------|--------|--------|--------|--------|--------|--------|--------|--------|


D|--------|--------|--------|--------|--------|--------|--------|--------|--------|
A|--------|--------|--------|--------|--------|--------|--------|--------|--------|
F|--------|--------|--------|--------|--------|--------|--------|--------|--------|
C|--------|--------|--------|--------|--------|--------|--------|--------|--------|
G|--------|--------|--------|--------|--------|--------|--------|--------|--------|
C|--------|--------|--------|--------|--------|--------|--------|--------|--------|


D|--------|--------|--------|--------|--------|--------|--------|--------|--------|
A|--------|--------|--------|--------|--------|--------|--------|--------|--------|
F|--------|--------|--------|--------|--------|--------|--------|--------|--------|
C|--------|--------|--------|--------|--------|--------|--------|--------|--------|
G|--------|--------|--------|--------|--------|--------|--------|--------|--------|
C|--------|--------|--------|--------|--------|--------|--------|--------|--------|


D|--------|--------|--------|--------|--------|--------|--------|--------|--------|
A|--------|--------|--------|--------|--------|--------|--------|--------|--------|
F|--------|--------|--------|--------|--------|--------|--------|--------|--------|
C|--------|--------|--------|--------|--------|--------|--------|--------|--------|
G|--------|--------|--------|--------|--------|--------|--------|--------|--------|
C|--------|--------|--------|--------|--------|--------|--------|--------|--------|


D|--------|--------|--------|--------|--------|--------|--------|--------|--------|
A|--------|--------|--------|--------|--------|--------|--------|--------|--------|
F|--------|--------|--------|--------|--------|--------|--------|--------|--------|
C|--------|--------|--------|--------|--------|--------|--------|--------|--------|
G|--------|--------|--------|--------|--------|--------|--------|--------|--------|
C|--------|--------|--------|--------|--------|--------|--------|--------|--------|


D|--------|--------|--------|--------|--------|--------|--------|--------|--------|
A|--------|--------|--------|--------|--------|--------|--------|--------|--------|
F|--------|--------|--------|--------|--------|--------|--------|--------|--------|
C|--------|--------|--------|--------|--------|--------|--------|--------|--------|
G|--------|--------|--------|--------|--------|--------|--------|--------|--------|
C|--------|--------|--------|--------|--------|--------|--------|--------|--------|


D|--------|--------|--------|--------|--------|--------|--------|--------|--------|
A|--------|--------|--------|--------|--------|--------|--------|--------|--------|
F|--------|--------|--------|--------|--------|--------|--------|--------|--------|
C|--------|--------|--------|--------|--------|--------|--------|--------|--------|
G|--------|--------|--------|--------|--------|--------|--------|--------|--------|
C|--------|--------|--------|--------|--------|--------|--------|--------|--------|


D|--------|--------|--------|--------|--------|--------|--------|--------|--------|
A|--------|--------|--------|--------|--------|--------|--------|--------|--------|
F|--------|--------|--------|--------|--------|--------|--------|--------|--------|
C|--------|--------|--------|--------|--------|--------|--------|--------|--------|
G|--------|--------|--------|--------|--------|--------|--------|--------|--------|
C|--------|--------|--------|--------|--------|--------|--------|--------|--------|


D|--------|
A|--------|
F|--------|
C|--------|
G|--------|
C|--------|





Track 11: rythem

D|--------|--------|--------|--------|--------|--------|--------|--------|--------|
A|--------|--------|--------|--------|--------|--------|--------|--------|--------|
F|--------|--------|--------|--------|--------|--------|--------|--------|--------|
C|--------|--------|--------|--------|--------|--------|--------|--------|--------|
G|--------|--------|--------|--------|--------|--------|--------|--------|--------|
C|--------|--------|--------|--------|--------|--------|--------|--------|--------|


D|--------|--------|--------|--------|--------|--------|--------|--------|--------|
A|--------|--------|--------|--------|--------|--------|--------|--------|--------|
F|--------|--------|--------|--------|--------|--------|--------|--------|--------|
C|--------|--------|--------|--------|--------|--------|--------|--------|--------|
G|--------|--------|--------|--------|--------|--------|--------|--------|--------|
C|--------|--------|--------|--------|--------|--------|--------|--------|--------|


D|--------|--------|--------|--------|--------|--------|--------|--------|--------|
A|--------|--------|--------|--------|--------|--------|--------|--------|--------|
F|--------|--------|--------|--------|--------|--------|--------|--------|--------|
C|--------|--------|--------|--------|--------|--------|--------|--------|--------|
G|--------|--------|--------|--------|--------|--------|--------|--------|--------|
C|--------|--------|--------|--------|--------|--------|--------|--------|--------|


D|--------|--------|--------|--------|--------|--------|--------|--------|--------|
A|--------|--------|--------|--------|--------|--------|--------|--------|--------|
F|--------|--------|--------|--------|--------|--------|--------|--------|--------|
C|--------|--------|--------|--------|--------|--------|--------|--------|--------|
G|--------|--------|--------|--------|--------|--------|--------|--------|--------|
C|--------|--------|--------|--------|--------|--------|--------|--------|--------|


D|--------|--------|--------|--------|--------|--------|--------|--------|--------|
A|--------|--------|--------|--------|--------|--------|--------|--------|--------|
F|--------|--------|--------|--------|--------|--------|--------|--------|--------|
C|--------|--------|--------|--------|--------|--------|--------|--------|--------|
G|--------|--------|--------|--------|--------|--------|--------|--------|--------|
C|--------|--------|--------|--------|--------|--------|--------|--------|--------|


D|--------|--------|--------|--------|--------|--------|--------|--------|--------|
A|--------|--------|--------|--------|--------|--------|--------|--------|--------|
F|--------|--------|--------|--------|--------|--------|--------|--------|--------|
C|--------|--------|--------|--------|--------|--------|--------|--------|--------|
G|--------|--------|--------|--------|--------|--------|--------|--------|--------|
C|--------|--------|--------|--------|--------|--------|--------|--------|--------|


D|--------|--------|--------|--------|--------|--------|--------|--------|--------|
A|--------|--------|--------|--------|--------|--------|--------|--------|--------|
F|--------|--------|--------|--------|--------|--------|--------|--------|--------|
C|--------|--------|--------|--------|--------|--------|--------|--------|--------|
G|--------|--------|--------|--------|--------|--------|--------|--------|--------|
C|--------|--------|--------|--------|--------|--------|--------|--------|--------|


D|--------|--------|--------|--------|--------|--------|--------|--------|--------|
A|--------|--------|--------|--------|--------|--------|--------|--------|--------|
F|--------|--------|--------|--------|--------|--------|--------|--------|--------|
C|--------|--------|--------|--------|--------|--------|--------|--------|--------|
G|--------|--------|--------|--------|--------|--------|--------|--------|--------|
C|--------|--------|--------|--------|--------|--------|--------|--------|--------|


D|--------|--------|--------|--------|--------|--------|--------|--------|--------|
A|--------|--------|--------|--------|--------|--------|--------|--------|--------|
F|--------|--------|--------|--------|--------|--------|--------|--------|--------|
C|--------|--------|--------|--------|--------|--------|--------|--------|--------|
G|--------|--------|--------|--------|--------|--------|--------|--------|--------|
C|--------|--------|--------|--------|--------|--------|--------|--------|--------|


D|--------|--------|--------|--------|--------|--------|--------|--------|--------|
A|--------|--------|--------|--------|--------|--------|--------|--------|--------|
F|--------|--------|--------|--------|--------|--------|--------|--------|--------|
C|--------|--------|--------|--------|--------|--------|--------|--------|--------|
G|--------|--------|--------|--------|--------|--------|--------|--------|--------|
C|--------|--------|--------|--------|--------|--------|--------|--------|--------|


D|--------|--------|--------|--------|--------|--------|--------|--------|--------|
A|--------|--------|--------|--------|--------|--------|--------|--------|--------|
F|--------|--------|--------|--------|--------|--------|--------|--------|--------|
C|--------|--------|--------|--------|--------|--------|--------|--------|--------|
G|--------|--------|--------|--------|--------|--------|--------|--------|--------|
C|--------|--------|--------|--------|--------|--------|--------|--------|--------|


D|--------|--------|--------|--------|--------|--------|--------|--------|--------|
A|--------|--------|--------|--------|--------|--------|--------|--------|--------|
F|--------|--------|--------|--------|--------|--------|--------|--------|--------|
C|--------|--------|--------|--------|--------|--------|--------|--------|--------|
G|--------|--------|--------|--------|--------|--------|--------|--------|--------|
C|--------|--------|--------|--------|--------|--------|--------|--------|--------|


D|--------|--------|--------|--------|-------------|-------------|--------|--------|
A|--------|--------|--------|--------|-------------|-------------|--------|--------|
F|--------|--------|--------|--------|-------------|-------------|--------|--------|
C|--------|--------|--------|--------|-3-----------|-3-----------|-7------|-7------|
G|--------|--------|--------|--------|-------------|-------------|--------|--------|
C|--------|--------|--------|--------|-------------|-------------|--------|--------|


D|--------|--------|--------|--------|--------|--------|--------|--------|--------|
A|--------|--------|--------|--------|--------|--------|--------|--------|--------|
F|--------|--------|--------|--------|--------|--------|--------|--------|--------|
C|--------|--------|--------|--------|--------|--------|--------|--------|--------|
G|--------|--------|--------|--------|--------|--------|--------|--------|--------|
C|--------|--------|--------|--------|--------|--------|--------|--------|--------|


D|--------|--------|--------|--------|--------|--------|--------|--------|--------|
A|--------|--------|--------|--------|--------|--------|--------|--------|--------|
F|--------|--------|--------|--------|--------|--------|--------|--------|--------|
C|--------|--------|--------|--------|--------|--------|--------|--------|--------|
G|--------|--------|--------|--------|--------|--------|--------|--------|--------|
C|--------|--------|--------|--------|--------|--------|--------|--------|--------|


D|--------|--------|--------|--------|--------|--------|--------|--------|--------|
A|--------|--------|--------|--------|--------|--------|--------|--------|--------|
F|--------|--------|--------|--------|--------|--------|--------|--------|--------|
C|--------|--------|--------|--------|--------|--------|--------|--------|--------|
G|--------|--------|--------|--------|--------|--------|--------|--------|--------|
C|--------|--------|--------|--------|--------|--------|--------|--------|--------|


D|--------|--------|--------|--------|--------|--------|--------|--------|--------|
A|--------|--------|--------|--------|--------|--------|--------|--------|--------|
F|--------|--------|--------|--------|--------|--------|--------|--------|--------|
C|--------|--------|--------|--------|--------|--------|--------|--------|--------|
G|--------|--------|--------|--------|--------|--------|--------|--------|--------|
C|--------|--------|--------|--------|--------|--------|--------|--------|--------|


D|--------|--------|--------|--------|--------|--------|--------|--------|--------|
A|--------|--------|--------|--------|--------|--------|--------|--------|--------|
F|--------|--------|--------|--------|--------|--------|--------|--------|--------|
C|--------|--------|--------|--------|--------|--------|--------|--------|--------|
G|--------|--------|--------|--------|--------|--------|--------|--------|--------|
C|--------|--------|--------|--------|--------|--------|--------|--------|--------|


D|--------|--------|--------|--------|--------|--------|--------|--------|--------|
A|--------|--------|--------|--------|--------|--------|--------|--------|--------|
F|--------|--------|--------|--------|--------|--------|--------|--------|--------|
C|--------|--------|--------|--------|--------|--------|--------|--------|--------|
G|--------|--------|--------|--------|--------|--------|--------|--------|--------|
C|--------|--------|--------|--------|--------|--------|--------|--------|--------|


D|--------|--------|--------|--------|--------|--------|--------|--------|--------|
A|--------|--------|--------|--------|--------|--------|--------|--------|--------|
F|--------|--------|--------|--------|--------|--------|--------|--------|--------|
C|--------|--------|--------|--------|--------|--------|--------|--------|--------|
G|--------|--------|--------|--------|--------|--------|--------|--------|--------|
C|--------|--------|--------|--------|--------|--------|--------|--------|--------|


D|--------|--------|--------|--------|--------|--------|--------|--------|--------|
A|--------|--------|--------|--------|--------|--------|--------|--------|--------|
F|--------|--------|--------|--------|--------|--------|--------|--------|--------|
C|--------|--------|--------|--------|--------|--------|--------|--------|--------|
G|--------|--------|--------|--------|--------|--------|--------|--------|--------|
C|--------|--------|--------|--------|--------|--------|--------|--------|--------|


D|--------|--------|--------|--------|--------|--------|--------|--------|--------|
A|--------|--------|--------|--------|--------|--------|--------|--------|--------|
F|--------|--------|--------|--------|--------|--------|--------|--------|--------|
C|--------|--------|--------|--------|--------|--------|--------|--------|--------|
G|--------|--------|--------|--------|--------|--------|--------|--------|--------|
C|--------|--------|--------|--------|--------|--------|--------|--------|--------|


D|--------|--------|--------|--------|--------|--------|--------|--------|--------|
A|--------|--------|--------|--------|--------|--------|--------|--------|--------|
F|--------|--------|--------|--------|--------|--------|--------|--------|--------|
C|--------|--------|--------|--------|--------|--------|--------|--------|--------|
G|--------|--------|--------|--------|--------|--------|--------|--------|--------|
C|--------|--------|--------|--------|--------|--------|--------|--------|--------|


D|--------|--------|--------|--------|--------|--------|--------|--------|--------|
A|--------|--------|--------|--------|--------|--------|--------|--------|--------|
F|--------|--------|--------|--------|--------|--------|--------|--------|--------|
C|--------|--------|--------|--------|--------|--------|--------|--------|--------|
G|--------|--------|--------|--------|--------|--------|--------|--------|--------|
C|--------|--------|--------|--------|--------|--------|--------|--------|--------|


D|--------|--------|--------|--------|--------|--------|--------|--------|--------|
A|--------|--------|--------|--------|--------|--------|--------|--------|--------|
F|--------|--------|--------|--------|--------|--------|--------|--------|--------|
C|--------|--------|--------|--------|--------|--------|--------|--------|--------|
G|--------|--------|--------|--------|--------|--------|--------|--------|--------|
C|--------|--------|--------|--------|--------|--------|--------|--------|--------|


D|--------|--------|--------|--------|--------|--------|--------|--------|--------|
A|--------|--------|--------|--------|--------|--------|--------|--------|--------|
F|--------|--------|--------|--------|--------|--------|--------|--------|--------|
C|--------|--------|--------|--------|--------|--------|--------|--------|--------|
G|--------|--------|--------|--------|--------|--------|--------|--------|--------|
C|--------|--------|--------|--------|--------|--------|--------|--------|--------|


D|--------|--------|--------|--------|--------|--------|--------|--------|--------|
A|--------|--------|--------|--------|--------|--------|--------|--------|--------|
F|--------|--------|--------|--------|--------|--------|--------|--------|--------|
C|--------|--------|--------|--------|--------|--------|--------|--------|--------|
G|--------|--------|--------|--------|--------|--------|--------|--------|--------|
C|--------|--------|--------|--------|--------|--------|--------|--------|--------|


D|--------|--------|--------|--------|--------|--------|--------|--------|--------|
A|--------|--------|--------|--------|--------|--------|--------|--------|--------|
F|--------|--------|--------|--------|--------|--------|--------|--------|--------|
C|--------|--------|--------|--------|--------|--------|--------|--------|--------|
G|--------|--------|--------|--------|--------|--------|--------|--------|--------|
C|--------|--------|--------|--------|--------|--------|--------|--------|--------|


D|--------|--------|--------|--------|--------|--------|--------|--------|--------|
A|--------|--------|--------|--------|--------|--------|--------|--------|--------|
F|--------|--------|--------|--------|--------|--------|--------|--------|--------|
C|--------|--------|--------|--------|--------|--------|--------|--------|--------|
G|--------|--------|--------|--------|--------|--------|--------|--------|--------|
C|--------|--------|--------|--------|--------|--------|--------|--------|--------|


D|--------|
A|--------|
F|--------|
C|--------|
G|--------|
C|--------|





Track 12: rythem

D|--------|--------|--------|--------|--------|--------|--------|--------|--------|
A|--------|--------|--------|--------|--------|--------|--------|--------|--------|
F|--------|--------|--------|--------|--------|--------|--------|--------|--------|
C|--------|--------|--------|--------|--------|--------|--------|--------|--------|
G|--------|--------|--------|--------|--------|--------|--------|--------|--------|
C|--------|--------|--------|--------|--------|--------|--------|--------|--------|


D|--------|--------|--------|--------|--------|--------|--------|--------|--------|
A|--------|--------|--------|--------|--------|--------|--------|--------|--------|
F|--------|--------|--------|--------|--------|--------|--------|--------|--------|
C|--------|--------|--------|--------|--------|--------|--------|--------|--------|
G|--------|--------|--------|--------|--------|--------|--------|--------|--------|
C|--------|--------|--------|--------|--------|--------|--------|--------|--------|


D|--------|--------|--------|--------|--------|--------|--------|--------|--------|
A|--------|--------|--------|--------|--------|--------|--------|--------|--------|
F|--------|--------|--------|--------|--------|--------|--------|--------|--------|
C|--------|--------|--------|--------|--------|--------|--------|--------|--------|
G|--------|--------|--------|--------|--------|--------|--------|--------|--------|
C|--------|--------|--------|--------|--------|--------|--------|--------|--------|


D|--------|--------|--------|--------|--------|--------|--------|--------|--------|
A|--------|--------|--------|--------|--------|--------|--------|--------|--------|
F|--------|--------|--------|--------|--------|--------|--------|--------|--------|
C|--------|--------|--------|--------|--------|--------|--------|--------|--------|
G|--------|--------|--------|--------|--------|--------|--------|--------|--------|
C|--------|--------|--------|--------|--------|--------|--------|--------|--------|


D|--------|--------|--------|--------|--------|--------|--------|--------|--------|
A|--------|--------|--------|--------|--------|--------|--------|--------|--------|
F|--------|--------|--------|--------|--------|--------|--------|--------|--------|
C|--------|--------|--------|--------|--------|--------|--------|--------|--------|
G|--------|--------|--------|--------|--------|--------|--------|--------|--------|
C|--------|--------|--------|--------|--------|--------|--------|--------|--------|


D|--------|--------|--------|--------|--------|--------|--------|--------|--------|
A|--------|--------|--------|--------|--------|--------|--------|--------|--------|
F|--------|--------|--------|--------|--------|--------|--------|--------|--------|
C|--------|--------|--------|--------|--------|--------|--------|--------|--------|
G|--------|--------|--------|--------|--------|--------|--------|--------|--------|
C|--------|--------|--------|--------|--------|--------|--------|--------|--------|


D|--------|--------|--------|--------|--------|--------|--------|--------|--------|
A|--------|--------|--------|--------|--------|--------|--------|--------|--------|
F|--------|--------|--------|--------|--------|--------|--------|--------|--------|
C|--------|--------|--------|--------|--------|--------|--------|--------|--------|
G|--------|--------|--------|--------|--------|--------|--------|--------|--------|
C|--------|--------|--------|--------|--------|--------|--------|--------|--------|


D|--------|--------|--------|--------|--------|--------|--------|--------|--------|
A|--------|--------|--------|--------|--------|--------|--------|--------|--------|
F|--------|--------|--------|--------|--------|--------|--------|--------|--------|
C|--------|--------|--------|--------|--------|--------|--------|--------|--------|
G|--------|--------|--------|--------|--------|--------|--------|--------|--------|
C|--------|--------|--------|--------|--------|--------|--------|--------|--------|


D|--------|--------|--------|--------|--------|--------|--------|--------|--------|
A|--------|--------|--------|--------|--------|--------|--------|--------|--------|
F|--------|--------|--------|--------|--------|--------|--------|--------|--------|
C|--------|--------|--------|--------|--------|--------|--------|--------|--------|
G|--------|--------|--------|--------|--------|--------|--------|--------|--------|
C|--------|--------|--------|--------|--------|--------|--------|--------|--------|


D|--------|--------|--------|--------|--------|--------|--------|--------|--------|
A|--------|--------|--------|--------|--------|--------|--------|--------|--------|
F|--------|--------|--------|--------|--------|--------|--------|--------|--------|
C|--------|--------|--------|--------|--------|--------|--------|--------|--------|
G|--------|--------|--------|--------|--------|--------|--------|--------|--------|
C|--------|--------|--------|--------|--------|--------|--------|--------|--------|


D|--------|--------|--------|--------|--------|--------|--------|--------|--------|
A|--------|--------|--------|--------|--------|--------|--------|--------|--------|
F|--------|--------|--------|--------|--------|--------|--------|--------|--------|
C|--------|--------|--------|--------|--------|--------|--------|--------|--------|
G|--------|--------|--------|--------|--------|--------|--------|--------|--------|
C|--------|--------|--------|--------|--------|--------|--------|--------|--------|


D|--------|--------|--------|--------|--------|--------|--------|--------|--------|
A|--------|--------|--------|--------|--------|--------|--------|--------|--------|
F|--------|--------|--------|--------|--------|--------|--------|--------|--------|
C|--------|--------|--------|--------|--------|--------|--------|--------|--------|
G|--------|--------|--------|--------|--------|--------|--------|--------|--------|
C|--------|--------|--------|--------|--------|--------|--------|--------|--------|


D|--------|--------|--------|--------|--------|--------|--------|--------|-------------------------------------------------|
A|--------|--------|--------|--------|--------|--------|--------|--------|-------------------------------------------------|
F|--------|--------|--------|--------|--------|--------|--------|--------|-------------------------------------------------|
C|--------|--------|--------|--------|--------|--------|--------|--------|-3--3--3--3--3--3--3--3--3--3--3--3--3--3--3--3--|
G|--------|--------|--------|--------|--------|--------|--------|--------|-------------------------------------------------|
C|--------|--------|--------|--------|--------|--------|--------|--------|-------------------------------------------------|


D|-------------------------------------------------|-------------------------------------------------|
A|-------------------------------------------------|-------------------------------------------------|
F|-------------------------------------------------|-0--0--0--0--0--0--0--0--0--0--0--0--0--0--0--0--|
C|-3--3--3--3--3--3--3--3--5--5--5--5--10-10-10-10-|-------------------------------------------------|
G|-------------------------------------------------|-------------------------------------------------|
C|-------------------------------------------------|-------------------------------------------------|


D|-------------------------------------------------|-------------------------------------------------|
A|-------------------------3--3--3--3--2--2--2--2--|-------------------------------------------------|
F|-0--0--0--0--0--0--0--0--------------------------|-------------------------------------------------|
C|-------------------------------------------------|-3--3--3--3--3--3--3--3--3--3--3--3--3--3--3--3--|
G|-------------------------------------------------|-------------------------------------------------|
C|-------------------------------------------------|-------------------------------------------------|


D|-------------------------------------------------|-------------------------------------------------|
A|-------------------------------------------------|-------------------------------------------------|
F|-------------------------------------------------|-0--0--0--0--0--0--0--0--0--0--0--0--0--0--0--0--|
C|-3--3--3--3--3--3--3--3--5--5--5--5--10-10-10-10-|-------------------------------------------------|
G|-------------------------------------------------|-------------------------------------------------|
C|-------------------------------------------------|-------------------------------------------------|


D|-------------------------------------------------|-------------------------------------------------|
A|-------------------------3--3--3--3--2--2--2--2--|-------------------------------------------------|
F|-0--0--0--0--0--0--0--0--------------------------|-------------------------------------------------|
C|-------------------------------------------------|-3--3--3--3--3--3--3--3--3--3--3--3--3--3--3--3--|
G|-------------------------------------------------|-------------------------------------------------|
C|-------------------------------------------------|-------------------------------------------------|


D|-------------------------------------------------|-------------------------------------------------|
A|-------------------------------------------------|-------------------------------------------------|
F|-------------------------------------------------|-0--0--0--0--0--0--0--0--0--0--0--0--0--0--0--0--|
C|-3--3--3--3--3--3--3--3--5--5--5--5--10-10-10-10-|-------------------------------------------------|
G|-------------------------------------------------|-------------------------------------------------|
C|-------------------------------------------------|-------------------------------------------------|


D|-------------------------------------------------|-------------------------------------------------|
A|-------------------------3--3--3--3--2--2--2--2--|-------------------------------------------------|
F|-0--0--0--0--0--0--0--0--------------------------|-------------------------------------------------|
C|-------------------------------------------------|-3--3--3--3--3--3--3--3--3--3--3--3--3--3--3--3--|
G|-------------------------------------------------|-------------------------------------------------|
C|-------------------------------------------------|-------------------------------------------------|


D|-------------------------------------------------|-------------------------------------------------|
A|-------------------------------------------------|-------------------------------------------------|
F|-------------------------------------------------|-0--0--0--0--0--0--0--0--0--0--0--0--0--0--0--0--|
C|-3--3--3--3--3--3--3--3--5--5--5--5--10-10-10-10-|-------------------------------------------------|
G|-------------------------------------------------|-------------------------------------------------|
C|-------------------------------------------------|-------------------------------------------------|


D|-------------------------------------------------|---------------------------------|
A|-------------------------3--3--3--3--2--2--2--2--|---------------------------------|
F|-0--0--0--0--0--0--0--0--------------------------|---------------------------------|
C|-------------------------------------------------|-3---3---3---3---3---3---3---3---|
G|-------------------------------------------------|---------------------------------|
C|-------------------------------------------------|---------------------------------|


D|---------------------------------|-----------------|-----------------|-----------------|
A|---------------------------------|-----------------|-----------------|-----------------|
F|---------------------------------|-----------------|-----------------|-----------------|
C|-5---5---5---5---5---5---5---5---|-7----7----------|-7----7----------|-7----7----------|
G|---------------------------------|-----------------|-----------------|-----------------|
C|---------------------------------|-----------------|-----------------|-----------------|


D|-------------|---------------------------------|---------------------------------|
A|-------------|-----------------7---------------|-----------------7---------------|
F|-------3-----|---------------------8---7-------|---------------------8---7-------|
C|-5-----------|-7---7---7---7---------------10--|-7---7---7---7---------------10--|
G|-------------|---------------------------------|---------------------------------|
C|-------------|---------------------------------|---------------------------------|


D|---------------------------------|---------------------------------|---------------------------------|
A|-----------------7---------------|---------------------5-------5---|-----------------7---------------|
F|---------------------8---7-------|-----5-------5---3-------3-------|---------------------8---7-------|
C|-7---7---7---7---------------10--|-5-------5-----------------------|-7---7---7---7---------------10--|
G|---------------------------------|---------------------------------|---------------------------------|
C|---------------------------------|---------------------------------|---------------------------------|


D|---------------------------------|---------------------------------|---------------------------------|
A|-----------------7---------------|-----------------7---------------|---------------------5-------5---|
F|---------------------8---7-------|---------------------8---7-------|-----5-------5---3-------3-------|
C|-7---7---7---7---------------10--|-7---7---7---7---------------10--|-5-------5-----------------------|
G|---------------------------------|---------------------------------|---------------------------------|
C|---------------------------------|---------------------------------|---------------------------------|


D|---------------------------------|---------------------------------|---------------------------------|
A|-----------------7---------------|-----------------7---------------|-----------------7---------------|
F|---------------------8---7-------|---------------------8---7-------|---------------------8---7-------|
C|-7---7---7---7---------------10--|-7---7---7---7---------------10--|-7---7---7---7---------------10--|
G|---------------------------------|---------------------------------|---------------------------------|
C|---------------------------------|---------------------------------|---------------------------------|


D|---------------------------------|---------------------------------|---------------------------------|
A|---------------------5-------5---|-----------------7---------------|-----------------7---------------|
F|-----5-------5---3-------3-------|---------------------8---7-------|---------------------8---7-------|
C|-5-------5-----------------------|-7---7---7---7---------------10--|-7---7---7---7---------------10--|
G|---------------------------------|---------------------------------|---------------------------------|
C|---------------------------------|---------------------------------|---------------------------------|


D|---------------------------------|---------------------------------|--------|--------|
A|-----------------7---------------|---------------------5-------5---|--------|--------|
F|---------------------8---7-------|-----5-------5---3-------3-------|--------|--------|
C|-7---7---7---7---------------10--|-5-------5-----------------------|--------|--------|
G|---------------------------------|---------------------------------|--------|--------|
C|---------------------------------|---------------------------------|--------|--------|


D|--------|--------|--------|--------|--------|--------|--------|--------|--------|
A|--------|--------|--------|--------|--------|--------|--------|--------|--------|
F|--------|--------|--------|--------|--------|--------|--------|--------|--------|
C|--------|--------|--------|--------|--------|--------|--------|--------|--------|
G|--------|--------|--------|--------|--------|--------|--------|--------|--------|
C|--------|--------|--------|--------|--------|--------|--------|--------|--------|


D|--------|--------|--------|--------|--------|--------|--------|--------|--------|
A|--------|--------|--------|--------|--------|--------|--------|--------|--------|
F|--------|--------|--------|--------|--------|--------|--------|--------|--------|
C|--------|--------|--------|--------|--------|--------|--------|--------|--------|
G|--------|--------|--------|--------|--------|--------|--------|--------|--------|
C|--------|--------|--------|--------|--------|--------|--------|--------|--------|


D|--------|--------|--------|--------|--------|--------|--------|--------|--------|
A|--------|--------|--------|--------|--------|--------|--------|--------|--------|
F|--------|--------|--------|--------|--------|--------|--------|--------|--------|
C|--------|--------|--------|--------|--------|--------|--------|--------|--------|
G|--------|--------|--------|--------|--------|--------|--------|--------|--------|
C|--------|--------|--------|--------|--------|--------|--------|--------|--------|


D|--------|--------|--------|--------|--------|--------|--------|--------|--------|
A|--------|--------|--------|--------|--------|--------|--------|--------|--------|
F|--------|--------|--------|--------|--------|--------|--------|--------|--------|
C|--------|--------|--------|--------|--------|--------|--------|--------|--------|
G|--------|--------|--------|--------|--------|--------|--------|--------|--------|
C|--------|--------|--------|--------|--------|--------|--------|--------|--------|


D|--------|--------|--------|--------|--------|--------|--------|--------|--------|
A|--------|--------|--------|--------|--------|--------|--------|--------|--------|
F|--------|--------|--------|--------|--------|--------|--------|--------|--------|
C|--------|--------|--------|--------|--------|--------|--------|--------|--------|
G|--------|--------|--------|--------|--------|--------|--------|--------|--------|
C|--------|--------|--------|--------|--------|--------|--------|--------|--------|


D|--------|--------|--------|--------|--------|--------|--------|--------|--------|
A|--------|--------|--------|--------|--------|--------|--------|--------|--------|
F|--------|--------|--------|--------|--------|--------|--------|--------|--------|
C|--------|--------|--------|--------|--------|--------|--------|--------|--------|
G|--------|--------|--------|--------|--------|--------|--------|--------|--------|
C|--------|--------|--------|--------|--------|--------|--------|--------|--------|


D|--------|--------|--------|--------|--------|--------|--------|--------|--------|
A|--------|--------|--------|--------|--------|--------|--------|--------|--------|
F|--------|--------|--------|--------|--------|--------|--------|--------|--------|
C|--------|--------|--------|--------|--------|--------|--------|--------|--------|
G|--------|--------|--------|--------|--------|--------|--------|--------|--------|
C|--------|--------|--------|--------|--------|--------|--------|--------|--------|


D|--------|--------|--------|--------|--------|--------|--------|--------|--------|
A|--------|--------|--------|--------|--------|--------|--------|--------|--------|
F|--------|--------|--------|--------|--------|--------|--------|--------|--------|
C|--------|--------|--------|--------|--------|--------|--------|--------|--------|
G|--------|--------|--------|--------|--------|--------|--------|--------|--------|
C|--------|--------|--------|--------|--------|--------|--------|--------|--------|


D|--------|--------|--------|--------|--------|--------|--------|--------|--------|
A|--------|--------|--------|--------|--------|--------|--------|--------|--------|
F|--------|--------|--------|--------|--------|--------|--------|--------|--------|
C|--------|--------|--------|--------|--------|--------|--------|--------|--------|
G|--------|--------|--------|--------|--------|--------|--------|--------|--------|
C|--------|--------|--------|--------|--------|--------|--------|--------|--------|


D|--------|--------|--------|--------|--------|--------|--------|--------|--------|
A|--------|--------|--------|--------|--------|--------|--------|--------|--------|
F|--------|--------|--------|--------|--------|--------|--------|--------|--------|
C|--------|--------|--------|--------|--------|--------|--------|--------|--------|
G|--------|--------|--------|--------|--------|--------|--------|--------|--------|
C|--------|--------|--------|--------|--------|--------|--------|--------|--------|


D|--------|--------|--------|--------|--------|--------|--------|--------|--------|
A|--------|--------|--------|--------|--------|--------|--------|--------|--------|
F|--------|--------|--------|--------|--------|--------|--------|--------|--------|
C|--------|--------|--------|--------|--------|--------|--------|--------|--------|
G|--------|--------|--------|--------|--------|--------|--------|--------|--------|
C|--------|--------|--------|--------|--------|--------|--------|--------|--------|


D|--------|--------|--------|--------|--------|--------|
A|--------|--------|--------|--------|--------|--------|
F|--------|--------|--------|--------|--------|--------|
C|--------|--------|--------|--------|--------|--------|
G|--------|--------|--------|--------|--------|--------|
C|--------|--------|--------|--------|--------|--------|





Track 13: Piano

D|--------|--------|--------|--------|--------|--------|--------|--------|---------------------------------|
A|--------|--------|--------|--------|--------|--------|--------|--------|-------------13------------------|
F|--------|--------|--------|--------|--------|--------|--------|--------|---------10------10--------------|
C|--------|--------|--------|--------|--------|--------|--------|--------|-----7---------------7-------7---|
G|--------|--------|--------|--------|--------|--------|--------|--------|-8-----------------------8-------|
C|--------|--------|--------|--------|--------|--------|--------|--------|---------------------------------|


D|---------------------------------|---------------------------------|---------------------------------|
A|-------------13------------------|-------------10------------------|-------------10------------------|
F|---------10------10--------------|---------9-------9---------------|---------9-------9---------------|
C|-----7---------------7-------7---|-----10--------------10------10--|-----10--------------10------10--|
G|-8-----------------------8-------|-0-----------------------0-------|-0-----------------------0-------|
C|---------------------------------|---------------------------------|---------------------------------|


D|---------------------------------|---------------------------------|---------------------------------|
A|-------------13------------------|-------------13------------------|-------------10------------------|
F|---------10------10--------------|---------10------10--------------|---------9-------9---------------|
C|-----7---------------7-------7---|-----7---------------7-------7---|-----10--------------10------10--|
G|-8-----------------------8-------|-8-----------------------8-------|-0-----------------------0-------|
C|---------------------------------|---------------------------------|---------------------------------|


D|---------------------------------|---------------------------------|---------------------------------|
A|-------------10------------------|-------------13------------------|-------------13------------------|
F|---------9-------9---------------|---------10------10--------------|---------10------10--------------|
C|-----10--------------10------10--|-----7---------------7-------7---|-----7---------------7-------7---|
G|-0-----------------------0-------|-8-----------------------8-------|-8-----------------------8-------|
C|---------------------------------|---------------------------------|---------------------------------|


D|---------------------------------|---------------------------------|---------------------------------|
A|-------------10------------------|-------------10------------------|-------------13------------------|
F|---------9-------9---------------|---------9-------9---------------|---------10------10--------------|
C|-----10--------------10------10--|-----10--------------10------10--|-----7---------------7-------7---|
G|-0-----------------------0-------|-0-----------------------0-------|-8-----------------------8-------|
C|---------------------------------|---------------------------------|---------------------------------|


D|---------------------------------|---------------------------------|---------------------------------|
A|-------------13------------------|-------------10------------------|-------------10------------------|
F|---------10------10--------------|---------9-------9---------------|---------9-------9---------------|
C|-----7---------------7-------7---|-----10--------------10------10--|-----10--------------10------10--|
G|-8-----------------------8-------|-0-----------------------0-------|-0-----------------------0-------|
C|---------------------------------|---------------------------------|---------------------------------|


D|---------------------------------|---------------------------------|---------------------------------|
A|-------------13------------------|-------------13------------------|-------------10------------------|
F|---------10------10--------------|---------10------10--------------|---------9-------9---------------|
C|-----7---------------7-------7---|-----7---------------7-------7---|-----10--------------10------10--|
G|-8-----------------------8-------|-8-----------------------8-------|-0-----------------------0-------|
C|---------------------------------|---------------------------------|---------------------------------|


D|---------------------------------|---------------------------------|---------------------------------|
A|-------------10------------------|-------------13------------------|-------------13------------------|
F|---------9-------9---------------|---------10------10--------------|---------10------10--------------|
C|-----10--------------10------10--|-----7---------------7-------7---|-----7---------------7-------7---|
G|-0-----------------------0-------|-8-----------------------8-------|-8-----------------------8-------|
C|---------------------------------|---------------------------------|---------------------------------|


D|---------------------------------|---------------------------------|--------|--------|
A|-------------10------------------|-------------10------------------|--------|--------|
F|---------9-------9---------------|---------9-------9---------------|--------|--------|
C|-----10--------------10------10--|-----10--------------10------10--|--------|--------|
G|-0-----------------------0-------|-0-----------------------0-------|--------|--------|
C|---------------------------------|---------------------------------|--------|--------|


D|--------|--------|--------|--------|--------|--------|--------|--------|--------|
A|--------|--------|--------|--------|--------|--------|--------|--------|--------|
F|--------|--------|--------|--------|--------|--------|--------|--------|--------|
C|--------|--------|--------|--------|--------|--------|--------|--------|--------|
G|--------|--------|--------|--------|--------|--------|--------|--------|--------|
C|--------|--------|--------|--------|--------|--------|--------|--------|--------|


D|--------|---------------------------------|-------------10--------------10--|-----------------13--------------|
A|--------|-------------10--------------10--|---------------------------------|-10------------------------------|
F|--------|-10--10--10------10--10--10------|-9---9---9-------9---9---9-------|-------------10--------------10--|
C|--------|---------------------------------|---------------------------------|-10--10--10------10--10--10------|
G|--------|-8---------------10--------------|-8---------------10--------------|---------------------------------|
C|--------|---------------------------------|---------------------------------|---------------------------------|


D|-----------------13--------------|---------------------------------|-------------10--------------10--|
A|-10------------------------------|-------------10--------------10--|---------------------------------|
F|-------------7---------------7---|-10--10--10------10--10--10------|-9---9---9-------9---9---9-------|
C|-9---9---9-------9---9---9-------|---------------------------------|---------------------------------|
G|---------------------------------|-8---------------10--------------|-8---------------10--------------|
C|---------------------------------|---------------------------------|---------------------------------|


D|-----------------13--------------|-----------------13--------------|---------------------------------|
A|-10------------------------------|-10------------------------------|-------------10--------------10--|
F|-------------10--------------10--|-------------7---------------7---|-10--10--10------10--10--10------|
C|-10--10--10------10--10--10------|-9---9---9-------9---9---9-------|---------------------------------|
G|---------------------------------|---------------------------------|-8---------------10--------------|
C|---------------------------------|---------------------------------|---------------------------------|


D|-------------10--------------10--|-----------------13--------------|-----------------13--------------|
A|---------------------------------|-10------------------------------|-10------------------------------|
F|-9---9---9-------9---9---9-------|-------------10--------------10--|-------------7---------------7---|
C|---------------------------------|-10--10--10------10--10--10------|-9---9---9-------9---9---9-------|
G|-8---------------10--------------|---------------------------------|---------------------------------|
C|---------------------------------|---------------------------------|---------------------------------|


D|---------------------------------|-------------10--------------10--|-----------------13--------------|
A|-------------10--------------10--|---------------------------------|-10------------------------------|
F|-10--10--10------10--10--10------|-9---9---9-------9---9---9-------|-------------10--------------10--|
C|---------------------------------|---------------------------------|-10--10--10------10--10--10------|
G|-8---------------10--------------|-8---------------10--------------|---------------------------------|
C|---------------------------------|---------------------------------|---------------------------------|


D|-----------------13--------------|--------|--------|--------|--------|--------|--------|
A|-10------------------------------|--------|--------|--------|--------|--------|--------|
F|-------------7---------------7---|--------|--------|--------|--------|--------|--------|
C|-9---9---9-------9---9---9-------|--------|--------|--------|--------|--------|--------|
G|---------------------------------|--------|--------|--------|--------|--------|--------|
C|---------------------------------|--------|--------|--------|--------|--------|--------|


D|--------|--------|--------|--------|--------|--------|--------|--------|--------|
A|--------|--------|--------|--------|--------|--------|--------|--------|--------|
F|--------|--------|-5------|-5------|-10-----|-10-----|-5------|-5------|-10-----|
C|--------|--------|-3------|-3------|-7------|-7------|-3------|-3------|-7------|
G|--------|--------|-3------|-3------|-7------|-7------|-3------|-3------|-7------|
C|--------|--------|-3------|-3------|-7------|-7------|-3------|-3------|-7------|


D|--------|--------|--------|--------|--------|--------|--------|--------|--------|
A|--------|--------|--------|--------|--------|--------|--------|--------|--------|
F|-10-----|-5------|-5------|-10-----|-10-----|-5------|-5------|-10-----|-10-----|
C|-7------|-3------|-3------|-7------|-7------|-3------|-3------|-7------|-7------|
G|-7------|-3------|-3------|-7------|-7------|-3------|-3------|-7------|-7------|
C|-7------|-3------|-3------|-7------|-7------|-3------|-3------|-7------|-7------|


D|--------|--------|--------|--------|--------|--------|--------|--------|---------------------------------|
A|--------|--------|--------|--------|--------|--------|--------|--------|-------------13------------------|
F|--------|--------|--------|--------|--------|--------|--------|--------|---------10------10--------------|
C|--------|--------|--------|--------|--------|--------|--------|--------|-----7---------------7-------7---|
G|--------|--------|--------|--------|--------|--------|--------|--------|-8-----------------------8-------|
C|--------|--------|--------|--------|--------|--------|--------|--------|---------------------------------|


D|---------------------------------|---------------------------------|---------------------------------|
A|-------------13------------------|-------------10------------------|-------------10------------------|
F|---------10------10--------------|---------9-------9---------------|---------9-------9---------------|
C|-----7---------------7-------7---|-----10--------------10------10--|-----10--------------10------10--|
G|-8-----------------------8-------|-0-----------------------0-------|-0-----------------------0-------|
C|---------------------------------|---------------------------------|---------------------------------|


D|---------------------------------|---------------------------------|---------------------------------|
A|-------------13------------------|-------------13------------------|-------------10------------------|
F|---------10------10--------------|---------10------10--------------|---------9-------9---------------|
C|-----7---------------7-------7---|-----7---------------7-------7---|-----10--------------10------10--|
G|-8-----------------------8-------|-8-----------------------8-------|-0-----------------------0-------|
C|---------------------------------|---------------------------------|---------------------------------|


D|---------------------------------|--------|--------|--------|--------|--------|--------|
A|-------------10------------------|--------|--------|--------|--------|--------|--------|
F|---------9-------9---------------|--------|--------|--------|--------|--------|--------|
C|-----10--------------10------10--|--------|--------|--------|--------|--------|--------|
G|-0-----------------------0-------|--------|--------|--------|--------|--------|--------|
C|---------------------------------|--------|--------|--------|--------|--------|--------|


D|--------|--------|--------|--------|--------|--------|--------|--------|--------|
A|--------|--------|--------|--------|--------|--------|--------|--------|--------|
F|--------|--------|--------|--------|--------|--------|--------|--------|--------|
C|--------|--------|--------|--------|--------|--------|--------|--------|--------|
G|--------|--------|--------|--------|--------|--------|--------|--------|--------|
C|--------|--------|--------|--------|--------|--------|--------|--------|--------|


D|--------|--------|--------|--------|--------|--------|--------|--------|--------|
A|--------|--------|--------|--------|--------|--------|--------|--------|--------|
F|--------|--------|--------|--------|--------|--------|--------|--------|--------|
C|--------|--------|--------|--------|--------|--------|--------|--------|--------|
G|--------|--------|--------|--------|--------|--------|--------|--------|--------|
C|--------|--------|--------|--------|--------|--------|--------|--------|--------|


D|--------|--------|--------|--------|--------|--------|--------|--------|--------|
A|--------|--------|--------|--------|--------|--------|--------|--------|--------|
F|--------|--------|--------|--------|--------|--------|--------|--------|--------|
C|--------|--------|--------|--------|--------|--------|--------|--------|--------|
G|--------|--------|--------|--------|--------|--------|--------|--------|--------|
C|--------|--------|--------|--------|--------|--------|--------|--------|--------|


D|--------|--------|--------|--------|--------|--------|--------|--------|--------|
A|--------|--------|--------|--------|--------|--------|--------|--------|--------|
F|--------|--------|--------|--------|--------|--------|--------|--------|--------|
C|--------|--------|--------|--------|--------|--------|--------|--------|--------|
G|--------|--------|--------|--------|--------|--------|--------|--------|--------|
C|--------|--------|--------|--------|--------|--------|--------|--------|--------|


D|--------|--------|--------|--------|--------|--------|--------|--------|--------|
A|--------|--------|--------|--------|--------|--------|--------|--------|--------|
F|--------|--------|--------|--------|--------|--------|--------|--------|--------|
C|--------|--------|--------|--------|--------|--------|--------|--------|--------|
G|--------|--------|--------|--------|--------|--------|--------|--------|--------|
C|--------|--------|--------|--------|--------|--------|--------|--------|--------|


D|--------|--------|--------|--------|--------|--------|--------|--------|--------|
A|--------|--------|--------|--------|--------|--------|--------|--------|--------|
F|--------|--------|--------|--------|--------|--------|--------|--------|--------|
C|--------|--------|--------|--------|--------|--------|--------|--------|--------|
G|--------|--------|--------|--------|--------|--------|--------|--------|--------|
C|--------|--------|--------|--------|--------|--------|--------|--------|--------|


D|--------|--------|--------|--------|--------|--------|--------|--------|--------|
A|--------|--------|--------|--------|--------|--------|--------|--------|--------|
F|--------|--------|--------|--------|--------|--------|--------|--------|--------|
C|--------|--------|--------|--------|--------|--------|--------|--------|--------|
G|--------|--------|--------|--------|--------|--------|--------|--------|--------|
C|--------|--------|--------|--------|--------|--------|--------|--------|--------|


D|--------|--------|--------|--------|--------|--------|--------|--------|--------|
A|--------|--------|--------|--------|--------|--------|--------|--------|--------|
F|--------|--------|--------|--------|--------|--------|--------|--------|--------|
C|--------|--------|--------|--------|--------|--------|--------|--------|--------|
G|--------|--------|--------|--------|--------|--------|--------|--------|--------|
C|--------|--------|--------|--------|--------|--------|--------|--------|--------|


D|--------|--------|--------|--------|--------|--------|--------|--------|--------|
A|--------|--------|--------|--------|--------|--------|--------|--------|--------|
F|--------|--------|--------|--------|--------|--------|--------|--------|--------|
C|--------|--------|--------|--------|--------|--------|--------|--------|--------|
G|--------|--------|--------|--------|--------|--------|--------|--------|--------|
C|--------|--------|--------|--------|--------|--------|--------|--------|--------|


D|--------|--------|--------|--------|--------|--------|--------|--------|--------|
A|--------|--------|--------|--------|--------|--------|--------|--------|--------|
F|--------|--------|--------|--------|--------|--------|--------|--------|--------|
C|--------|--------|--------|--------|--------|--------|--------|--------|--------|
G|--------|--------|--------|--------|--------|--------|--------|--------|--------|
C|--------|--------|--------|--------|--------|--------|--------|--------|--------|


D|--------|---------------------------------|---------------------------------|---------------------------------|
A|--------|-------------13------------------|-------------13------------------|-------------10------------------|
F|--------|---------10------10--------------|---------10------10--------------|---------9-------9---------------|
C|--------|-----7---------------7-------7---|-----7---------------7-------7---|-----10--------------10------10--|
G|--------|-8-----------------------8-------|-8-----------------------8-------|-0-----------------------0-------|
C|--------|---------------------------------|---------------------------------|---------------------------------|


D|---------------------------------|---------------------------------|---------------------------------|
A|-------------10------------------|-------------13------------------|-------------13------------------|
F|---------9-------9---------------|---------10------10--------------|---------10------10--------------|
C|-----10--------------10------10--|-----7---------------7-------7---|-----7---------------7-------7---|
G|-0-----------------------0-------|-8-----------------------8-------|-8-----------------------8-------|
C|---------------------------------|---------------------------------|---------------------------------|


D|---------------------------------|---------------------------------|---------------------------------|
A|-------------10------------------|-------------10------------------|-------------13------------------|
F|---------9-------9---------------|---------9-------9---------------|---------10------10--------------|
C|-----10--------------10------10--|-----10--------------10------10--|-----7---------------7-------7---|
G|-0-----------------------0-------|-0-----------------------0-------|-8-----------------------8-------|
C|---------------------------------|---------------------------------|---------------------------------|


D|---------------------------------|---------------------------------|---------------------------------|
A|-------------13------------------|-------------10------------------|-------------10------------------|
F|---------10------10--------------|---------9-------9---------------|---------9-------9---------------|
C|-----7---------------7-------7---|-----10--------------10------10--|-----10--------------10------10--|
G|-8-----------------------8-------|-0-----------------------0-------|-0-----------------------0-------|
C|---------------------------------|---------------------------------|---------------------------------|


D|---------------------------------|---------------------------------|---------------------------------|
A|-------------13------------------|-------------13------------------|-------------10------------------|
F|---------10------10--------------|---------10------10--------------|---------9-------9---------------|
C|-----7---------------7-------7---|-----7---------------7-------7---|-----10--------------10------10--|
G|-8-----------------------8-------|-8-----------------------8-------|-0-----------------------0-------|
C|---------------------------------|---------------------------------|---------------------------------|


D|---------------------------------|---------------------------------|---------------------------------|
A|-------------10------------------|-------------13------------------|-------------13------------------|
F|---------9-------9---------------|---------10------10--------------|---------10------10--------------|
C|-----10--------------10------10--|-----7---------------7-------7---|-----7---------------7-------7---|
G|-0-----------------------0-------|-8-----------------------8-------|-8-----------------------8-------|
C|---------------------------------|---------------------------------|---------------------------------|


D|---------------------------------|---------------------------------|---------------------------------|
A|-------------10------------------|-------------10------------------|-------------13------------------|
F|---------9-------9---------------|---------9-------9---------------|---------10------10--------------|
C|-----10--------------10------10--|-----10--------------10------10--|-----7---------------7-------7---|
G|-0-----------------------0-------|-0-----------------------0-------|-8-----------------------8-------|
C|---------------------------------|---------------------------------|---------------------------------|


D|---------------------------------|---------------------------------|---------------------------------|
A|-------------13------------------|-------------10------------------|-------------10------------------|
F|---------10------10--------------|---------9-------9---------------|---------9-------9---------------|
C|-----7---------------7-------7---|-----10--------------10------10--|-----10--------------10------10--|
G|-8-----------------------8-------|-0-----------------------0-------|-0-----------------------0-------|
C|---------------------------------|---------------------------------|---------------------------------|


D|---------------------------------|---------------------------------|---------------------------------|
A|-------------13------------------|-------------13------------------|-------------10------------------|
F|---------10------10--------------|---------10------10--------------|---------9-------9---------------|
C|-----7---------------7-------7---|-----7---------------7-------7---|-----10--------------10------10--|
G|-8-----------------------8-------|-8-----------------------8-------|-0-----------------------0-------|
C|---------------------------------|---------------------------------|---------------------------------|


D|---------------------------------|---------------------------------|---------------------------------|
A|-------------10------------------|-------------13------------------|-------------13------------------|
F|---------9-------9---------------|---------10------10--------------|---------10------10--------------|
C|-----10--------------10------10--|-----7---------------7-------7---|-----7---------------7-------7---|
G|-0-----------------------0-------|-8-----------------------8-------|-8-----------------------8-------|
C|---------------------------------|---------------------------------|---------------------------------|


D|---------------------------------|---------------------------------|-10------------------------------|
A|-------------10------------------|-------------10------------------|-------------13------------------|
F|---------9-------9---------------|---------9-------9---------------|---------10------10--------------|
C|-----10--------------10------10--|-----10--------------10------10--|-----7---------------7-------7---|
G|-0-----------------------0-------|-0-----------------------0-------|-8-----------------------8-------|
C|---------------------------------|---------------------------------|-3-------------------------------|


D|-15------------------------------|---------------------------------|---------------------------------|
A|-------------13------------------|-10----------10------------------|-13----------10------------------|
F|---------10------10--------------|---------9-------9---------------|---------9-------9---------------|
C|-----7---------------7-------7---|-----10--------------10------10--|-----10--------------10------10--|
G|-8-----------------------8-------|-0-----------------------0-------|-0-----------------------0-------|
C|-3-------------------------------|-10------------------------------|-9-------------------------------|


D|-10------------------------------|-15------------------------------|---------------------------------|
A|-------------13------------------|-------------13------------------|-10----------10------------------|
F|---------10------10--------------|---------10------10--------------|---------9-------9---------------|
C|-----7---------------7-------7---|-----7---------------7-------7---|-----10--------------10------10--|
G|-8-----------------------8-------|-8-----------------------8-------|-0-----------------------0-------|
C|-3-------------------------------|-3-------------------------------|-10------------------------------|


D|---------------------------------|-10--------------13--------------|-15--------------12--------------|
A|-13----------10------------------|-------------13------------------|-------------13------------------|
F|---------9-------9---------------|---------10------10--------------|---------10------10--------------|
C|-----10--------------10------10--|-----7-----------2---7-------7---|-----7-----------2---7-------7---|
G|-0-----------------------0-------|-8-----------------------8-------|-8-----------------------8-------|
C|-9-------------------------------|-3-------------------------------|-3-------------------------------|


D|-----------------10--------------|-----------------12--------------|-10--------------13--------------|
A|-10----------10------------------|-13----------10------------------|-------------13------------------|
F|---------9-------9---------------|---------9-------9---------------|---------10------10--------------|
C|-----10----------12--10------10--|-----10----------12--10------10--|-----7-----------2---7-------7---|
G|-0-----------------------0-------|-0-----------------------0-------|-8-----------------------8-------|
C|-10------------------------------|-9-------------------------------|-3-------------------------------|


D|-15--------------12--------------|-----------------10--------------|-----------------12--------------|
A|-------------13------------------|-10----------10------------------|-13----------10------------------|
F|---------10------10--------------|---------9-------9---------------|---------9-------9---------------|
C|-----7-----------2---7-------7---|-----10----------12--10------10--|-----10----------12--10------10--|
G|-8-----------------------8-------|-0-----------------------0-------|-0-----------------------0-------|
C|-3-------------------------------|-10------------------------------|-9-------------------------------|


D|---------------------------------|---------------------------------|---------------------------------|
A|-------------13------------------|-------------13------------------|-------------10------------------|
F|---------10------10--------------|---------10------10--------------|---------9-------9---------------|
C|-----7---------------7-------7---|-----7---------------7-------7---|-----10--------------10------10--|
G|-8-----------------------8-------|-8-----------------------8-------|-0-----------------------0-------|
C|-15--15--15--15--15--15--15--15--|-15--15--15--15--15--15--17--17--|-19--19--19--19--19--19--19--19--|


D|---------------------------------|---------------------------------|---------------------------------|
A|-------------10------------------|-------------13------------------|-------------13------------------|
F|---------9-------9---------------|---------10------10--------------|---------10------10--------------|
C|-----10--------------10------10--|-----7---------------7-------7---|-----7---------------7-------7---|
G|-0-----------------------0-------|-8-----------------------8-------|-8-----------------------8-------|
C|-19--19--19--19--19--19--22--22--|-15--15--15--15--15--15--15--15--|-15--15--15--15--15--15--17--17--|


D|---------------------------------|---------------------------------|---------------------------------|
A|-------------10------------------|-------------10------------------|-------------13------------------|
F|---------9-------9---------------|---------9-------9---------------|---------10------10--------------|
C|-----10--------------10------10--|-----10--------------10------10--|-----7---------------7-------7---|
G|-0-----------------------0-------|-0-----------------------0-------|-8-----------------------8-------|
C|-19--19--19--19--19--19--19--19--|-19--19--19--19--19--19--22--22--|-15--15--15--15--15--15--15--15--|


D|---------------------------------|---------------------------------|---------------------------------|
A|-------------13------------------|-------------10------------------|-------------10------------------|
F|---------10------10--------------|---------9-------9---------------|---------9-------9---------------|
C|-----7---------------7-------7---|-----10--------------10------10--|-----10--------------10------10--|
G|-8-----------------------8-------|-0-----------------------0-------|-0-----------------------0-------|
C|-15--15--15--15--15--15--17--17--|-19--19--19--19--19--19--19--19--|-19--19--19--19--19--19--22--22--|


D|---------------------------------|---------------------------------|---------------------------------|
A|-------------13------------------|-------------13------------------|-------------10------------------|
F|---------10------10--------------|---------10------10--------------|---------9-------9---------------|
C|-----7---------------7-------7---|-----7---------------7-------7---|-----10--------------10------10--|
G|-8-----------------------8-------|-8-----------------------8-------|-0-----------------------0-------|
C|-15--15--15--15--15--15--15--15--|-15--15--15--15--15--15--17--17--|-19--19--19--19--19--19--19--19--|


D|---------------------------------|
A|-------------10------------------|
F|---------9-------9---------------|
C|-----10--------------10------10--|
G|-0-----------------------0-------|
C|-19--19--19--19--19--19--22--22--|