Menu:

 

Search:

 

the sky is falling - as these days die:

 



Title: As These Days Die
Artist: 
Album: 
Author: The Sky Is Falling


Track 1: Rythem

D|---------------------------------|---------------------------------|---------------------------------|
A|---------------------------------|---------------------------------|---------------------------------|
F|---------------------------------|---------------------------------|---------------------------------|
C|-7---7---7---7---7---7---7---7---|-10--10--10--10--10--10--10--10--|-9---9---9---9---9---9---9---9---|
G|-0---0---0---0---0---0---0---0---|-8---8---8---8---8---8---8---8---|-10--10--10--10--10--10--10--10--|
C|---------------------------------|---------------------------------|---------------------------------|


D|---------------------------------|---------------------------------|---------------------------------|
A|---------------------------------|---------------------------------|---------------------------------|
F|---------------------------------|---------------------------------|---------------------------------|
C|-6---6---6---6---6---6---6---6---|-7---7---7---7---7---7---7---7---|-10--10--10--10--10--10--10--10--|
G|-7---7---7---7---7---7---7---7---|-0---0---0---0---0---0---0---0---|-8---8---8---8---8---8---8---8---|
C|---------------------------------|---------------------------------|---------------------------------|


D|---------------------------------|---------------------------------|---------------------------------|
A|---------------------------------|---------------------------------|---------------------------------|
F|---------------------------------|---------------------------------|---------------------------------|
C|-9---9---9---9---9---9---9---9---|-6---6---6---6---6---6---6---6---|-7---7---7---7---7---7---7---7---|
G|-10--10--10--10--10--10--10--10--|-7---7---7---7---7---7---7---7---|-0---0---0---0---0---0---0---0---|
C|---------------------------------|---------------------------------|---------------------------------|


D|---------------------------------|---------------------------------|---------------------------------|
A|---------------------------------|---------------------------------|---------------------------------|
F|---------------------------------|---------------------------------|---------------------------------|
C|-10--10--10--10--10--10--10--10--|-9---9---9---9---9---9---9---9---|-6---6---6---6---6---6---6---6---|
G|-8---8---8---8---8---8---8---8---|-10--10--10--10--10--10--10--10--|-7---7---7---7---7---7---7---7---|
C|---------------------------------|---------------------------------|---------------------------------|


D|---------------------------------|---------------------------------|---------------------------------|
A|---------------------------------|---------------------------------|---------------------------------|
F|---------------------------------|---------------------------------|---------------------------------|
C|-7---7---7---7---7---7---7---7---|-10--10--10--10--10--10--10--10--|-9---9---9---9---9---9---9---9---|
G|-0---0---0---0---0---0---0---0---|-8---8---8---8---8---8---8---8---|-10--10--10--10--10--10--10--10--|
C|---------------------------------|---------------------------------|---------------------------------|


D|---------------------------------|---------------------------------|---------------------------------|
A|---------------------------------|---------------------------------|---------------------------------|
F|---------------------------------|---------------------------------|---------------------------------|
C|-6---6---6---6---6---6---6---6---|-7---7---7---7---7---7---7---7---|-10--10--10--10--10--10--10--10--|
G|-7---7---7---7---7---7---7---7---|-0---0---0---0---0---0---0---0---|-8---8---8---8---8---8---8---8---|
C|---------------------------------|---------------------------------|---------------------------------|


D|---------------------------------|---------------------------------|---------------------------------|
A|---------------------------------|---------------------------------|---------------------------------|
F|---------------------------------|---------------------------------|---------------------------------|
C|-9---9---9---9---9---9---9---9---|-6---6---6---6---6---6---6---6---|-7---7---7---7---7---7---7---7---|
G|-10--10--10--10--10--10--10--10--|-7---7---7---7---7---7---7---7---|-0---0---0---0---0---0---0---0---|
C|---------------------------------|---------------------------------|---------------------------------|


D|---------------------------------|---------------------------------|-7-----8----10---12---|
A|---------------------------------|---------------------------------|----------------------|
F|---------------------------------|---------------------------------|-------5----7----9----|
C|-10--10--10--10--10--10--10--10--|-9---9---9---9---9---9---9---9---|----------------------|
G|-8---8---8---8---8---8---8---8---|-10--10--10--10--10--10--10--10--|----------------------|
C|---------------------------------|---------------------------------|----------------------|


D|------------------------|--------|------------------------|-----------------------|
A|------------------------|--------|------------------------|-----------------------|
F|------------------------|--------|------------------------|-----------------------|
C|-10---7---9----10---7---|-7------|-7---9----12--12---10---|-10--9-----9---7---9---|
G|------------------------|--------|------------------------|-----------------------|
C|------------------------|--------|------------------------|-----------------------|


D|------------------------|--------|------------------------|-----------------------|
A|------------------------|--------|------------------------|-----------------------|
F|------------------------|--------|------------------------|-----------------------|
C|-10---7---9----10---7---|-7------|-7---9----12--12---10---|-10--9-----9---7---9---|
G|------------------------|--------|------------------------|-----------------------|
C|------------------------|--------|------------------------|-----------------------|


D|------------------------|--------|------------------------|-----------------------|
A|-13---10--12---13---10--|-10-----|-10--12---15--15---13---|-13--12----12--10--12--|
F|------------------------|--------|------------------------|-----------------------|
C|------------------------|--------|------------------------|-----------------------|
G|------------------------|--------|------------------------|-----------------------|
C|------------------------|--------|------------------------|-----------------------|


D|------------------------|--------|------------------------|-----------------------|
A|-13---10--12---13---10--|-10-----|-10--12---15--15---13---|-13--12----12--10--12--|
F|------------------------|--------|------------------------|-----------------------|
C|------------------------|--------|------------------------|-----------------------|
G|------------------------|--------|------------------------|-----------------------|
C|------------------------|--------|------------------------|-----------------------|


D|--------|--------|--------|------------------------|-------------------------------------------|
A|-10-----|-8------|-6------|-5----------------------|-------------------------------------------|
F|--------|--------|--------|------7----5---4---5----|-------------------------------------------|
C|--------|--------|--------|------------------------|-7---------------7---------------7---------|
G|--------|--------|--------|------------------------|-0---0--0--0--0--0---0--0--0--0--0---0--0--|
C|--------|--------|--------|------------------------|-------------------------------------------|


D|-------------------------------------------|-----------------------------------------|
A|-------------------------------------------|-----------------------------------------|
F|-------------------------------------------|-----------------------------------------|
C|-7---------7---------------7---------------|-7---------7---------7---------------7---|
G|-0---0--0--0---0--0--0--0--0---0--0--0--0--|-0---0--0--0---0--0--0---0--0--0--0--0---|
C|-------------------------------------------|-----------------------------------------|


D|-------------------------------------------|-------------------------------------------|
A|-------------------------------------------|-------------------------------------------|
F|-------------------------------------------|-------------------------------------------|
C|-------------7---------7---------7---------|-------7---------------7---------7---------|
G|-0--0--0--0--0---0--0--0---0--0--0---0--0--|-0--0--0---0--0--0--0--0---0--0--0---0--0--|
C|-------------------------------------------|-------------------------------------------|


D|-------------------------------------------------|-------------------------------------------------|
A|-------------------------------------------------|-------------------------------------------------|
F|-------------------------------------------------|-------------------------------------------------|
C|-------------------------------------------------|-------------------------------------------------|
G|-7--7--7--7--7--7--7--7--7--7--7--7--7--7--7--7--|-3--3--3--3--3--3--3--3--3--3--3--3--3--3--3--3--|
C|-7--7--7--7--7--7--7--7--7--7--7--7--7--7--7--7--|-3--3--3--3--3--3--3--3--3--3--3--3--3--3--3--3--|


D|-------------------------------------------------|-------------------------------------------------|
A|-------------------------------------------------|-------------------------------------------------|
F|-------------------------------------------------|-------------------------------------------------|
C|-------------------------------------------------|-------------------------------------------------|
G|-5--5--5--5--5--5--5--5--5--5--5--5--5--5--5--5--|-0--0--0--0--0--0--0--0--2--2--2--2--2--2--2--2--|
C|-5--5--5--5--5--5--5--5--5--5--5--5--5--5--5--5--|-0--0--0--0--0--0--0--0--2--2--2--2--2--2--2--2--|


D|-------------------------------------------------|-------------------------------------------------|
A|-------------------------------------------------|-------------------------------------------------|
F|-------------------------------------------------|-------------------------------------------------|
C|-------------------------------------------------|-------------------------------------------------|
G|-7--7--7--7--7--7--7--7--7--7--7--7--7--7--7--7--|-3--3--3--3--3--3--3--3--3--3--3--3--3--3--3--3--|
C|-7--7--7--7--7--7--7--7--7--7--7--7--7--7--7--7--|-3--3--3--3--3--3--3--3--3--3--3--3--3--3--3--3--|


D|-------------------------------------------------|-------------------------------------------------|
A|-------------------------------------------------|-------------------------------------------------|
F|-------------------------------------------------|-------------------------------------------------|
C|-------------------------------------------------|-------------------------------------------------|
G|-5--5--5--5--5--5--5--5--5--5--5--5--5--5--5--5--|-0--0--0--0--0--0--0--0--2--2--2--2--2--2--2--2--|
C|-5--5--5--5--5--5--5--5--5--5--5--5--5--5--5--5--|-0--0--0--0--0--0--0--0--2--2--2--2--2--2--2--2--|


D|-------------------------------------------------|-------------------------------------------------|
A|-------------------------------------------------|-------------------------------------------------|
F|-------------------------------------------------|-------------------------------------------------|
C|-------------------------------------------------|-------------------------------------------------|
G|-7--7--7--7--7--7--7--7--7--7--7--7--7--7--7--7--|-3--3--3--3--3--3--3--3--3--3--3--3--3--3--3--3--|
C|-7--7--7--7--7--7--7--7--7--7--7--7--7--7--7--7--|-3--3--3--3--3--3--3--3--3--3--3--3--3--3--3--3--|


D|-------------------------------------------------|-------------------------------------------------|
A|-------------------------------------------------|-------------------------------------------------|
F|-------------------------------------------------|-------------------------------------------------|
C|-------------------------------------------------|-------------------------------------------------|
G|-5--5--5--5--5--5--5--5--5--5--5--5--5--5--5--5--|-0--0--0--0--0--0--0--0--2--2--2--2--2--2--2--2--|
C|-5--5--5--5--5--5--5--5--5--5--5--5--5--5--5--5--|-0--0--0--0--0--0--0--0--2--2--2--2--2--2--2--2--|


D|-------------------------------------------------|-------------------------------------------------|
A|-------------------------------------------------|-------------------------------------------------|
F|-------------------------------------------------|-------------------------------------------------|
C|-------------------------------------------------|-------------------------------------------------|
G|-7--7--7--7--7--7--7--7--7--7--7--7--7--7--7--7--|-3--3--3--3--3--3--3--3--3--3--3--3--3--3--3--3--|
C|-7--7--7--7--7--7--7--7--7--7--7--7--7--7--7--7--|-3--3--3--3--3--3--3--3--3--3--3--3--3--3--3--3--|


D|-------------------------------------------------|-------------------------------------------------|
A|-------------------------------------------------|-------------------------------------------------|
F|-------------------------------------------------|-------------------------------------------------|
C|-------------------------------------------------|-------------------------------------------------|
G|-5--5--5--5--5--5--5--5--5--5--5--5--5--5--5--5--|-0--0--0--0--0--0--0--0--2--2--2--2--2--2--2--2--|
C|-5--5--5--5--5--5--5--5--5--5--5--5--5--5--5--5--|-0--0--0--0--0--0--0--0--2--2--2--2--2--2--2--2--|


D|------------------------------------|------------------------------------|------------------------------------|
A|----------------------5---------5---|----------------------5-------------|----------------------5---------5---|
F|-2----2----2----4--5------4--5------|-2----2----2----4--5------4--5--2---|----------------4--5------4--5------|
C|-2----2----2------------------------|-2----2----2------------------------|-3----3----3------------------------|
G|-0----0----0------------------------|-0----0----0------------------------|-3----3----3------------------------|
C|------------------------------------|------------------------------------|-3----3----3------------------------|


D|------------------------------------|------------------------------------|------------------------------------|
A|----------------------5-------------|----------------------5---------5---|----------------------5-------------|
F|----------------4--5------4--5--4---|-2----2----2----4--5------4--5------|-2----2----2----4--5------4--5--2---|
C|-3----3----3------------------------|-2----2----2------------------------|-2----2----2------------------------|
G|-3----3----3------------------------|-0----0----0------------------------|-0----0----0------------------------|
C|-3----3----3------------------------|------------------------------------|------------------------------------|


D|------------------------------------|------------------------------------|------------------------------------|
A|----------------------5---------5---|----------------------5-------------|----------------------5---------5---|
F|----------------4--5------4--5------|----------------4--5------4--5--4---|-2----2----2----4--5------4--5------|
C|-3----3----3------------------------|-3----3----3------------------------|-2----2----2------------------------|
G|-3----3----3------------------------|-3----3----3------------------------|-0----0----0------------------------|
C|-3----3----3------------------------|-3----3----3------------------------|------------------------------------|


D|------------------------------------|------------------------------------|------------------------------------|
A|----------------------5-------------|----------------------5---------5---|----------------------5-------------|
F|-2----2----2----4--5------4--5--2---|----------------4--5------4--5------|----------------4--5------4--5--4---|
C|-2----2----2------------------------|-3----3----3------------------------|-3----3----3------------------------|
G|-0----0----0------------------------|-3----3----3------------------------|-3----3----3------------------------|
C|------------------------------------|-3----3----3------------------------|-3----3----3------------------------|


D|------------------------------------|------------------------------------|------------------------------------|
A|----------------------5---------5---|----------------------5-------------|----------------------5---------5---|
F|-2----2----2----4--5------4--5------|-2----2----2----4--5------4--5--2---|----------------4--5------4--5------|
C|-2----2----2------------------------|-2----2----2------------------------|-3----3----3------------------------|
G|-0----0----0------------------------|-0----0----0------------------------|-3----3----3------------------------|
C|------------------------------------|------------------------------------|-3----3----3------------------------|


D|------------------------------------|---------------------------------|---------------------------------|
A|----------------------5-------------|---------------------------------|---------------------------------|
F|----------------4--5------4--5--4---|---------------------------------|---------------------------------|
C|-3----3----3------------------------|-7---7---7---7---7---7---7---7---|-7---7---7---7---7---7---7---7---|
G|-3----3----3------------------------|-7---7---7---7---7---7---7---7---|-7---7---7---7---7---7---7---7---|
C|-3----3----3------------------------|-7---7---7---7---7---7---7---7---|-7---7---7---7---7---7---7---7---|


D|---------------------------------|---------------------------------|---------------------------------|
A|---------------------------------|---------------------------------|---------------------------------|
F|---------------------------------|---------------------------------|---------------------------------|
C|-3---3---3---3---3---3---3---3---|-3---3---3---3---3---3---3---3---|-7---7---7---7---7---7---7---7---|
G|-3---3---3---3---3---3---3---3---|-3---3---3---3---3---3---3---3---|-7---7---7---7---7---7---7---7---|
C|-3---3---3---3---3---3---3---3---|-3---3---3---3---3---3---3---3---|-7---7---7---7---7---7---7---7---|


D|---------------------------------|---------------------------------|---------------------------------|
A|---------------------------------|---------------------------------|---------------------------------|
F|---------------------------------|---------------------------------|---------------------------------|
C|-7---7---7---7---7---7---7---7---|-3---3---3---3---3---3---3---3---|-3---3---3---3---3---3---3---3---|
G|-7---7---7---7---7---7---7---7---|-3---3---3---3---3---3---3---3---|-3---3---3---3---3---3---3---3---|
C|-7---7---7---7---7---7---7---7---|-3---3---3---3---3---3---3---3---|-3---3---3---3---3---3---3---3---|


D|---------------------------------|---------------------------------|---------------------------------|
A|---------------------------------|---------------------------------|---------------------------------|
F|---------------------------------|---------------------------------|---------------------------------|
C|-7---7---7---7---7---7---7---7---|-7---7---7---7---7---7---7---7---|-3---3---3---3---3---3---3---3---|
G|-7---7---7---7---7---7---7---7---|-7---7---7---7---7---7---7---7---|-3---3---3---3---3---3---3---3---|
C|-7---7---7---7---7---7---7---7---|-7---7---7---7---7---7---7---7---|-3---3---3---3---3---3---3---3---|


D|---------------------------------|---------------------------------|---------------------------------|
A|---------------------------------|---------------------------------|---------------------------------|
F|---------------------------------|---------------------------------|---------------------------------|
C|-3---3---3---3---3---3---3---3---|-7---7---7---7---7---7---7---7---|-7---7---7---7---7---7---7---7---|
G|-3---3---3---3---3---3---3---3---|-7---7---7---7---7---7---7---7---|-7---7---7---7---7---7---7---7---|
C|-3---3---3---3---3---3---3---3---|-7---7---7---7---7---7---7---7---|-7---7---7---7---7---7---7---7---|


D|---------------------------------|---------------------------------|-------------------------------------------------|
A|---------------------------------|---------------------------------|-------------------------------------------------|
F|---------------------------------|---------------------------------|-------------------------------------------------|
C|-3---3---3---3---3---3---3---3---|-3---3---3---3---3---3---3---3---|-------------------------------------------------|
G|-3---3---3---3---3---3---3---3---|-3---3---3---3---3---3---3---3---|-0--0--0--0--0--0--0--0--2--2--2--2--2--2--2--2--|
C|-3---3---3---3---3---3---3---3---|-3---3---3---3---3---3---3---3---|-0--0--0--0--0--0--0--0--2--2--2--2--2--2--2--2--|


D|-------------------------------------------------|-------------------------------------------------|
A|-------------------------------------------------|-------------------------------------------------|
F|-------------------------------------------------|-------------------------------------------------|
C|-------------------------------------------------|-------------------------------------------------|
G|-7--7--7--7--7--7--7--7--7--7--7--7--7--7--7--7--|-3--3--3--3--3--3--3--3--3--3--3--3--3--3--3--3--|
C|-7--7--7--7--7--7--7--7--7--7--7--7--7--7--7--7--|-3--3--3--3--3--3--3--3--3--3--3--3--3--3--3--3--|


D|-------------------------------------------------|-------------------------------------------------|
A|-------------------------------------------------|-------------------------------------------------|
F|-------------------------------------------------|-------------------------------------------------|
C|-------------------------------------------------|-------------------------------------------------|
G|-5--5--5--5--5--5--5--5--5--5--5--5--5--5--5--5--|-0--0--0--0--0--0--0--0--2--2--2--2--2--2--2--2--|
C|-5--5--5--5--5--5--5--5--5--5--5--5--5--5--5--5--|-0--0--0--0--0--0--0--0--2--2--2--2--2--2--2--2--|


D|-------------------------------------------------|-------------------------------------------------|
A|-------------------------------------------------|-------------------------------------------------|
F|-------------------------------------------------|-------------------------------------------------|
C|-------------------------------------------------|-------------------------------------------------|
G|-7--7--7--7--7--7--7--7--7--7--7--7--7--7--7--7--|-3--3--3--3--3--3--3--3--3--3--3--3--3--3--3--3--|
C|-7--7--7--7--7--7--7--7--7--7--7--7--7--7--7--7--|-3--3--3--3--3--3--3--3--3--3--3--3--3--3--3--3--|


D|-------------------------------------------------|-------------------------------------------------|
A|-------------------------------------------------|-------------------------------------------------|
F|-------------------------------------------------|-------------------------------------------------|
C|-------------------------------------------------|-------------------------------------------------|
G|-5--5--5--5--5--5--5--5--5--5--5--5--5--5--5--5--|-0--0--0--0--0--0--0--0--2--2--2--2--2--2--2--2--|
C|-5--5--5--5--5--5--5--5--5--5--5--5--5--5--5--5--|-0--0--0--0--0--0--0--0--2--2--2--2--2--2--2--2--|


D|-------------------------------------------------|-------------------------------------------------|
A|-------------------------------------------------|-------------------------------------------------|
F|-------------------------------------------------|-------------------------------------------------|
C|-------------------------------------------------|-------------------------------------------------|
G|-7--7--7--7--7--7--7--7--7--7--7--7--7--7--7--7--|-3--3--3--3--3--3--3--3--3--3--3--3--3--3--3--3--|
C|-7--7--7--7--7--7--7--7--7--7--7--7--7--7--7--7--|-3--3--3--3--3--3--3--3--3--3--3--3--3--3--3--3--|


D|-------------------------------------------------|-------------------------------------------------|
A|-------------------------------------------------|-------------------------------------------------|
F|-------------------------------------------------|-------------------------------------------------|
C|-------------------------------------------------|-------------------------------------------------|
G|-5--5--5--5--5--5--5--5--5--5--5--5--5--5--5--5--|-0--0--0--0--0--0--0--0--2--2--2--2--2--2--2--2--|
C|-5--5--5--5--5--5--5--5--5--5--5--5--5--5--5--5--|-0--0--0--0--0--0--0--0--2--2--2--2--2--2--2--2--|


D|-------------------------------------------------|-------------------------------------------------|
A|-------------------------------------------------|-------------------------------------------------|
F|-------------------------------------------------|-------------------------------------------------|
C|-------------------------------------------------|-------------------------------------------------|
G|-7--7--7--7--7--7--7--7--7--7--7--7--7--7--7--7--|-3--3--3--3--3--3--3--3--3--3--3--3--3--3--3--3--|
C|-7--7--7--7--7--7--7--7--7--7--7--7--7--7--7--7--|-3--3--3--3--3--3--3--3--3--3--3--3--3--3--3--3--|


D|-------------------------------------------------|-------------------------------------------------|
A|-------------------------------------------------|-------------------------------------------------|
F|-------------------------------------------------|-------------------------------------------------|
C|-------------------------------------------------|-------------------------------------------------|
G|-5--5--5--5--5--5--5--5--5--5--5--5--5--5--5--5--|-0--0--0--0--0--0--0--0--2--2--2--2--2--2--2--2--|
C|-5--5--5--5--5--5--5--5--5--5--5--5--5--5--5--5--|-0--0--0--0--0--0--0--0--2--2--2--2--2--2--2--2--|


D|-----------------------------------------|-----------------------------------------|
A|-----------------------------------------|-----------------------------------------|
F|-----------------------------------------|-----------------------------------------|
C|-10--9---7---10--9---7---12--10--9---10--|-7---5---3---7---5---3---10--9---7---9---|
G|-----------------------------------------|-----------------------------------------|
C|-----------------------------------------|-----------------------------------------|


D|-------------------------------------------------|-----------------------------------------|
A|-------------------------------------------------|-----------------------------------------|
F|-------------------------------------------------|-5---5--5--5---5--5----------------------|
C|-9---7---5---9---7---5---9---7---5---9---7---5---|---------------------6---6--6--6---6--6--|
G|-------------------------------------------------|-----------------------------------------|
C|-------------------------------------------------|-----------------------------------------|


D|-----------------------------------------|-----------------------------------------|
A|-----------------------------------------|-----------------------------------------|
F|-----------------------------------------|-----------------------------------------|
C|-10--9---7---10--9---7---12--10--9---10--|-7---5---3---7---5---3---10--9---7---9---|
G|-----------------------------------------|-----------------------------------------|
C|-----------------------------------------|-----------------------------------------|


D|-------------------------------------------------|-----------------------------------------|
A|-------------------------------------------------|-----------------------------------------|
F|-------------------------------------------------|-5---5--5--5---5--5----------------------|
C|-9---7---5---9---7---5---9---7---5---9---7---5---|---------------------6---6--6--6---6--6--|
G|-------------------------------------------------|-----------------------------------------|
C|-------------------------------------------------|-----------------------------------------|


D|---------------------------------|------------------------------|---------------------------------|
A|---------------------------------|------------------------------|---------------------------------|
F|---------------------------------|------------------------------|---------------------------------|
C|---------------------------------|------------------------------|---------------------------------|
G|-0---0---0---0---0---0---10--0---|-8----8---8---8---8---8---8---|-7---7---7---7---7---7---0---5---|
C|---------------------------------|------------------------------|---------------------------------|


D|---------------------------------|------------------------------|---------------------------------|
A|---------------------------------|------------------------------|---------------------------------|
F|---------------------------------|------------------------------|---------------------------------|
C|---------------------------------|------------------------------|---------------------------------|
G|-----0---3---0---2---3---0---0---|-0---0---0---0---10--0---8----|-8---8---8---8---8---8---7---7---|
C|---------------------------------|------------------------------|---------------------------------|


D|------------------------------|---------------------------------|------------------------------|
A|------------------------------|---------------------------------|------------------------------|
F|------------------------------|---------------------------------|------------------------------|
C|------------------------------|---------------------------------|------------------------------|
G|-7---7---7---7---0---5----0---|-3---0---2---3---0---0---0---0---|-0---0---10--0---8----8---8---|
C|------------------------------|---------------------------------|------------------------------|


D|---------------------------------|------------------------------|---------------------------------|
A|---------------------------------|------------------------------|---------------------------------|
F|---------------------------------|------------------------------|---------------------------------|
C|---------------------------------|------------------------------|---------------------------------|
G|-8---8---8---8---7---7---7---7---|-7---7---0---5----0---3---0---|-2---3---0---0---0---0---0---0---|
C|---------------------------------|------------------------------|---------------------------------|


D|------------------------------|---------------------------------|------------------------------|
A|------------------------------|---------------------------------|------------------------------|
F|------------------------------|---------------------------------|------------------------------|
C|------------------------------|---------------------------------|------------------------------|
G|-10--0---8----8---8---8---8---|-8---8---7---7---7---7---7---7---|-0---5----0---3---0---2---3---|
C|------------------------------|---------------------------------|------------------------------|


D|-------------------------------------|---------------------------------------|-----------------------------|
A|-------------------------------------|---------------------------------------|-----------------------------|
F|-------------------------------------|---------------------------------------|-----------------------------|
C|-7---------------------------7-------|---------------------7-----------------|-----------9--------10---12--|
G|-0---0---0--0--0---0--0--0---0---0---|-0--0--0---0--0--0---0---0---0--0--0---|-0--0--0---7----7---8----10--|
C|-------------------------------------|---------------------------------------|-----------------------------|


D|-------------------------------------|-------------------------------------|----------------------------------|
A|-------------------------------------|-------------------------------------|----------------------------------|
F|-------------------------------------|-------------------------------------|----------------------------------|
C|-10--9---7---------------------------|-7---------------------------7-------|---------------------9--------10--|
G|-8---7---0---0---0--0--0---0--0--0---|-0---0---0--0--0---0--0--0---0---0---|-0--0--0---0--0--0---7----7---8---|
C|-------------------------------------|-------------------------------------|----------------------------------|


D|-----------------------------------|---------------------------------------|----------------------------------|
A|-----------------------------------|---------------------------------------|----------------------------------|
F|-----------------------------------|---------------------------------------|----------------------------------|
C|-----12--10--9---7-----------------|-----------7---------------------------|-7---------------------------9----|
G|-----10--8---7---0---0---0--0--0---|-0--0--0---0---0---0--0--0---0--0--0---|-0---0---0--0--0---0--0--0---7----|
C|-----------------------------------|---------------------------------------|----------------------------------|


D|------------------------------|---------------------------------------|---------------------------------------|
A|------------------------------|---------------------------------------|---------------------------------------|
F|------------------------------|---------------------------------------|---------------------------------------|
C|-----10---12--10--9---7-------|---------------------7-----------------|-----------7---------------------------|
G|-7---8----10--8---7---0---0---|-0--0--0---0--0--0---0---0---0--0--0---|-0--0--0---0---0---0--0--0---0--0--0---|
C|------------------------------|---------------------------------------|---------------------------------------|


D|---------------------------|-------------------------------------|---------------------------------------|
A|---------------------------|-------------------------------------|---------------------------------------|
F|---------------------------|-------------------------------------|---------------------------------------|
C|-9--------10---12--10--9---|-7---------------------------7-------|---------------------7-----------------|
G|-7----7---8----10--8---7---|-0---0---0--0--0---0--0--0---0---0---|-0--0--0---0--0--0---0---0---0--0--0---|
C|---------------------------|-------------------------------------|---------------------------------------|


D|-----------------------------|-------------------------------------|-------------------------------------|
A|-----------------------------|-------------------------------------|-------------------------------------|
F|-----------------------------|-------------------------------------|-------------------------------------|
C|-----------9--------10---12--|-10--9---7---------------------------|-7---------------------------7-------|
G|-0--0--0---7----7---8----10--|-8---7---0---0---0--0--0---0--0--0---|-0---0---0--0--0---0--0--0---0---0---|
C|-----------------------------|-------------------------------------|-------------------------------------|


D|----------------------------------|------------------------------|------------------------------|
A|----------------------------------|------------------------------|------------------------------|
F|----------------------------------|------------------------------|------------------------------|
C|---------------------9--------10--|-----12--10--9---9--------10--|-----12--10--9---9--------10--|
G|-0--0--0---0--0--0---7----7---8---|-----10--8---7---7----7---8---|-----10--8---7---7----7---8---|
C|----------------------------------|------------------------------|------------------------------|


D|------------------------------|-----------------------|-------------|-------------|
A|------------------------------|-----------------------|-------------|-------------|
F|------------------------------|-----------------------|-------------|-------------|
C|-----12--10--9---9--------10--|-----12--10--9---7-----|-------7-----|-------7-----|
G|-----10--8---7---7----7---8---|-----10--8---7---7-----|-------7-----|-------7-----|
C|------------------------------|-----------------7-----|-------7-----|-------7-----|


D|--------|--------|--------|--------|--------|--------|--------|--------|--------|
A|--------|--------|--------|--------|--------|--------|--------|--------|--------|
F|--------|--------|--------|--------|--------|--------|--------|--------|--------|
C|--------|--------|--------|--------|--------|--------|--------|--------|--------|
G|--------|--------|--------|--------|--------|--------|--------|--------|--------|
C|--------|--------|--------|--------|--------|--------|--------|--------|--------|


D|--------|--------|--------|--------|--------|--------|--------|--------|--------|
A|--------|--------|--------|--------|--------|--------|--------|--------|--------|
F|--------|--------|--------|--------|--------|--------|--------|--------|--------|
C|--------|--------|--------|--------|--------|--------|--------|--------|--------|
G|--------|--------|--------|--------|--------|--------|--------|--------|--------|
C|--------|--------|--------|--------|--------|--------|--------|--------|--------|


D|--------|--------|--------|--------|--------|--------|--------|--------|--------|
A|--------|--------|--------|--------|--------|--------|--------|--------|--------|
F|--------|--------|--------|--------|--------|--------|--------|--------|--------|
C|--------|--------|--------|--------|--------|--------|--------|--------|--------|
G|--------|--------|--------|--------|--------|--------|--------|--------|--------|
C|--------|--------|--------|--------|--------|--------|--------|--------|--------|


D|--------|--------|--------|--------|--------|--------|--------|--------|--------|
A|--------|--------|--------|--------|--------|--------|--------|--------|--------|
F|--------|--------|--------|--------|--------|--------|--------|--------|--------|
C|--------|--------|--------|--------|--------|--------|--------|--------|--------|
G|--------|--------|--------|--------|--------|--------|--------|--------|--------|
C|--------|--------|--------|--------|--------|--------|--------|--------|--------|


D|--------|----------------|---------------------|-------------|--------------------|
A|--------|----------------|---------------------|-------------|--------------------|
F|--------|----------------|---------------------|-------------|--------------------|
C|--------|-7------5---7---|-9----7----9----10---|-10----12----|-10----9----9---10--|
G|--------|----------------|---------------------|-------------|--------------------|
C|--------|----------------|---------------------|-------------|--------------------|


D|----------------|---------------------|-------------|--------------------|----------------|
A|----------------|---------------------|-------------|--------------------|----------------|
F|----------------|-10---9----7----9----|-9-----12----|-10----9----9---7---|----------------|
C|-7------5---7---|---------------------|-------------|--------------------|-7------5---7---|
G|----------------|---------------------|-------------|--------------------|----------------|
C|----------------|---------------------|-------------|--------------------|----------------|


D|---------------------|-------------|--------------------|----------------|---------------------|
A|---------------------|-------------|--------------------|----------------|---------------------|
F|---------------------|-------------|--------------------|----------------|-10---9----7----9----|
C|-9----7----9----10---|-10----12----|-10----9----9---10--|-7------5---7---|---------------------|
G|---------------------|-------------|--------------------|----------------|---------------------|
C|---------------------|-------------|--------------------|----------------|---------------------|


D|-------------|--------------------|---------------------------------|---------------------------------|
A|-------------|--------------------|---------------------------------|---------------------------------|
F|-9-----12----|-10----9----9---7---|---------------------------------|---------------------------------|
C|-------------|--------------------|-7---7---7---7---7---7---7---7---|-10--10--10--10--10--10--10--10--|
G|-------------|--------------------|-0---0---0---0---0---0---0---0---|-8---8---8---8---8---8---8---8---|
C|-------------|--------------------|---------------------------------|---------------------------------|


D|---------------------------------|---------------------------------|---------------------------------|
A|---------------------------------|---------------------------------|---------------------------------|
F|---------------------------------|---------------------------------|---------------------------------|
C|-9---9---9---9---9---9---9---9---|-6---6---6---6---6---6---6---6---|-7---7---7---7---7---7---7---7---|
G|-10--10--10--10--10--10--10--10--|-7---7---7---7---7---7---7---7---|-0---0---0---0---0---0---0---0---|
C|---------------------------------|---------------------------------|---------------------------------|


D|---------------------------------|---------------------------------|---------------------------------|
A|---------------------------------|---------------------------------|---------------------------------|
F|---------------------------------|---------------------------------|---------------------------------|
C|-10--10--10--10--10--10--10--10--|-9---9---9---9---9---9---9---9---|-6---6---6---6---6---6---6---6---|
G|-8---8---8---8---8---8---8---8---|-10--10--10--10--10--10--10--10--|-7---7---7---7---7---7---7---7---|
C|---------------------------------|---------------------------------|---------------------------------|


D|---------------------------------|---------------------------------|---------------------------------|
A|---------------------------------|---------------------------------|---------------------------------|
F|---------------------------------|---------------------------------|---------------------------------|
C|-7-----------7-------7-----------|-10----------10------10----------|-9-----------9-------9-----------|
G|-0---0---0---0---0---0---0---0---|-8---8---8---8---8---8---8---8---|-10--10--10--10--10--10--10--10--|
C|---------------------------------|---------------------------------|---------------------------------|


D|---------------------------------|---------------------------------|---------------------------------|
A|---------------------------------|---------------------------------|---------------------------------|
F|---------------------------------|---------------------------------|---------------------------------|
C|-6-----------7-------9---7-------|-7-----------7-------7-----------|-10----------10------10----------|
G|-7---7---7---7---7---7---7---7---|-0---0---0---0---0---0---0---0---|-8---8---8---8---8---8---8---8---|
C|---------------------------------|---------------------------------|---------------------------------|


D|---------------------------------|---------------------------------|---------------------------------|
A|---------------------------------|---------------------------------|---------------------------------|
F|---------------------------------|---------------------------------|---------------------------------|
C|-9-----------9-------9-----------|-6-----------7-------9---7-------|-7-----------7-------7-----------|
G|-10--10--10--10--10--10--10--10--|-7---7---7---7---7---7---7---7---|-0---0---0---0---0---0---0---0---|
C|---------------------------------|---------------------------------|---------------------------------|


D|---------------------------------|---------------------------------|---------------------------------|
A|---------------------------------|---------------------------------|---------------------------------|
F|---------------------------------|---------------------------------|---------------------------------|
C|-10----------10------10----------|-9-----------9-------9-----------|-6-----------7-------9---7-------|
G|-8---8---8---8---8---8---8---8---|-10--10--10--10--10--10--10--10--|-7---7---7---7---7---7---7---7---|
C|---------------------------------|---------------------------------|---------------------------------|


D|---------------------------------|---------------------------------|---------------------------------|
A|---------------------------------|---------------------------------|---------------------------------|
F|---------------------------------|---------------------------------|---------------------------------|
C|-7-----------7-------7-----------|-10----------10------10----------|-9-----------9-------9-----------|
G|-0---0---0---0---0---0---0---0---|-8---8---8---8---8---8---8---8---|-10--10--10--10--10--10--10--10--|
C|---------------------------------|---------------------------------|---------------------------------|


D|---------------------------------|--------|--------|--------|-------------|--------|
A|---------------------------------|--------|--------|--------|-------------|--------|
F|---------------------------------|--------|--------|--------|-------------|--------|
C|-6-----------7-------9---7-------|-7------|-3------|-5------|-0-----2-----|-7------|
G|-7---7---7---7---7---7---7---7---|-7------|-3------|-5------|-0-----2-----|-7------|
C|---------------------------------|-7------|-3------|-5------|-0-----2-----|-7------|


D|--------|--------|-------------|---------------------------------|---------------------------------|
A|--------|--------|-------------|---------------------------------|---------------------------------|
F|--------|--------|-------------|-------------10--9---------------|-10--9-------------------10--9---|
C|-3------|-5------|-0-----2-----|---------------------------------|---------------------------------|
G|-3------|-5------|-0-----2-----|---------7-------------------7---|-----------------7---------------|
C|-3------|-5------|-0-----2-----|-7---7---------------7---7-------|---------7---7-------7-----------|


D|-----------------------------------|---------------------------------|---------------------------------|
A|-----------------------------------|---------------------------------|---------------------------------|
F|-----------------------------------|-------------10--9---------------|-10--9-------------------10--9---|
C|-------------3----------------5----|---------------------------------|---------------------------------|
G|-------------3----------------5----|---------7-------------------7---|-----------------7---------------|
C|-3--3--3--3--3----5--5--5--5--5----|-7---7---------------7---7-------|---------7---7-------7-----------|


D|-----------------------------------|---------------------------------|---------------------------------|
A|-----------------------------------|---------------------------------|---------------------------------|
F|-----------------------------------|-------------10--9---------------|-10--9-------------------10--9---|
C|-------------3----------------5----|---------------------------------|---------------------------------|
G|-------------3----------------5----|---------7-------------------7---|-----------------7---------------|
C|-3--3--3--3--3----5--5--5--5--5----|-7---7---------------7---7-------|---------7---7-------7-----------|


D|-----------------------------------|---------------------------------|---------------------------------|
A|-----------------------------------|---------------------------------|---------------------------------|
F|-----------------------------------|-------------10--9---------------|-10--9-------------------10--9---|
C|-------------3----------------5----|---------------------------------|---------------------------------|
G|-------------3----------------5----|---------7-------------------7---|-----------------7---------------|
C|-3--3--3--3--3----5--5--5--5--5----|-7---7---------------7---7-------|---------7---7-------7-----------|


D|-----------------------------------|---------------------------------|---------------------------------|
A|-----------------------------------|---------------------------------|---------------------------------|
F|-----------------------------------|-------------10--9---------------|-10--9-------------------10--9---|
C|-------------3----------------5----|---------------------------------|---------------------------------|
G|-------------3----------------5----|---------7-------------------7---|-----------------7---------------|
C|-3--3--3--3--3----5--5--5--5--5----|-7---7---------------7---7-------|---------7---7-------7-----------|


D|-----------------------------------|---------------------------------|---------------------------------|
A|-----------------------------------|---------------------------------|---------------------------------|
F|-----------------------------------|-------------10--9---------------|-10--9-------------------10--9---|
C|-------------3----------------5----|---------------------------------|---------------------------------|
G|-------------3----------------5----|---------7-------------------7---|-----------------7---------------|
C|-3--3--3--3--3----5--5--5--5--5----|-7---7---------------7---7-------|---------7---7-------7-----------|


D|-----------------------------------|-------------------------------------------------|
A|-----------------------------------|-------------------------------------------------|
F|-----------------------------------|-------------------------------------------------|
C|-------------3----------------5----|-7-----------------7-----------------------------|
G|-------------3----------------5----|----8--0--0--0--0-----8--0--0--0--0--8--0--10-0--|
C|-3--3--3--3--3----5--5--5--5--5----|-------------------------------------------------|


D|-------------------------------------------------|-------------------------------------------------|
A|-------------------------------------------------|-------------------------------------------------|
F|-------------------------------------------------|-------------------------------------------------|
C|-7-----------------5-----------------9--10-9-----|-7-----------------7-----------------------------|
G|----8--0--0--0--0-----7--0--0--0--0-----------0--|----8--0--0--0--0-----8--0--0--0--0--8--0--10-0--|
C|-------------------------------------------------|-------------------------------------------------|


D|-------------------------------------------------|-------------------------------------------------|
A|-------------------------------------------------|-------------------------------------------------|
F|-------------------------------------------------|-------------------------------------------------|
C|-7-----------------------------------------------|-7-----------------7-----------------------------|
G|----8--0--0--0--0--8--10-8--0--7--8--7--0--7--0--|----8--0--0--0--0-----8--0--0--0--0--8--0--10-0--|
C|-------------------------------------------------|-------------------------------------------------|


D|-------------------------------------------------|-------------------------------------------------|
A|-------------------------------------------------|-------------------------------------------------|
F|-------------------------------------------------|-------------------------------------------------|
C|-7-----------------5-----------------9--10-9-----|-7-----------------7-----------------------------|
G|----8--0--0--0--0-----7--0--0--0--0-----------0--|----8--0--0--0--0-----8--0--0--0--0--8--0--10-0--|
C|-------------------------------------------------|-------------------------------------------------|


D|-------------------------------------------------|-------------------------------------------------|
A|-------------------------------------------------|-------------------------------------------------|
F|-------------------------------------------------|-------------------------------------------------|
C|-7-----------------------------------------------|-7-----------------7-----------------------------|
G|----8--0--0--0--0--8--10-8--0--7--8--7--0--7--0--|----8--0--0--0--0-----8--0--0--0--0--8--0--10-0--|
C|-------------------------------------------------|-------------------------------------------------|


D|-------------------------------------------------|-------------------------------------------------|
A|-------------------------------------------------|-------------------------------------------------|
F|-------------------------------------------------|-------------------------------------------------|
C|-7-----------------5-----------------9--10-9-----|-7-----------------7-----------------------------|
G|----8--0--0--0--0-----7--0--0--0--0-----------0--|----8--0--0--0--0-----8--0--0--0--0--8--0--10-0--|
C|-------------------------------------------------|-------------------------------------------------|


D|-------------------------------------------------|---------------------------------|
A|-------------------------------------------------|---------------------------------|
F|-------------------------------------------------|---------------------------------|
C|-7-----------------------------------------------|---------10------9-------9---7---|
G|----8--0--0--0--0--8--10-8--0--7--8--7--0--7--0--|-0---0-------0-------0-----------|
C|-------------------------------------------------|---------------------------------|


D|---------------------------------|---------------------------------|---------------------------------|
A|---------------------------------|---------------------------------|---------------------------------|
F|---------------------------------|-----------------10--9-----------|---------------------------------|
C|---------10------9-------9---7---|---------10------------------10--|---------12------10------9---10--|
G|-0---0-------0-------0-----------|-8---8-------8-----------8-------|-10--10------10------10----------|
C|---------------------------------|---------------------------------|---------------------------------|


D|---------------------------------|---------------------------------|---------------------------------|
A|---------------------------------|---------------------------------|---------------------------------|
F|---------------------------------|---------------------------------|-----------------10--9-----------|
C|---------10------9-------9---7---|---------10------9-------9---7---|---------10------------------10--|
G|-0---0-------0-------0-----------|-0---0-------0-------0-----------|-8---8-------8-----------8-------|
C|---------------------------------|---------------------------------|---------------------------------|


D|---------------------------------|--------|-------------|
A|---------------------------------|--------|-------------|
F|---------------------------------|--------|-5-----------|
C|---------12------10------9---10--|-7------|-7-----------|
G|-10--10------10------10----------|-7------|-------------|
C|---------------------------------|-7------|-------------|





Track 2: Lead

D|--------|--------|--------|--------------------|--------|--------|--------|--------------------|
A|--------|-6------|--------|--------------------|--------|-6------|--------|--------------------|
F|-5------|--------|-7------|-4-----5----7---5---|-5------|--------|-7------|-4-----5----7---5---|
C|--------|--------|--------|--------------------|--------|--------|--------|--------------------|
G|--------|--------|--------|--------------------|--------|--------|--------|--------------------|
C|--------|--------|--------|--------------------|--------|--------|--------|--------------------|


D|---------------------------------|---------------------------------|-7-----------7-----------7-------|
A|---------------------------------|-6---5---5---6---5---5---6---5---|-----8---8-------8---8-------8---|
F|-5-----------5-----------5-------|---------------------------------|---------------------------------|
C|-----7---7-------7---7-------7---|---------------------------------|---------------------------------|
G|---------------------------------|---------------------------------|---------------------------------|
C|---------------------------------|---------------------------------|---------------------------------|


D|----------------------|---------------------------------|---------------------------------|
A|-9--------------------|---------------------------------|-6---5---5---6---5---5---6---5---|
F|----------------------|-5-----------5-----------5-------|---------------------------------|
C|-------7----9----10---|-----7---7-------7---7-------7---|---------------------------------|
G|----------------------|---------------------------------|---------------------------------|
C|----------------------|---------------------------------|---------------------------------|


D|-7-----------7-----------7-------|----------------------|---------------------------------|
A|-----8---8-------8---8-------8---|-9--------------------|---------------------------------|
F|---------------------------------|----------------------|-5-----------5-----------5-------|
C|---------------------------------|-------7----9----10---|-----7---7-------7---7-------7---|
G|---------------------------------|----------------------|---------------------------------|
C|---------------------------------|----------------------|---------------------------------|


D|---------------------------------|-7-----------7-----------7-------|----------------------|
A|-6---5---5---6---5---5---6---5---|-----8---8-------8---8-------8---|-9--------------------|
F|---------------------------------|---------------------------------|----------------------|
C|---------------------------------|---------------------------------|-------7----9----10---|
G|---------------------------------|---------------------------------|----------------------|
C|---------------------------------|---------------------------------|----------------------|


D|---------------------------------|---------------------------------|-7-----------7-----------7-------|
A|---------------------------------|-6---5---5---6---5---5---6---5---|-----8---8-------8---8-------8---|
F|-5-----------5-----------5-------|---------------------------------|---------------------------------|
C|-----7---7-------7---7-------7---|---------------------------------|---------------------------------|
G|---------------------------------|---------------------------------|---------------------------------|
C|---------------------------------|---------------------------------|---------------------------------|


D|----------------------|------------------------|--------|------------------------|
A|-9--------------------|------------------------|--------|------------------------|
F|----------------------|-9----5---7----9----5---|-5------|-5---7----10--10---9----|
C|-------7----9----10---|------------------------|--------|------------------------|
G|----------------------|------------------------|--------|------------------------|
C|----------------------|------------------------|--------|------------------------|


D|-----------------------|------------------------|--------|------------------------|
A|-----------------------|------------------------|--------|------------------------|
F|-9---7-----7---5---7---|-9----5---7----9----5---|-5------|-5---7----10--10---9----|
C|-----------------------|------------------------|--------|------------------------|
G|-----------------------|------------------------|--------|------------------------|
C|-----------------------|------------------------|--------|------------------------|


D|-----------------------|-12---8---10---12---8---|-8------|-8---10---13--13---12---|
A|-----------------------|------------------------|--------|------------------------|
F|-9---7-----7---5---7---|------------------------|--------|------------------------|
C|-----------------------|------------------------|--------|------------------------|
G|-----------------------|------------------------|--------|------------------------|
C|-----------------------|------------------------|--------|------------------------|


D|-12--10----10--8---10--|-12---8---10---12---8---|-8------|-8---10---13--13---12---|
A|-----------------------|------------------------|--------|------------------------|
F|-----------------------|------------------------|--------|------------------------|
C|-----------------------|------------------------|--------|------------------------|
G|-----------------------|------------------------|--------|------------------------|
C|-----------------------|------------------------|--------|------------------------|


D|-12--10----10--8---10--|-8------|-7------|-5------|-3----------------------|-------------|
A|-----------------------|--------|--------|--------|------6----5---3---5----|-------------|
F|-----------------------|--------|--------|--------|------------------------|-------------|
C|-----------------------|--------|--------|--------|------------------------|-7-----------|
G|-----------------------|--------|--------|--------|------------------------|-7-----------|
C|-----------------------|--------|--------|--------|------------------------|-7-----------|


D|-------------|-------------------------------|-------------------------------------------|
A|-------------|-------------------------------|-------------------------------------------|
F|-------------|-----------5---------------5---|-------------5---------5---------5---------|
C|-------------|-----------7---7--7--7--7--7---|-7--7--7--7--7---7--7--7---7--7--7---7--7--|
G|-------------|-------------------------------|-------------------------------------------|
C|-------------|-------------------------------|-------------------------------------------|


D|-------------------------------------------|-------------------------------------------------|
A|-------------------------------------------|-------------------------------------------------|
F|-------5---------------5---------5---------|-------------------------------------------------|
C|-7--7--7---7--7--7--7--7---7--7--7---7--7--|-7--7--9--9--10-10-9--9--7--7--9--9--10-10-9--9--|
G|-------------------------------------------|-------------------------------------------------|
C|-------------------------------------------|-------------------------------------------------|


D|-------------------------------------------------|-------------------------------------------------|
A|-------------------------------------------------|-------------------------------------------------|
F|-------10-10-9--9--------------------------------|-------------------------------------------10-10-|
C|-7--7--------------12-12-10-10-9--9--10-10-------|-7--7--9--9--10-10-12-12-10-10-9--9--10-10-------|
G|-------------------------------------------10-10-|-------------------------------------------------|
C|-------------------------------------------------|-------------------------------------------------|


D|-------------------------------------------------|-------------------------------------------------|
A|-------------------------------------------------|-------------------------------------------------|
F|-------9--9--10-10-12-12-10-10-9--9--------------|-------------------------------------------------|
C|-7--7--------------------------------12-12-10-10-|-7--7--9--9--10-10-9--9--7--7--9--9--10-10-9--9--|
G|-------------------------------------------------|-------------------------------------------------|
C|-------------------------------------------------|-------------------------------------------------|


D|-------------------------------------------------|-------------------------------------------------|
A|-------------------------------------------------|-------------------------------------------------|
F|-------10-10-9--9--------------------------------|-------------------------------------------10-10-|
C|-7--7--------------12-12-10-10-9--9--10-10-------|-7--7--9--9--10-10-12-12-10-10-9--9--10-10-------|
G|-------------------------------------------10-10-|-------------------------------------------------|
C|-------------------------------------------------|-------------------------------------------------|


D|-------------------------------------------------|-------------------------------------------------|
A|-------------------------------------------------|-------------------------------------------------|
F|-------9--9--10-10-12-12-10-10-9--9--------------|-------------------------------------------------|
C|-7--7--------------------------------12-12-10-10-|-7--7--9--9--10-10-9--9--7--7--9--9--10-10-9--9--|
G|-------------------------------------------------|-------------------------------------------------|
C|-------------------------------------------------|-------------------------------------------------|


D|-------------------------------------------------|-------------------------------------------------|
A|-------------------------------------------------|-------------------------------------------------|
F|-------10-10-9--9--------------------------------|-------------------------------------------10-10-|
C|-7--7--------------12-12-10-10-9--9--10-10-------|-7--7--9--9--10-10-12-12-10-10-9--9--10-10-------|
G|-------------------------------------------10-10-|-------------------------------------------------|
C|-------------------------------------------------|-------------------------------------------------|


D|-------------------------------------------------|-------------------------------------------------|
A|-------------------------------------------------|-------------------------------------------------|
F|-------9--9--10-10-12-12-10-10-9--9--------------|-------------------------------------------------|
C|-7--7--------------------------------12-12-10-10-|-7--7--9--9--10-10-9--9--7--7--9--9--10-10-9--9--|
G|-------------------------------------------------|-------------------------------------------------|
C|-------------------------------------------------|-------------------------------------------------|


D|-------------------------------------------------|-------------------------------------------------|
A|-------------------------------------------------|-------------------------------------------------|
F|-------10-10-9--9--------------------------------|-------------------------------------------10-10-|
C|-7--7--------------12-12-10-10-9--9--10-10-------|-7--7--9--9--10-10-12-12-10-10-9--9--10-10-------|
G|-------------------------------------------10-10-|-------------------------------------------------|
C|-------------------------------------------------|-------------------------------------------------|


D|-------------------------------------------------|----------------------|-------------------------------|
A|-------------------------------------------------|----------------------|-------------------------------|
F|-------9--9--10-10-12-12-10-10-9--9--------------|-2----2----2----------|-2----2----2----5----5----5----|
C|-7--7--------------------------------12-12-10-10-|-2----2----2----------|-2----2----2----5----5----5----|
G|-------------------------------------------------|-0----0----0----------|-0----0----0----3----3----3----|
C|-------------------------------------------------|----------------------|-------------------------------|


D|----------------------|-------------------------------|----------------------|-------------------------------|
A|----------------------|-------------------------------|----------------------|-------------------------------|
F|----------------------|-------------------------------|-2----2----2----------|-2----2----2----5----5----5----|
C|-3----3----3----------|-3----3----3----5----5----5----|-2----2----2----------|-2----2----2----5----5----5----|
G|-3----3----3----------|-3----3----3----5----5----5----|-0----0----0----------|-0----0----0----3----3----3----|
C|-3----3----3----------|-3----3----3----5----5----5----|----------------------|-------------------------------|


D|----------------------|-------------------------------|------------------------------------|
A|----------------------|-------------------------------|----------------------8---------8---|
F|----------------------|-------------------------------|----------------7--9------7--9------|
C|-3----3----3----------|-3----3----3----5----5----5----|-10---9----9------------------------|
G|-3----3----3----------|-3----3----3----5----5----5----|------------------------------------|
C|-3----3----3----------|-3----3----3----5----5----5----|------------------------------------|


D|---------------------|------------------------------------|---------------------|
A|---------------------|----------------------8---------8---|---------------------|
F|-12---10---9----10---|----------------7--9------7--9------|---------------------|
C|---------------------|-12---12---12-----------------------|-9----10---12---9----|
G|---------------------|------------------------------------|---------------------|
C|---------------------|------------------------------------|---------------------|


D|------------------------------------|---------------------|------------------------------------|
A|----------------------8---------8---|---------------------|----------------------8---------8---|
F|----------------7--9------7--9------|-12---10---9----10---|----------------7--9------7--9------|
C|-10---9----9------------------------|---------------------|-12---12---12-----------------------|
G|------------------------------------|---------------------|------------------------------------|
C|------------------------------------|---------------------|------------------------------------|


D|---------------------|---------------------------------|---------------------------------|
A|---------------------|---------------------------------|---------------------------------|
F|---------------------|-5---5---5---5---5---5---5---5---|-4---4---4---4---4---4---4---4---|
C|-9----10---12---9----|---------------------------------|---------------------------------|
G|---------------------|---------------------------------|---------------------------------|
C|---------------------|---------------------------------|---------------------------------|


D|---------------------------------|---------------------------------|---------------------------------|
A|---------------------------------|---------------------------------|---------------------------------|
F|-7---7---7---7---7---7---7---7---|-7---5---4-------5---4-----------|-5---5---5---5---5---5---5---5---|
C|---------------------------------|-------------7-----------5---7---|---------------------------------|
G|---------------------------------|---------------------------------|---------------------------------|
C|---------------------------------|---------------------------------|---------------------------------|


D|---------------------------------|---------------------------------|---------------------------------|
A|---------------------------------|---------------------------------|---------------------------------|
F|-4---4---4---4---4---4---4---4---|-7---7---7---7---7---7---7---7---|-7---5---4-------5---4-----------|
C|---------------------------------|---------------------------------|-------------7-----------5---7---|
G|---------------------------------|---------------------------------|---------------------------------|
C|---------------------------------|---------------------------------|---------------------------------|


D|---------------------------------|---------------------------------|---------------------------------|
A|---------------------------------|---------------------------------|---------------------------------|
F|-5---5---5---5---5---5---5---5---|-4---4---4---4---4---4---4---4---|-7---7---7---7---7---7---7---7---|
C|---------------------------------|---------------------------------|---------------------------------|
G|---------------------------------|---------------------------------|---------------------------------|
C|---------------------------------|---------------------------------|---------------------------------|


D|---------------------------------|---------------------------------|---------------------------------|
A|---------------------------------|---------------------------------|---------------------------------|
F|-7---5---4-------5---4-----------|-5---5---5---5---5---5---5---5---|-4---4---4---4---4---4---4---4---|
C|-------------7-----------5---7---|---------------------------------|---------------------------------|
G|---------------------------------|---------------------------------|---------------------------------|
C|---------------------------------|---------------------------------|---------------------------------|


D|---------------------------------|---------------------------------|-------------------------------------------------|
A|---------------------------------|---------------------------------|-------------------------------------------------|
F|-7---7---7---7---7---7---7---7---|-7---5---4-------5---4-----------|-------------------------------------------------|
C|---------------------------------|-------------7-----------5---7---|-3--3--3--3--3--3--3--3--6--6--6--6--6--6--6--6--|
G|---------------------------------|---------------------------------|-5--5--5--5--5--5--5--5--7--7--7--7--7--7--7--7--|
C|---------------------------------|---------------------------------|-------------------------------------------------|


D|--------|--------|--------|--------|--------|--------|--------|--------|-------------------------------------------------|
A|--------|--------|--------|--------|--------|--------|--------|--------|-------------------------------------------------|
F|--------|--------|--------|--------|--------|--------|--------|--------|-------------------------------------------------|
C|--------|--------|--------|--------|--------|--------|--------|--------|-10--9---7---10--9---7---10--9---7---10--9---7---|
G|--------|--------|--------|--------|--------|--------|--------|--------|-------------------------------------------------|
C|--------|--------|--------|--------|--------|--------|--------|--------|-------------------------------------------------|


D|-------------------------------------------------|-------------------------------------------------|
A|-------------------------------------------------|-------------------------------------------------|
F|-------------------------------------------------|-------------------------------------------------|
C|-7---5---3---7---5---3---7---5---3---7---5---3---|-9---7---5---9---7---5---9---7---5---9---7---5---|
G|-------------------------------------------------|-------------------------------------------------|
C|-------------------------------------------------|-------------------------------------------------|


D|-----------------------------------------|-------------------------------------------------|
A|-----------------------------------------|-------------------------------------------------|
F|-5---5--5--5---5--5----------------------|-------------------------------------------------|
C|---------------------6---6--6--6---6--6--|-10--9---7---10--9---7---10--9---7---10--9---7---|
G|-----------------------------------------|-------------------------------------------------|
C|-----------------------------------------|-------------------------------------------------|


D|-------------------------------------------------|-------------------------------------------------|
A|-------------------------------------------------|-------------------------------------------------|
F|-------------------------------------------------|-------------------------------------------------|
C|-7---5---3---7---5---3---7---5---3---7---5---3---|-9---7---5---9---7---5---9---7---5---9---7---5---|
G|-------------------------------------------------|-------------------------------------------------|
C|-------------------------------------------------|-------------------------------------------------|


D|-----------------------------------------|-----------------------------------------|
A|-----------------------------------------|-----------------------------------------|
F|-5---5--5--5---5--5----------------------|-9---7---5---9---7---5---10--9---7---9---|
C|---------------------6---6--6--6---6--6--|-----------------------------------------|
G|-----------------------------------------|-----------------------------------------|
C|-----------------------------------------|-----------------------------------------|


D|-----------------------------------------|-------------------------------------------------|
A|-----------------------------------------|-------------------------------------------------|
F|-5---4---2---5---4---2---9---7---5---7---|-7---5---4---7---5---4---7---5---4---7---5---4---|
C|-----------------------------------------|-------------------------------------------------|
G|-----------------------------------------|-------------------------------------------------|
C|-----------------------------------------|-------------------------------------------------|


D|-----------------------------------------|-----------------------------------------|
A|-----------------------------------------|-----------------------------------------|
F|-----------------------------------------|-9---7---5---9---7---5---10--9---7---9---|
C|-3---3--3--3---3--3--2---2--2--2---2--2--|-----------------------------------------|
G|-----------------------------------------|-----------------------------------------|
C|-----------------------------------------|-----------------------------------------|


D|-----------------------------------------|-------------------------------------------------|
A|-----------------------------------------|-------------------------------------------------|
F|-5---4---2---5---4---2---9---7---5---7---|-7---5---4---7---5---4---7---5---4---7---5---4---|
C|-----------------------------------------|-------------------------------------------------|
G|-----------------------------------------|-------------------------------------------------|
C|-----------------------------------------|-------------------------------------------------|


D|-----------------------------------------|---------------------------------|------------------------------|
A|-----------------------------------------|---------------------------------|------------------------------|
F|-----------------------------------------|---------------------------------|------------------------------|
C|-3---3--3--3---3--3--2---2--2--2---2--2--|-------------------------9-------|-7----7---7---7---7---7---7---|
G|-----------------------------------------|-0---0---0---0---0---0-------0---|------------------------------|
C|-----------------------------------------|---------------------------------|------------------------------|


D|---------------------------------|---------------------------------|------------------------------|
A|---------------------------------|---------------------------------|------------------------------|
F|---------------------------------|---------------------------------|------------------------------|
C|-5---5---5---5---5---5-------3---|---------2-------0---2-----------|-----------------9-------7----|
G|-------------------------0-------|-----0-------0-----------0---0---|-0---0---0---0-------0--------|
C|---------------------------------|---------------------------------|------------------------------|


D|---------------------------------|------------------------------|---------------------------------|
A|---------------------------------|------------------------------|---------------------------------|
F|---------------------------------|------------------------------|---------------------------------|
C|-7---7---7---7---7---7---5---5---|-5---5---5---5-------3--------|-2-------0---2-------------------|
G|---------------------------------|-----------------0--------0---|-----0-----------0---0---0---0---|
C|---------------------------------|------------------------------|---------------------------------|


D|------------------------------|---------------------------------|------------------------------|
A|------------------------------|---------------------------------|------------------------------|
F|------------------------------|---------------------------------|------------------------------|
C|---------9-------7----7---7---|-7---7---7---7---5---5---5---5---|-5---5-------3--------2-------|
G|-0---0-------0----------------|---------------------------------|---------0--------0-------0---|
C|------------------------------|---------------------------------|------------------------------|


D|---------------------------------|------------------------------|---------------------------------|
A|---------------------------------|------------------------------|---------------------------------|
F|---------------------------------|------------------------------|---------------------------------|
C|-0---2---------------------------|-9-------7----7---7---7---7---|-7---7---5---5---5---5---5---5---|
G|---------0---0---0---0---0---0---|-----0------------------------|---------------------------------|
C|---------------------------------|------------------------------|---------------------------------|


D|------------------------------|-------------------------------------|---------------------------------------|
A|------------------------------|-------------------------------------|---------------------------------------|
F|------------------------------|-5---------------------------4-------|---------------------5-----------------|
C|-----3--------2-------0---2---|-7---------------------------7-------|---------------------7-----------------|
G|-0--------0-------0-----------|-0---0---0--0--0---0--0--0---0---0---|-0--0--0---0--0--0---0---0---0--0--0---|
C|------------------------------|-------------------------------------|---------------------------------------|


D|-----------------------------|-------------------------------------|-------------------------------------|
A|-----------------------------|-------------------------------------|-------------------------------------|
F|-----------------------------|---------5---------------------------|-4---------------------------5-------|
C|-----------9--------10---12--|-10--9---7---------------------------|-7---------------------------7-------|
G|-0--0--0--------7------------|---------0---0---0--0--0---0--0--0---|-0---0---0--0--0---0--0--0---0---0---|
C|-----------------------------|-------------------------------------|-------------------------------------|


D|----------------------------------|-----------------------------------|---------------------------------------|
A|----------------------------------|-----------------------------------|---------------------------------------|
F|----------------------------------|-----------------5-----------------|-----------4---------------------------|
C|---------------------9--------10--|-----12--10--9-------7-------------|---------------5-----------------------|
G|-0--0--0---0--0--0--------7-------|-------------------------0--0--0---|-0--0--0-----------0--0--0---0--0--0---|
C|----------------------------------|-----------------------------------|---------------------------------------|


D|----------------------------------|------------------------------|---------------------------------------|
A|----------------------------------|------------------------------|---------------------------------------|
F|-7---------------------------0----|-0---2----4---2---0---5-------|---------------------4-----------------|
C|-----9----------------------------|--------------------------7---|-------------------------5-------------|
G|---------0--0--0---0--0--0--------|------------------------------|-0--0--0---0--0--0-----------0--0--0---|
C|----------------------------------|------------------------------|---------------------------------------|


D|---------------------------------------|---------------------------|-------------------------------------|
A|---------------------------------------|---------------------------|-------------------------------------|
F|-----------7---------------------------|-0----0---2----4---2---0---|-5---------------------------4-------|
C|---------------9-----------------------|---------------------------|-----7---------------------------5---|
G|-0--0--0-----------0--0--0---0--0--0---|---------------------------|---------0--0--0---0--0--0-----------|
C|---------------------------------------|---------------------------|-------------------------------------|


D|---------------------------------------|-----------------------------|-------------------------------------|
A|---------------------------------------|-----------------------------|-------------------------------------|
F|---------------------7-----------------|-----------0----0---2----4---|-2---0---5---------------------------|
C|-------------------------9-------------|-----------------------------|-------------7-----------------------|
G|-0--0--0---0--0--0-----------0--0--0---|-0--0--0---------------------|-----------------0--0--0---0--0--0---|
C|---------------------------------------|-----------------------------|-------------------------------------|


D|-------------------------------------|----------------------------------|------------------------------|
A|-------------------------------------|----------------------------------|------------------------------|
F|-4---------------------------7-------|---------------------0----0---2---|-----4---2---0---0----0---2---|
C|-----5---------------------------9---|----------------------------------|------------------------------|
G|---------0--0--0---0--0--0-----------|-0--0--0---0--0--0----------------|------------------------------|
C|-------------------------------------|----------------------------------|------------------------------|


D|-----------------3----3---5---|-----7---5---3---3----3---5---|-----7---5---3---------|
A|------------------------------|------------------------------|-----------------------|
F|-----4---2---0----------------|------------------------------|-----------------9-----|
C|------------------------------|------------------------------|-----------------10----|
G|------------------------------|------------------------------|-----------------------|
C|------------------------------|------------------------------|-----------------------|


D|-------------|-------------|--------|--------|--------|--------|--------|--------|
A|-------------|-------------|--------|--------|--------|--------|--------|--------|
F|-------9-----|-------9-----|--------|--------|--------|--------|--------|--------|
C|-------10----|-------10----|--------|--------|--------|--------|--------|--------|
G|-------------|-------------|--------|--------|--------|--------|--------|--------|
C|-------------|-------------|--------|--------|--------|--------|--------|--------|


D|--------|--------|--------|--------|--------|--------|--------|--------|--------|
A|--------|--------|--------|--------|--------|--------|--------|--------|--------|
F|--------|--------|--------|--------|--------|--------|--------|--------|--------|
C|--------|--------|--------|--------|--------|--------|--------|--------|--------|
G|--------|--------|--------|--------|--------|--------|--------|--------|--------|
C|--------|--------|--------|--------|--------|--------|--------|--------|--------|


D|--------|--------|--------|--------|--------|--------|--------|--------|--------|
A|--------|--------|--------|--------|--------|--------|--------|--------|--------|
F|--------|--------|--------|--------|--------|--------|--------|--------|--------|
C|--------|--------|--------|--------|--------|--------|--------|--------|--------|
G|--------|--------|--------|--------|--------|--------|--------|--------|--------|
C|--------|--------|--------|--------|--------|--------|--------|--------|--------|


D|--------|--------|--------|--------|--------|--------|--------|--------|--------|
A|--------|--------|--------|--------|--------|--------|--------|--------|--------|
F|--------|--------|--------|--------|--------|--------|--------|--------|--------|
C|--------|--------|--------|--------|--------|--------|--------|--------|--------|
G|--------|--------|--------|--------|--------|--------|--------|--------|--------|
C|--------|--------|--------|--------|--------|--------|--------|--------|--------|


D|--------|--------|--------|--------|----------------|---------------------|-------------|
A|--------|--------|--------|--------|----------------|---------------------|-------------|
F|--------|--------|--------|--------|-5------4---5---|-7----5----7----9----|-9-----10----|
C|--------|--------|--------|--------|----------------|---------------------|-------------|
G|--------|--------|--------|--------|----------------|---------------------|-------------|
C|--------|--------|--------|--------|----------------|---------------------|-------------|


D|--------------------|----------------|---------------------|-------------|--------------------|
A|--------------------|----------------|-10---8----6----8----|-8-----12----|-10----8----8---6---|
F|-9-----7----7---9---|-5------4---5---|---------------------|-------------|--------------------|
C|--------------------|----------------|---------------------|-------------|--------------------|
G|--------------------|----------------|---------------------|-------------|--------------------|
C|--------------------|----------------|---------------------|-------------|--------------------|


D|----------------|---------------------|-------------|--------------------|----------------|
A|----------------|---------------------|-------------|--------------------|----------------|
F|-5------4---5---|-7----5----7----9----|-9-----10----|-9-----7----7---9---|-5------4---5---|
C|----------------|---------------------|-------------|--------------------|----------------|
G|----------------|---------------------|-------------|--------------------|----------------|
C|----------------|---------------------|-------------|--------------------|----------------|


D|---------------------|-------------|--------------------|--------|--------|--------|
A|-10---8----6----8----|-8-----12----|-10----8----8---6---|--------|-6------|--------|
F|---------------------|-------------|--------------------|-5------|--------|-7------|
C|---------------------|-------------|--------------------|--------|--------|--------|
G|---------------------|-------------|--------------------|--------|--------|--------|
C|---------------------|-------------|--------------------|--------|--------|--------|


D|--------------------|--------|--------|--------|--------------------|---------------------------------|
A|--------------------|--------|-6------|--------|--------------------|---------------------------------|
F|-4-----5----7---5---|-5------|--------|-7------|-4-----5----7---5---|-5-----------5-------5-----------|
C|--------------------|--------|--------|--------|--------------------|-7-----------7-------7-----------|
G|--------------------|--------|--------|--------|--------------------|-----0---0-------0-------0---0---|
C|--------------------|--------|--------|--------|--------------------|---------------------------------|


D|---------------------------------|---------------------------------|---------------------------------|
A|---------------------------------|---------------------------------|---------------------------------|
F|-9-----------9-------9-----------|-7-----------7-------7-----------|-4-----------5-------7---5-------|
C|-10--10--10--10--10--10--10--10--|-9---9---9---9---9---9---9---9---|-6---6---6---7---7---9---7---7---|
G|---------------------------------|---------------------------------|---------------------------------|
C|---------------------------------|---------------------------------|---------------------------------|


D|---------------------------------|---------------------------------|---------------------------------|
A|---------------------------------|---------------------------------|---------------------------------|
F|-5-----------5-------5-----------|-9-----------9-------9-----------|-7-----------7-------7-----------|
C|-7-----------7-------7-----------|-10--10--10--10--10--10--10--10--|-9---9---9---9---9---9---9---9---|
G|-----0---0-------0-------0---0---|---------------------------------|---------------------------------|
C|---------------------------------|---------------------------------|---------------------------------|


D|---------------------------------|---------------------------------|---------------------------------|
A|---------------------------------|---------------------------------|---------------------------------|
F|-4-----------5-------7---5-------|-5-----------5-------5-----------|-9-----------9-------9-----------|
C|-6---6---6---7---7---9---7---7---|-7-----------7-------7-----------|-10--10--10--10--10--10--10--10--|
G|---------------------------------|-----0---0-------0-------0---0---|---------------------------------|
C|---------------------------------|---------------------------------|---------------------------------|


D|---------------------------------|---------------------------------|---------------------------------|
A|---------------------------------|---------------------------------|---------------------------------|
F|-7-----------7-------7-----------|-4-----------5-------7---5-------|-5-----------5-------5-----------|
C|-9---9---9---9---9---9---9---9---|-6---6---6---7---7---9---7---7---|-7-----------7-------7-----------|
G|---------------------------------|---------------------------------|-----0---0-------0-------0---0---|
C|---------------------------------|---------------------------------|---------------------------------|


D|---------------------------------|---------------------------------|---------------------------------|
A|---------------------------------|---------------------------------|---------------------------------|
F|-9-----------9-------9-----------|-7-----------7-------7-----------|-4-----------5-------7---5-------|
C|-10--10--10--10--10--10--10--10--|-9---9---9---9---9---9---9---9---|-6---6---6---7---7---9---7---7---|
G|---------------------------------|---------------------------------|---------------------------------|
C|---------------------------------|---------------------------------|---------------------------------|


D|---------------------------------|---------------------------------|---------------------------------|
A|---------------------------------|-13--12--10--13--12--10--13--12--|-15--13--12--15--13--12--15--13--|
F|-12--10--9---12--10--9---12--10--|---------------------------------|---------------------------------|
C|---------------------------------|---------------------------------|---------------------------------|
G|---------------------------------|---------------------------------|---------------------------------|
C|---------------------------------|---------------------------------|---------------------------------|


D|-17---15---13-12-----12--------|-----10------12------13----------|-----10------12------13----------|
A|-----------------15------13-12-|-10------10------10------10--12--|-10------10------10------10--13--|
F|-------------------------------|---------------------------------|---------------------------------|
C|-------------------------------|---------------------------------|---------------------------------|
G|-------------------------------|---------------------------------|---------------------------------|
C|-------------------------------|---------------------------------|---------------------------------|


D|-12------------------------------|-15--13--12--17-15-13-------------|--------|-----------------|
A|-----13------12--13--15--13------|----------------------15-13--10---|--------|-----------------|
F|---------14------------------14--|----------------------------------|--------|-----------------|
C|---------------------------------|----------------------------------|-7------|-7----7----------|
G|---------------------------------|----------------------------------|-7------|-7----7----------|
C|---------------------------------|----------------------------------|-7------|-7----7----------|


D|-----------------------------------|--------|-----------------|-----------------------------------|
A|-----------------------------------|--------|-----------------|-----------------------------------|
F|-----------------------------------|--------|-----------------|-----------------------------------|
C|-------------3----------------5----|-7------|-7----7----------|-------------3----------------5----|
G|-------------3----------------5----|-7------|-7----7----------|-------------3----------------5----|
C|-3--3--3--3--3----5--5--5--5--5----|-7------|-7----7----------|-3--3--3--3--3----5--5--5--5--5----|


D|---------------------------------|---------------------------------|-----------------------------------|
A|---------------------------------|---------------------------------|-----------------------------------|
F|---------------------------------|---------------------------------|-------------2----------------4----|
C|---------------------------------|---------------------------------|-----------------------------------|
G|---------7---8---7-----------7---|-8---7-----------7-------8---7---|-0--0--0--0--0----2--2--2--2--2----|
C|-7---7---------------7---7-------|---------7---7-------7-----------|-----------------------------------|


D|---------------------------------|---------------------------------|-----------------------------------|
A|---------------------------------|---------------------------------|-----------------------------------|
F|---------------------------------|---------------------------------|-------------2----------------4----|
C|---------------------------------|---------------------------------|-----------------------------------|
G|---------7---8---7-----------7---|-8---7-----------7-------8---7---|-0--0--0--0--0----2--2--2--2--2----|
C|-7---7---------------7---7-------|---------7---7-------7-----------|-----------------------------------|


D|---------------------------------|---------------------------------|-----------------------------------|
A|---------------------------------|---------------------------------|-----------------------------------|
F|---------------------------------|---------------------------------|-------------2----------------4----|
C|---------------------------------|---------------------------------|-----------------------------------|
G|---------7---8---7-----------7---|-8---7-----------7-------8---7---|-0--0--0--0--0----2--2--2--2--2----|
C|-7---7---------------7---7-------|---------7---7-------7-----------|-----------------------------------|


D|---------------------------------|---------------------------------|-----------------------------------|
A|---------------------------------|---------------------------------|-----------------------------------|
F|---------------------------------|---------------------------------|-------------2----------------4----|
C|---------------------------------|---------------------------------|-----------------------------------|
G|---------7---8---7-----------7---|-8---7-----------7-------8---7---|-0--0--0--0--0----2--2--2--2--2----|
C|-7---7---------------7---7-------|---------7---7-------7-----------|-----------------------------------|


D|---------------------|-----------------------------------|---------------------|
A|---------------------|-----------------------------------|---------------------|
F|---------------------|-----------------------------------|---------------------|
C|---------------------|-----------------------------------|---------------------|
G|-7----7----7----7----|-7--7--7--7--7----7--7--7--7--7----|-8----8----8----8----|
C|-7----7----7----7----|-7--7--7--7--7----7--7--7--7--7----|-7----7----7----7----|


D|-------------------------------------|---------------------|-----------------------------------|
A|-------------------------------------|---------------------|-----------------------------------|
F|-------------------------------------|---------------------|-----------------------------------|
C|-------------------------------------|---------------------|-----------------------------------|
G|-10----12-14-12-0--10-12-10-0--10-0--|-7----7----7----7----|-7--7--7--7--7----7--7--7--7--7----|
C|-7-----------------------------------|-7----7----7----7----|-7--7--7--7--7----7--7--7--7--7----|


D|---------------------|-------------------------------------|---------------------|
A|---------------------|-------------------------------------|---------------------|
F|---------------------|-------------------------------------|---------------------|
C|---------------------|-------------------------------------|---------------------|
G|-8----8----8----8----|-10----12-14-12-0--10-12-10-0--10-0--|-7----7----7----7----|
C|-7----7----7----7----|-7-----------------------------------|-7----7----7----7----|


D|-----------------------------------|---------------------|-------------------------------------|
A|-----------------------------------|---------------------|-------------------------------------|
F|-----------------------------------|---------------------|-------------------------------------|
C|-----------------------------------|---------------------|-------------------------------------|
G|-7--7--7--7--7----7--7--7--7--7----|-8----8----8----8----|-10----12-14-12-0--10-12-10-0--10-0--|
C|-7--7--7--7--7----7--7--7--7--7----|-7----7----7----7----|-7-----------------------------------|


D|---------------------------------|---------------------------------|---------------------------------|
A|---------------------------------|---------------------------------|-----------------10--8-----------|
F|---------9-------7-------7---5---|---------9-------7-------7---5---|---------9-------------------9---|
C|---------------------------------|---------------------------------|---------------------------------|
G|-0---0-------0-------0-----------|-0---0-------0-------0-----------|-8---8-------8-----------8-------|
C|---------------------------------|---------------------------------|---------------------------------|


D|---------------------------------|---------------------------------|---------------------------------|
A|---------------------------------|---------------------------------|---------------------------------|
F|---------10------9-------7---9---|---------9-------7-------7---5---|---------9-------7-------7---5---|
C|---------------------------------|---------------------------------|---------------------------------|
G|-10--10------10------10----------|-0---0-------0-------0-----------|-0---0-------0-------0-----------|
C|---------------------------------|---------------------------------|---------------------------------|


D|---------------------------------|---------------------------------|--------|-------------|
A|-----------------10--8-----------|---------------------------------|--------|-------------|
F|---------9-------------------9---|---------10------9-------7---9---|--------|-------------|
C|---------------------------------|---------------------------------|-7------|-7-----------|
G|-8---8-------8-----------8-------|-10--10------10------10----------|-7------|-7-----------|
C|---------------------------------|---------------------------------|-7------|-7-----------|





Track 3: bass

F|--------|--------|--------|--------|--------|--------|--------|--------|--------------------|
C|--------|--------|--------|--------|--------|--------|--------|--------|--------------------|
G|-0------|--------|--------|--------|-0------|--------|--------|--------|-0-----0---0---0----|
C|--------|-3------|-5------|-2------|--------|-3------|-5------|-2------|--------------------|


F|--------------------|--------------------|--------------------|--------------------|
C|--------------------|--------------------|--------------------|--------------------|
G|--------------------|--------------------|--------------------|-0-----0---0---0----|
C|-3-----3---3---3----|-5-----5---5---5----|-2-----2---2---2----|--------------------|


F|--------------------|--------------------|--------------------|--------------------|
C|--------------------|--------------------|--------------------|--------------------|
G|--------------------|--------------------|--------------------|-0-----0---0---0----|
C|-3-----3---3---3----|-5-----5---5---5----|-2-----2---2---2----|--------------------|


F|--------------------|--------------------|--------------------|--------------------|
C|--------------------|--------------------|--------------------|--------------------|
G|--------------------|--------------------|--------------------|-0-----0---0---0----|
C|-3-----3---3---3----|-5-----5---5---5----|-2-----2---2---2----|--------------------|


F|--------------------|--------------------|---------------------------------|---------------------------------|
C|--------------------|--------------------|---------------------------------|---------------------------------|
G|--------------------|--------------------|---------------------------------|-----------------8-------8---8---|
C|-3-----3---3---3----|-5-----5---5---5----|-2---2---2---2---2---2---2---2---|-7---7---7---7-------7-----------|


F|---------------------------------|---------------------------------|---------------------------------|
C|---------------------------------|---------------------------------|---------------------------------|
G|-----------------7-------7---7---|-----------------5-------5---5---|-----------------7-------7---7---|
C|-5---5---5---5-------5-----------|-3---3---3---3-------3-----------|-5---5---5---5-------5-----------|


F|---------------------------------|---------------------------------|---------------------------------|
C|---------------------------------|---------------------------------|---------------------------------|
G|-----------------8-------8---8---|-----------------7-------7---7---|-----------------5-------5---5---|
C|-7---7---7---7-------7-----------|-5---5---5---5-------5-----------|-3---3---3---3-------3-----------|


F|---------------------------------|---------------------------------|---------------------------------|
C|---------------------------------|---------------------------------|---------------------------------|
G|-----------------7-------7---7---|-----------------8-------8---8---|-----------------7-------7---7---|
C|-5---5---5---5-------5-----------|-7---7---7---7-------7-----------|-5---5---5---5-------5-----------|


F|---------------------------------|---------------------------------|---------------------------------|
C|---------------------------------|---------------------------------|---------------------------------|
G|-----------------5-------5---5---|-----------------7-------7---7---|-----------------8-------8---8---|
C|-3---3---3---3-------3-----------|-5---5---5---5-------5-----------|-7---7---7---7-------7-----------|


F|---------------------------------|---------------------------------|---------------------------------|
C|---------------------------------|---------------------------------|---------------------------------|
G|-----------------7-------7---7---|-----------------5-------5---5---|-----------------7-------7---7---|
C|-5---5---5---5-------5-----------|-3---3---3---3-------3-----------|-5---5---5---5-------5-----------|


F|--------|--------|--------|-------------|-------------|-------------|-----------------|
C|--------|--------|--------|-------------|-------------|-------------|-----------------|
G|--------|--------|--------|-------------|-------------|-------------|-----------------|
C|-7------|-5------|-3------|-0-----2-----|-7-----------|-------------|-----------7-----|


F|------------------------|-------------------------------------------------|-------------------------------------------------|
C|------------------------|-------------------------------------------------|-------------------------------------------------|
G|------------------------|-------------------------------------------------|-------------------------8--8--8--8--7--7--7--7--|
C|-------7----7--7--7--7--|-7--7--7--7--7--7--7--7--7--7--7--7--7--7--7--7--|-7--7--7--7--7--7--7--7--------------------------|


F|-------------------------------------------------|-------------------------------------------------|
C|-------------------------3--3--3--3--2--2--2--2--|-------------------------------------------------|
G|-------------------------------------------------|-------------------------7--7--7--7--8--8--8--8--|
C|-3--3--3--3--3--3--3--3--------------------------|-5--5--5--5--5--5--5--5--------------------------|


F|-------------------------------------------------|-------------------------------------------------|
C|-------------3--3--3--3--------------2--2--2--2--|-------------------------------------------------|
G|-------------------------------------------------|-------------------------8--8--8--8--7--7--7--7--|
C|-0--0--0--0--------------2--2--2--2--------------|-7--7--7--7--7--7--7--7--------------------------|


F|-------------------------------------------------|-------------------------------------------------|
C|-------------------------3--3--3--3--2--2--2--2--|-------------------------------------------------|
G|-------------------------------------------------|-------------------------7--7--7--7--8--8--8--8--|
C|-3--3--3--3--3--3--3--3--------------------------|-5--5--5--5--5--5--5--5--------------------------|


F|-------------------------------------------------|-------------------------------------------------|
C|-------------3--3--3--3--------------2--2--2--2--|-------------------------------------------------|
G|-------------------------------------------------|-------------------------8--8--8--8--7--7--7--7--|
C|-0--0--0--0--------------2--2--2--2--------------|-7--7--7--7--7--7--7--7--------------------------|


F|-------------------------------------------------|-------------------------------------------------|
C|-------------------------3--3--3--3--2--2--2--2--|-------------------------------------------------|
G|-------------------------------------------------|-------------------------7--7--7--7--8--8--8--8--|
C|-3--3--3--3--3--3--3--3--------------------------|-5--5--5--5--5--5--5--5--------------------------|


F|-------------------------------------------------|-------------------------------------------------|
C|-------------3--3--3--3--------------2--2--2--2--|-------------------------------------------------|
G|-------------------------------------------------|-------------------------8--8--8--8--7--7--7--7--|
C|-0--0--0--0--------------2--2--2--2--------------|-7--7--7--7--7--7--7--7--------------------------|


F|-------------------------------------------------|-------------------------------------------------|
C|-------------------------3--3--3--3--2--2--2--2--|-------------------------------------------------|
G|-------------------------------------------------|-------------------------7--7--7--7--8--8--8--8--|
C|-3--3--3--3--3--3--3--3--------------------------|-5--5--5--5--5--5--5--5--------------------------|


F|-------------------------------------------------|----------------------|----------------------------------------|
C|-------------3--3--3--3--------------2--2--2--2--|----------------------|----------------------------------------|
G|-------------------------------------------------|-0----0----0----------|-0--0--0--0--0--0--0--0--3----3----3----|
C|-0--0--0--0--------------2--2--2--2--------------|----------------------|----------------------------------------|


F|----------------------|----------------------------------------|----------------------|
C|----------------------|----------------------------------------|----------------------|
G|----------------------|----------------------------------------|-0----0----0----------|
C|-3----3----3----------|-3--3--3--3--3--3--3--3--5----5----5----|----------------------|


F|----------------------------------------|----------------------|----------------------------------------|
C|----------------------------------------|----------------------|----------------------------------------|
G|-0--0--0--0--0--0--0--0--3----3----3----|----------------------|----------------------------------------|
C|----------------------------------------|-3----3----3----------|-3--3--3--3--3--3--3--3--5----5----5----|


F|----------------------|----------------------------------------|----------------------|
C|----------------------|----------------------------------------|----------------------|
G|-0----0----0----------|-0--0--0--0--0--0--0--0--3----3----3----|----------------------|
C|----------------------|----------------------------------------|-3----3----3----------|


F|----------------------------------------|----------------------|----------------------------------------|
C|----------------------------------------|----------------------|----------------------------------------|
G|----------------------------------------|-0----0----0----------|-0--0--0--0--0--0--0--0--3----3----3----|
C|-3--3--3--3--3--3--3--3--5----5----5----|----------------------|----------------------------------------|


F|----------------------|----------------------------------------|---------------------------------|
C|----------------------|----------------------------------------|---------------------------------|
G|----------------------|----------------------------------------|---------------------------------|
C|-3----3----3----------|-3--3--3--3--3--3--3--3--5----5----5----|-7---7---7---7---7---7---7---7---|


F|---------------------------------|---------------------------------|---------------------------------|
C|---------------------------------|---------------------------------|---------------------------------|
G|---------------------------------|---------------------------------|---------------------------------|
C|-7---7---7---7---7---7---7---7---|-3---3---3---3---3---3---3---3---|-3---3---3---3---3---3---3---3---|


F|---------------------------------|---------------------------------|---------------------------------|
C|---------------------------------|---------------------------------|---------------------------------|
G|---------------------------------|---------------------------------|---------------------------------|
C|-7---7---7---7---7---7---7---7---|-7---7---7---7---7---7---7---7---|-3---3---3---3---3---3---3---3---|


F|---------------------------------|---------------------------------|---------------------------------|
C|---------------------------------|---------------------------------|---------------------------------|
G|---------------------------------|---------------------------------|---------------------------------|
C|-3---3---3---3---3---3---3---3---|-7---7---7---7---7---7---7---7---|-7---7---7---7---7---7---7---7---|


F|---------------------------------|---------------------------------|---------------------------------|
C|---------------------------------|---------------------------------|---------------------------------|
G|---------------------------------|---------------------------------|---------------------------------|
C|-3---3---3---3---3---3---3---3---|-3---3---3---3---3---3---3---3---|-7---7---7---7---7---7---7---7---|


F|---------------------------------|---------------------------------|---------------------------------|
C|---------------------------------|---------------------------------|---------------------------------|
G|---------------------------------|---------------------------------|---------------------------------|
C|-7---7---7---7---7---7---7---7---|-3---3---3---3---3---3---3---3---|-3---3---3---3---3---3---3---3---|


F|-------------------------------------------------|-------------------------------------------------|
C|-------------------------------------------------|-------------------------------------------------|
G|-------------------------------------------------|-------------------------------------------------|
C|-0--0--0--0--0--0--0--0--2--2--2--2--2--2--2--2--|-7--7--7--7--7--7--7--7--7--7--7--7--7--7--7--7--|


F|-------------------------------------------------|-------------------------------------------------|
C|-------------------------------------------------|-------------------------------------------------|
G|-------------------------------------------------|-------------------------------------------------|
C|-3--3--3--3--3--3--3--3--3--3--3--3--3--3--3--3--|-5--5--5--5--5--5--5--5--5--5--5--5--5--5--5--5--|


F|-------------------------------------------------|-------------------------------------------------|
C|-------------------------------------------------|-------------------------------------------------|
G|-------------------------------------------------|-------------------------------------------------|
C|-0--0--0--0--0--0--0--0--2--2--2--2--2--2--2--2--|-7--7--7--7--7--7--7--7--7--7--7--7--7--7--7--7--|


F|-------------------------------------------------|-------------------------------------------------|
C|-------------------------------------------------|-------------------------------------------------|
G|-------------------------------------------------|-------------------------------------------------|
C|-3--3--3--3--3--3--3--3--3--3--3--3--3--3--3--3--|-5--5--5--5--5--5--5--5--5--5--5--5--5--5--5--5--|


F|-------------------------------------------------|-------------------------------------------------|
C|-------------------------------------------------|-------------------------------------------------|
G|-------------------------------------------------|-------------------------------------------------|
C|-0--0--0--0--0--0--0--0--2--2--2--2--2--2--2--2--|-7--7--7--7--7--7--7--7--7--7--7--7--7--7--7--7--|


F|-------------------------------------------------|-------------------------------------------------|
C|-------------------------------------------------|-------------------------------------------------|
G|-------------------------------------------------|-------------------------------------------------|
C|-3--3--3--3--3--3--3--3--3--3--3--3--3--3--3--3--|-5--5--5--5--5--5--5--5--5--5--5--5--5--5--5--5--|


F|-------------------------------------------------|-------------------------------------------------|
C|-------------------------------------------------|-------------------------------------------------|
G|-------------------------------------------------|-------------------------------------------------|
C|-0--0--0--0--0--0--0--0--2--2--2--2--2--2--2--2--|-7--7--7--7--7--7--7--7--7--7--7--7--7--7--7--7--|


F|-------------------------------------------------|-------------------------------------------------|
C|-------------------------------------------------|-------------------------------------------------|
G|-------------------------------------------------|-------------------------------------------------|
C|-3--3--3--3--3--3--3--3--3--3--3--3--3--3--3--3--|-5--5--5--5--5--5--5--5--5--5--5--5--5--5--5--5--|


F|-------------------------------------------------|-------------------------------------------------|
C|-------------------------------------------------|-------------------------------------------------|
G|-------------------------------------------------|-------------------------------------------------|
C|-0--0--0--0--0--0--0--0--2--2--2--2--2--2--2--2--|-7--7--7--7--7--7--7--7--7--7--7--7--7--7--7--7--|


F|-------------------------------------------------|-------------------------------------------------|
C|-------------------------------------------------|-------------------------------------------------|
G|-------------------------------------------------|-------------------------------------------------|
C|-5--5--5--5--5--5--5--5--5--5--5--5--5--5--5--5--|-3--3--3--3--3--3--3--3--3--3--3--3--3--3--3--3--|


F|-------------------------------------------------|-------------------------------------------------|
C|-------------------------------------------------|-------------------------------------------------|
G|-------------------------------------------------|-------------------------------------------------|
C|-5--5--5--5--5--5--5--5--5--5--5--5--5--5--5--5--|-7--7--7--7--7--7--7--7--7--7--7--7--7--7--7--7--|


F|-------------------------------------------------|-------------------------------------------------|
C|-------------------------------------------------|-------------------------------------------------|
G|-------------------------------------------------|-------------------------------------------------|
C|-5--5--5--5--5--5--5--5--5--5--5--5--5--5--5--5--|-3--3--3--3--3--3--3--3--3--3--3--3--3--3--3--3--|


F|-------------------------------------------------|---------------------------------|
C|-------------------------------------------------|-------------------------5-------|
G|-------------------------------------------------|-0---0---0---0---0---0-------0---|
C|-5--5--5--5--5--5--5--5--5--5--5--5--5--5--5--5--|---------------------------------|


F|------------------------------|---------------------------------|---------------------------------|
C|-3----3---3---3---3---3---3---|-2---2---2---2---2---2-------0---|---------------------------------|
G|------------------------------|-------------------------0-------|-----0---3---0---2---3---0---0---|
C|------------------------------|---------------------------------|---------------------------------|


F|------------------------------|---------------------------------|------------------------------|
C|-----------------5-------3----|-3---3---3---3---3---3---2---2---|-2---2---2---2-------0--------|
G|-0---0---0---0-------0--------|---------------------------------|-----------------0--------0---|
C|------------------------------|---------------------------------|------------------------------|


F|---------------------------------|------------------------------|---------------------------------|
C|---------------------------------|---------5-------3----3---3---|-3---3---3---3---2---2---2---2---|
G|-3---0---2---3---0---0---0---0---|-0---0-------0----------------|---------------------------------|
C|---------------------------------|------------------------------|---------------------------------|


F|------------------------------|---------------------------------|------------------------------|
C|-2---2-------0----------------|---------------------------------|-5-------3----3---3---3---3---|
G|---------0--------0---3---0---|-2---3---0---0---0---0---0---0---|-----0------------------------|
C|------------------------------|---------------------------------|------------------------------|


F|---------------------------------|------------------------------|-------------------------------------|
C|-3---3---2---2---2---2---2---2---|-----0------------------------|-------------------------------------|
G|---------------------------------|-0--------0---3---0---2---3---|-0---0---0--0--0---0--0--0---0---0---|
C|---------------------------------|------------------------------|-------------------------------------|


F|---------------------------------------|-----------------------------|-------------------------------------|
C|---------------------------------------|-----------------------------|-------------------------------------|
G|-0--0--0---0--0--0---0---0---0--0--0---|-0--0--0---------------------|---------0---0---0--0--0---0--0--0---|
C|---------------------------------------|-----------2-------------5---|-3---2-------------------------------|


F|-------------------------------------|----------------------------------|-----------------------------------|
C|-------------------------------------|----------------------------------|-----------------------------------|
G|-0---0---0--0--0---0--0--0---0---0---|-0--0--0---0--0--0----------------|-----------------0---0---0--0--0---|
C|-------------------------------------|---------------------2------------|-----5---3---2---------------------|


F|---------------------------------------|----------------------------------|------------------------------|
C|---------------------------------------|----------------------------------|------------------------------|
G|-0--0--0---0---0---0--0--0---0--0--0---|-0---0---0--0--0---0--0--0--------|----------------------0---0---|
C|---------------------------------------|-----------------------------2----|----------5---3---2-----------|


F|---------------------------------------|---------------------------------------|
C|---------------------------------------|---------------------------------------|
G|-0--0--0---0--0--0---0---0---0--0--0---|-0--0--0---0---0---0--0--0---0--0--0---|
C|---------------------------------------|---------------------------------------|


F|---------------------------|-------------------------------------|---------------------------------------|
C|---------------------------|-------------------------------------|---------------------------------------|
G|---------------------------|-0---0---0--0--0---0--0--0---0---0---|-0--0--0---0--0--0---0---0---0--0--0---|
C|-2-------------5---3---2---|-------------------------------------|---------------------------------------|


F|-----------------------------|-------------------------------------|-------------------------------------|
C|-----------------------------|-------------------------------------|-------------------------------------|
G|-0--0--0---------------------|---------0---0---0--0--0---0--0--0---|-0---0---0--0--0---0--0--0---0---0---|
C|-----------2-------------5---|-3---2-------------------------------|-------------------------------------|


F|----------------------------------|------------------------------|------------------------------|
C|----------------------------------|------------------------------|-----------------2------------|
G|-0--0--0---0--0--0----------------|------------------------------|------------------------------|
C|---------------------2------------|-----5---3---2---2------------|-----5---3---2----------------|


F|-----------------------|-------------|-------------|-------------|--------|--------|
C|-----5---3---2---------|-------------|-------------|-------------|--------|--------|
G|-----------------------|-------------|-------------|-------------|--------|--------|
C|-----------------------|-------7-----|-------7-----|-------7-----|--------|--------|


F|--------|--------|--------|--------|--------|--------|--------|--------|--------|
C|--------|--------|--------|--------|--------|--------|--------|--------|--------|
G|--------|--------|--------|--------|--------|--------|--------|--------|--------|
C|--------|--------|--------|--------|--------|--------|--------|--------|--------|


F|--------|--------|--------|--------|--------|--------|--------|--------|--------|
C|--------|--------|--------|--------|--------|--------|--------|--------|--------|
G|--------|--------|--------|--------|--------|--------|--------|--------|--------|
C|--------|--------|--------|--------|--------|--------|--------|--------|--------|


F|--------|--------|--------|--------|--------|--------|--------|--------|--------|
C|--------|--------|--------|--------|--------|--------|--------|--------|--------|
G|--------|--------|--------|--------|--------|--------|--------|--------|--------|
C|--------|--------|--------|--------|--------|--------|--------|--------|--------|


F|--------|--------|--------|--------|--------|--------|--------|--------|--------|
C|--------|--------|--------|--------|--------|--------|--------|--------|--------|
G|--------|--------|--------|--------|--------|--------|--------|--------|--------|
C|--------|--------|--------|--------|--------|--------|--------|--------|--------|


F|--------|--------|--------|--------|--------|--------|--------|--------|--------|
C|--------|--------|--------|--------|--------|--------|--------|--------|--------|
G|--------|--------|--------|--------|--------|--------|--------|--------|--------|
C|--------|--------|--------|--------|--------|--------|--------|--------|--------|


F|--------|--------|--------|--------|--------|--------|--------|--------|--------|
C|--------|--------|--------|--------|--------|--------|--------|--------|--------|
G|--------|--------|--------|--------|--------|--------|-0------|--------|--------|
C|--------|--------|--------|--------|--------|--------|--------|-3------|-5------|


F|--------|--------|--------|--------|--------|---------------------------------|---------------------------------|
C|--------|--------|--------|--------|--------|---------------------------------|-----------------3---2-----------|
G|--------|-0------|--------|--------|--------|-0---0---0---0---5---3---2---3---|-------------------------5---3---|
C|-2------|--------|-3------|-5------|-2------|---------------------------------|-3---3---3---3-------------------|


F|---------------------------------|---------------------------------|---------------------------------|
C|---------------------------------|---------------------------------|---------------------------------|
G|-----------------5---5---3---3---|---------------------------------|-0---0---0---0---5---3---2---3---|
C|-5---5---5---5-------------------|-2---2---2---2---2---2---2---2---|---------------------------------|


F|---------------------------------|---------------------------------|---------------------------------|
C|-----------------3---2-----------|---------------------------------|---------------------------------|
G|-------------------------5---3---|-----------------5---5---3---3---|---------------------------------|
C|-3---3---3---3-------------------|-5---5---5---5-------------------|-2---2---2---2---2---2---2---2---|


F|---------------------------------|---------------------------------|---------------------------------|
C|---------------------------------|-----------------3---2-----------|---------------------------------|
G|-0---0---0---0---5---3---2---3---|-------------------------5---3---|-----------------5---5---3---3---|
C|---------------------------------|-3---3---3---3-------------------|-5---5---5---5-------------------|


F|---------------------------------|---------------------------------|---------------------------------|
C|---------------------------------|---------------------------------|-----------------3---2-----------|
G|---------------------------------|-0---0---0---0---5---3---2---3---|-------------------------5---3---|
C|-2---2---2---2---2---2---2---2---|---------------------------------|-3---3---3---3-------------------|


F|---------------------------------|---------------------------------|---------------------------------|
C|---------------------------------|---------------------------------|---------------------------------|
G|-----------------5---5---3---3---|---------------------------------|---------------------------------|
C|-5---5---5---5-------------------|-2---2---2---2---2---2---2---2---|-7---7---7---7---7---7---7---7---|


F|---------------------------------|---------------------------------|---------------------------------|
C|---------------------------------|---------------------------------|---------------------------------|
G|---------------------------------|---------------------------------|---------------------------------|
C|-3---3---3---3---3---3---3---3---|-5---5---5---5---5---5---5---5---|-0---0---0---0---2---2---2---2---|


F|---------------------------------|---------------------------------|---------------------------------|
C|---------------------------------|---------------------------------|---------------------------------|
G|---------------------------------|---------------------------------|---------------------------------|
C|-7---7---7---7---7---7---7---7---|-3---3---3---3---3---3---3---3---|-5---5---5---5---5---5---5---5---|


F|---------------------------------|--------|--------|-------------|--------|--------|
C|---------------------------------|--------|--------|-------------|--------|--------|
G|---------------------------------|--------|--------|-------------|--------|--------|
C|-0---0---0---0---2---2---2---2---|-7------|-7------|-3-----5-----|-7------|-7------|


F|-------------|---------------------------------|---------------------------------|
C|-------------|---------------------------------|---------------------------------|
G|-------------|---------------------------------|---------------------------------|
C|-3-----5-----|-7---7---7---7---7---7---7---7---|-7---7---7---7---7---7---7---7---|


F|---------------------------------|---------------------------------|---------------------------------|
C|---------------------------------|---------------------------------|---------------------------------|
G|---------------------------------|---------------------------------|---------------------------------|
C|-3---3---3---3---5---5---5---5---|-7---7---7---7---7---7---7---7---|-7---7---7---7---7---7---7---7---|


F|---------------------------------|---------------------------------|---------------------------------|
C|---------------------------------|---------------------------------|---------------------------------|
G|---------------------------------|---------------------------------|---------------------------------|
C|-3---3---3---3---5---5---5---5---|-7---7---7---7---7---7---7---7---|-7---7---7---7---7---7---7---7---|


F|---------------------------------|---------------------------------|---------------------------------|
C|---------------------------------|---------------------------------|---------------------------------|
G|---------------------------------|---------------------------------|---------------------------------|
C|-3---3---3---3---5---5---5---5---|-7---7---7---7---7---7---7---7---|-7---7---7---7---7---7---7---7---|


F|---------------------------------|-------------------------------------------------|
C|---------------------------------|-------------------------------------------------|
G|---------------------------------|-------------------------------------------------|
C|-3---3---3---3---5---5---5---5---|-7--7--7--7--7--7--7--7--7--7--7--7--7--7--7--7--|


F|-------------------------------------------------|-------------------------------------------------|
C|-------------------------------------------------|-------------------------------------------------|
G|-------------------------------------------------|-------------------------------------------------|
C|-7--7--7--7--7--7--7--7--7--7--7--7--7--7--7--7--|-3--3--3--3--3--3--3--3--3--3--3--3--3--3--3--3--|


F|-------------------------------------------------|-------------------------------------------------|
C|-------------------------------------------------|-------------------------------------------------|
G|-------------------------------------------------|-------------------------------------------------|
C|-5--5--5--5--5--5--5--5--5--5--5--5--5--5--5--5--|-7--7--7--7--7--7--7--7--7--7--7--7--7--7--7--7--|


F|-------------------------------------------------|-------------------------------------------------|
C|-------------------------------------------------|-------------------------------------------------|
G|-------------------------------------------------|-------------------------------------------------|
C|-7--7--7--7--7--7--7--7--7--7--7--7--7--7--7--7--|-3--3--3--3--3--3--3--3--3--3--3--3--3--3--3--3--|


F|-------------------------------------------------|-------------------------------------------------|
C|-------------------------------------------------|-------------------------------------------------|
G|-------------------------------------------------|-------------------------------------------------|
C|-5--5--5--5--5--5--5--5--5--5--5--5--5--5--5--5--|-7--7--7--7--7--7--7--7--7--7--7--7--7--7--7--7--|


F|-------------------------------------------------|-------------------------------------------------|
C|-------------------------------------------------|-------------------------------------------------|
G|-------------------------------------------------|-------------------------------------------------|
C|-7--7--7--7--7--7--7--7--7--7--7--7--7--7--7--7--|-3--3--3--3--3--3--3--3--3--3--3--3--3--3--3--3--|


F|-------------------------------------------------|---------------------------------|
C|-------------------------------------------------|-----------------7-------7-------|
G|-------------------------------------------------|-0---0---0---0-------0-------0---|
C|-5--5--5--5--5--5--5--5--5--5--5--5--5--5--5--5--|---------------------------------|


F|---------------------------------|---------------------------------|---------------------------------|
C|-----------------7-------7-------|-----------------10------9-------|-----------------10------10--9---|
G|-0---0---0---0-------0-------0---|-8---8---8---8-------8-------8---|-10--10--10--10------10----------|
C|---------------------------------|---------------------------------|---------------------------------|


F|---------------------------------|---------------------------------|---------------------------------|
C|-----------------7-------7-------|-----------------7-------7-------|-----------------10------9-------|
G|-0---0---0---0-------0-------0---|-0---0---0---0-------0-------0---|-8---8---8---8-------8-------8---|
C|---------------------------------|---------------------------------|---------------------------------|


F|---------------------------------|--------|----------------|
C|-----------------10------10--9---|--------|----------------|
G|-10--10--10--10------10----------|--------|----------------|
C|---------------------------------|-7------|-7---7----------|





Track 4: clean

D|--------|--------|--------|--------|--------|--------|--------|--------|--------|
A|--------|--------|--------|--------|--------|--------|--------|--------|--------|
F|--------|--------|--------|--------|--------|--------|--------|--------|--------|
C|--------|--------|--------|--------|--------|--------|--------|--------|--------|
G|--------|--------|--------|--------|--------|--------|--------|--------|--------|
C|--------|--------|--------|--------|--------|--------|--------|--------|--------|


D|--------|--------|--------|--------|--------|--------|--------|--------|--------|
A|--------|--------|--------|--------|--------|--------|--------|--------|--------|
F|--------|--------|--------|--------|--------|--------|--------|--------|--------|
C|--------|--------|--------|--------|--------|--------|--------|--------|--------|
G|--------|--------|--------|--------|--------|--------|--------|--------|--------|
C|--------|--------|--------|--------|--------|--------|--------|--------|--------|


D|--------|--------|--------|--------|--------|--------|--------|--------|--------|
A|--------|--------|--------|--------|--------|--------|--------|--------|--------|
F|--------|--------|--------|--------|--------|--------|--------|--------|--------|
C|--------|--------|--------|--------|--------|--------|--------|--------|--------|
G|--------|--------|--------|--------|--------|--------|--------|--------|--------|
C|--------|--------|--------|--------|--------|--------|--------|--------|--------|


D|--------|--------|--------|--------|--------|--------|--------|--------|--------|
A|--------|--------|--------|--------|--------|--------|--------|--------|--------|
F|--------|--------|--------|--------|--------|--------|--------|--------|--------|
C|--------|--------|--------|--------|--------|--------|--------|--------|--------|
G|--------|--------|--------|--------|--------|--------|--------|--------|--------|
C|--------|--------|--------|--------|--------|--------|--------|--------|--------|


D|--------|--------|--------|--------|--------|--------|--------|--------|--------|
A|--------|--------|--------|--------|--------|--------|--------|--------|--------|
F|--------|--------|--------|--------|--------|--------|--------|--------|--------|
C|--------|--------|--------|--------|--------|--------|--------|--------|--------|
G|--------|--------|--------|--------|--------|--------|--------|--------|--------|
C|--------|--------|--------|--------|--------|--------|--------|--------|--------|


D|--------|--------|--------|--------|--------|--------|--------|--------|--------|
A|--------|--------|--------|--------|--------|--------|--------|--------|--------|
F|--------|--------|--------|--------|--------|--------|--------|--------|--------|
C|--------|--------|--------|--------|--------|--------|--------|--------|--------|
G|--------|--------|--------|--------|--------|--------|--------|--------|--------|
C|--------|--------|--------|--------|--------|--------|--------|--------|--------|


D|--------|--------|--------|--------|--------|--------|--------|--------|--------|
A|--------|--------|--------|--------|--------|--------|--------|--------|--------|
F|--------|--------|--------|--------|--------|--------|--------|--------|--------|
C|--------|--------|--------|--------|--------|--------|--------|--------|--------|
G|--------|--------|--------|--------|--------|--------|--------|--------|--------|
C|--------|--------|--------|--------|--------|--------|--------|--------|--------|


D|--------|--------|--------|--------|--------|--------|--------|--------|--------|
A|--------|--------|--------|--------|--------|--------|--------|--------|--------|
F|--------|--------|--------|--------|--------|--------|--------|--------|--------|
C|--------|--------|--------|--------|--------|--------|--------|--------|--------|
G|--------|--------|--------|--------|--------|--------|--------|--------|--------|
C|--------|--------|--------|--------|--------|--------|--------|--------|--------|


D|--------|--------|--------|--------|--------|--------|--------|--------|--------|
A|--------|--------|--------|--------|--------|--------|--------|--------|--------|
F|--------|--------|--------|--------|--------|--------|--------|--------|--------|
C|--------|--------|--------|--------|--------|--------|--------|--------|--------|
G|--------|--------|--------|--------|--------|--------|--------|--------|--------|
C|--------|--------|--------|--------|--------|--------|--------|--------|--------|


D|--------|--------|--------|--------|--------|--------|--------|--------|--------|
A|--------|--------|--------|--------|--------|--------|--------|--------|--------|
F|--------|--------|--------|--------|--------|--------|--------|--------|--------|
C|--------|--------|--------|--------|--------|--------|--------|--------|--------|
G|--------|--------|--------|--------|--------|--------|--------|--------|--------|
C|--------|--------|--------|--------|--------|--------|--------|--------|--------|


D|--------|--------|--------|--------|--------|--------|--------|--------|--------|
A|--------|--------|--------|--------|--------|--------|--------|--------|--------|
F|--------|--------|--------|--------|--------|--------|--------|--------|--------|
C|--------|--------|--------|--------|--------|--------|--------|--------|--------|
G|--------|--------|--------|--------|--------|--------|--------|--------|--------|
C|--------|--------|--------|--------|--------|--------|--------|--------|--------|


D|--------|--------|--------|--------|--------|--------|--------|--------|--------|
A|--------|--------|--------|--------|--------|--------|--------|--------|--------|
F|--------|--------|--------|--------|--------|--------|--------|--------|--------|
C|--------|--------|--------|--------|--------|--------|--------|--------|--------|
G|--------|--------|--------|--------|--------|--------|--------|--------|--------|
C|--------|--------|--------|--------|--------|--------|--------|--------|--------|


D|--------|--------|--------|--------|--------|--------|--------|--------|--------|
A|--------|--------|--------|--------|--------|--------|--------|--------|--------|
F|--------|--------|--------|--------|--------|--------|--------|--------|--------|
C|--------|--------|--------|--------|--------|--------|--------|--------|--------|
G|--------|--------|--------|--------|--------|--------|--------|--------|--------|
C|--------|--------|--------|--------|--------|--------|--------|--------|--------|


D|--------|--------|--------|--------|--------|--------|--------|--------|--------|
A|--------|--------|--------|--------|--------|--------|--------|--------|--------|
F|--------|--------|--------|--------|--------|--------|--------|--------|--------|
C|--------|--------|--------|--------|--------|--------|--------|--------|--------|
G|--------|--------|--------|--------|--------|--------|--------|--------|--------|
C|--------|--------|--------|--------|--------|--------|--------|--------|--------|


D|--------|--------|--------|--------|--------|--------|--------|--------|--------|
A|--------|--------|--------|--------|--------|--------|--------|--------|--------|
F|--------|--------|--------|--------|--------|--------|--------|--------|--------|
C|--------|--------|--------|--------|--------|--------|--------|--------|--------|
G|--------|--------|--------|--------|--------|--------|--------|--------|--------|
C|--------|--------|--------|--------|--------|--------|--------|--------|--------|


D|--------|--------|--------|--------|--------|--------|--------|--------|--------|
A|--------|--------|--------|--------|--------|--------|--------|--------|--------|
F|--------|--------|--------|--------|--------|--------|--------|--------|--------|
C|--------|--------|--------|--------|--------|--------|--------|--------|--------|
G|--------|--------|--------|--------|--------|--------|--------|--------|--------|
C|--------|--------|--------|--------|--------|--------|--------|--------|--------|


D|--------|--------|--------|--------|--------|--------|--------|--------|--------|
A|--------|--------|--------|--------|--------|--------|--------|--------|--------|
F|--------|--------|--------|--------|--------|--------|--------|--------|--------|
C|--------|--------|--------|--------|--------|--------|--------|--------|--------|
G|--------|--------|--------|--------|--------|--------|--------|--------|--------|
C|--------|--------|--------|--------|--------|--------|--------|--------|--------|


D|--------|--------|--------|--------|--------|--------|--------|--------|--------|
A|--------|--------|--------|--------|--------|--------|--------|--------|--------|
F|--------|--------|--------|--------|--------|--------|--------|--------|--------|
C|--------|--------|--------|--------|--------|--------|--------|--------|--------|
G|--------|--------|--------|--------|--------|--------|--------|--------|--------|
C|--------|--------|--------|--------|--------|--------|--------|--------|--------|


D|-------------|--------------------|--------------------|--------------------|--------------------|
A|-------------|--------------------|--------------------|--------------------|--------------------|
F|-------------|--------------------|--------------------|--------------------|--------------------|
C|-------7-----|-------7----7---7---|-7----7---7---3-----|-------5----5---5---|-0----2---2---7-----|
G|-------7-----|-------7----7---7---|-7----7---7---3-----|-------5----5---5---|-0----2---2---7-----|
C|-------7-----|-------7----7---7---|-7----7---7---3-----|-------5----5---5---|-0----2---2---7-----|


D|--------------------|--------------------|--------------------|--------------------|
A|--------------------|--------------------|--------------------|--------------------|
F|--------------------|--------------------|--------------------|--------------------|
C|-------7----7---7---|-7----7---7---3-----|-------5----5---5---|-0----2---2---7-----|
G|-------7----7---7---|-7----7---7---3-----|-------5----5---5---|-0----2---2---7-----|
C|-------7----7---7---|-7----7---7---3-----|-------5----5---5---|-0----2---2---7-----|


D|--------------------|--------------------|--------------------|--------------------|
A|--------------------|--------------------|--------------------|--------------------|
F|--------------------|--------------------|--------------------|--------------------|
C|-------7----7---7---|-7----7---7---3-----|-------5----5---5---|-0----2---2---7-----|
G|-------7----7---7---|-7----7---7---3-----|-------5----5---5---|-0----2---2---7-----|
C|-------7----7---7---|-7----7---7---3-----|-------5----5---5---|-0----2---2---7-----|


D|--------------------|--------------------|--------------------|------------------10--10------|
A|--------------------|--------------------|--------------------|--------------10----------10--|
F|--------------------|--------------------|--------------------|------------------------------|
C|-------7----7---7---|-7----7---7---3-----|-------5----5---5---|-0----2---2-------------------|
G|-------7----7---7---|-7----7---7---3-----|-------5----5---5---|-0----2---2-------------------|
C|-------7----7---7---|-7----7---7---3-----|-------5----5---5---|-0----2---2-------------------|


D|-10--10------10------10------10--|---------10--12--13----------13--|---------13------12--15--15--12--|
A|---------10------10------10------|-12--13--------------12--12------|-12--12------12------------------|
F|---------------------------------|---------------------------------|---------------------------------|
C|---------------------------------|---------------------------------|---------------------------------|
G|---------------------------------|---------------------------------|---------------------------------|
C|---------------------------------|---------------------------------|---------------------------------|


D|---------------------10--10------|-10--10------10------10------10--|---------10--12--13----------13--|
A|-15--15--13--12--10----------10--|---------10------10------10------|-12--13--------------12--12------|
F|---------------------------------|---------------------------------|---------------------------------|
C|---------------------------------|---------------------------------|---------------------------------|
G|---------------------------------|---------------------------------|---------------------------------|
C|---------------------------------|---------------------------------|---------------------------------|


D|---------13------12--15--15--12--|---------------------10--10------|-10--10------10------10------10--|
A|-12--12------12------------------|-15--15--13--12--10----------10--|---------10------10------10------|
F|---------------------------------|---------------------------------|---------------------------------|
C|---------------------------------|---------------------------------|---------------------------------|
G|---------------------------------|---------------------------------|---------------------------------|
C|---------------------------------|---------------------------------|---------------------------------|


D|---------10--12--13----------13--|---------13------12--15--15--12--|---------------------10--10------|
A|-12--13--------------12--12------|-12--12------12------------------|-15--15--13--12--10----------10--|
F|---------------------------------|---------------------------------|---------------------------------|
C|---------------------------------|---------------------------------|---------------------------------|
G|---------------------------------|---------------------------------|---------------------------------|
C|---------------------------------|---------------------------------|---------------------------------|


D|-10--10------10------10------10--|---------10--12--13----------13--|---------13------12--15--15--12--|
A|---------10------10------10------|-12--13--------------12--12------|-12--12------12------------------|
F|---------------------------------|---------------------------------|---------------------------------|
C|---------------------------------|---------------------------------|---------------------------------|
G|---------------------------------|---------------------------------|---------------------------------|
C|---------------------------------|---------------------------------|---------------------------------|


D|---------------------------------|---------------------------------|---------------------------|
A|-15--15--13--12------------------|---------------------------------|---------------------------|
F|-----------------5---5---5---5---|-5---5---5---5---5---5---5---5---|-5---5---5---5-------------|
C|-----------------3---3---3---3---|-3---3---3---3---3---3---3---3---|-3---3---3---3---5----5----|
G|-----------------3---3---3---3---|-3---3---3---3---3---3---3---3---|-3---3---3---3---5---------|
C|-----------------3---3---3---3---|-3---3---3---3---3---3---3---3---|-3---3---3---3---5---------|


D|---------------------|-------------|--------|--------|--------|--------|--------|
A|---------------------|-------------|--------|--------|--------|--------|--------|
F|---------------------|-------------|--------|--------|--------|--------|--------|
C|-5----5----7---------|-------------|--------|--------|--------|--------|--------|
G|-----------7---------|-------------|--------|--------|--------|--------|--------|
C|-----------7---------|-------------|--------|--------|--------|--------|--------|


D|--------|--------|--------|--------|--------|--------|--------|--------|--------|
A|--------|--------|--------|--------|--------|--------|--------|--------|--------|
F|--------|--------|--------|--------|--------|--------|--------|--------|--------|
C|--------|--------|--------|--------|--------|--------|--------|--------|--------|
G|--------|--------|--------|--------|--------|--------|--------|--------|--------|
C|--------|--------|--------|--------|--------|--------|--------|--------|--------|


D|--------|--------|--------|--------|--------|--------|--------|--------|--------|
A|--------|--------|--------|--------|--------|--------|--------|--------|--------|
F|--------|--------|--------|--------|--------|--------|--------|--------|--------|
C|--------|--------|--------|--------|--------|--------|--------|--------|--------|
G|--------|--------|--------|--------|--------|--------|--------|--------|--------|
C|--------|--------|--------|--------|--------|--------|--------|--------|--------|


D|--------|--------|--------|--------|--------|--------|--------|--------|--------|
A|--------|--------|--------|--------|--------|--------|--------|--------|--------|
F|--------|--------|--------|--------|--------|--------|--------|--------|--------|
C|--------|--------|--------|--------|--------|--------|--------|--------|--------|
G|--------|--------|--------|--------|--------|--------|--------|--------|--------|
C|--------|--------|--------|--------|--------|--------|--------|--------|--------|


D|--------|--------|--------|--------|--------|--------|--------|--------|--------|
A|--------|--------|--------|--------|--------|--------|--------|--------|--------|
F|--------|--------|--------|--------|--------|--------|--------|--------|--------|
C|--------|--------|--------|--------|--------|--------|--------|--------|--------|
G|--------|--------|--------|--------|--------|--------|--------|--------|--------|
C|--------|--------|--------|--------|--------|--------|--------|--------|--------|


D|--------|--------|--------|--------|--------|--------|--------|--------|--------|
A|--------|--------|--------|--------|--------|--------|--------|--------|--------|
F|--------|--------|--------|--------|--------|--------|--------|--------|--------|
C|--------|--------|--------|--------|--------|--------|--------|--------|--------|
G|--------|--------|--------|--------|--------|--------|--------|--------|--------|
C|--------|--------|--------|--------|--------|--------|--------|--------|--------|


D|--------|--------|--------|--------|--------|--------|--------|--------|--------|
A|--------|--------|--------|--------|--------|--------|--------|--------|--------|
F|--------|--------|--------|--------|--------|--------|--------|--------|--------|
C|--------|--------|--------|--------|--------|--------|--------|--------|--------|
G|--------|--------|--------|--------|--------|--------|--------|--------|--------|
C|--------|--------|--------|--------|--------|--------|--------|--------|--------|


D|--------|--------|--------|--------|--------|--------|--------|--------|--------|
A|--------|--------|--------|--------|--------|--------|--------|--------|--------|
F|--------|--------|--------|--------|--------|--------|--------|--------|--------|
C|--------|--------|--------|--------|--------|--------|--------|--------|--------|
G|--------|--------|--------|--------|--------|--------|--------|--------|--------|
C|--------|--------|--------|--------|--------|--------|--------|--------|--------|


D|--------|--------|--------|--------|--------|--------|--------|--------|--------|
A|--------|--------|--------|--------|--------|--------|--------|--------|--------|
F|--------|--------|--------|--------|--------|--------|--------|--------|--------|
C|--------|--------|--------|--------|--------|--------|--------|--------|--------|
G|--------|--------|--------|--------|--------|--------|--------|--------|--------|
C|--------|--------|--------|--------|--------|--------|--------|--------|--------|


D|--------|--------|--------|--------|--------|--------|--------|--------|--------|
A|--------|--------|--------|--------|--------|--------|--------|--------|--------|
F|--------|--------|--------|--------|--------|--------|--------|--------|--------|
C|--------|--------|--------|--------|--------|--------|--------|--------|--------|
G|--------|--------|--------|--------|--------|--------|--------|--------|--------|
C|--------|--------|--------|--------|--------|--------|--------|--------|--------|


D|--------|--------|
A|--------|--------|
F|--------|--------|
C|--------|--------|
G|--------|--------|
C|--------|--------|





Track 5: clean

D|--------|--------|--------|--------|--------|--------|--------|--------|--------|
A|--------|--------|--------|--------|--------|--------|--------|--------|--------|
F|--------|--------|--------|--------|--------|--------|--------|--------|--------|
C|--------|--------|--------|--------|--------|--------|--------|--------|--------|
G|--------|--------|--------|--------|--------|--------|--------|--------|--------|
C|--------|--------|--------|--------|--------|--------|--------|--------|--------|


D|--------|--------|--------|--------|--------|--------|--------|--------|--------|
A|--------|--------|--------|--------|--------|--------|--------|--------|--------|
F|--------|--------|--------|--------|--------|--------|--------|--------|--------|
C|--------|--------|--------|--------|--------|--------|--------|--------|--------|
G|--------|--------|--------|--------|--------|--------|--------|--------|--------|
C|--------|--------|--------|--------|--------|--------|--------|--------|--------|


D|--------|--------|--------|--------|--------|--------|--------|--------|--------|
A|--------|--------|--------|--------|--------|--------|--------|--------|--------|
F|--------|--------|--------|--------|--------|--------|--------|--------|--------|
C|--------|--------|--------|--------|--------|--------|--------|--------|--------|
G|--------|--------|--------|--------|--------|--------|--------|--------|--------|
C|--------|--------|--------|--------|--------|--------|--------|--------|--------|


D|--------|--------|--------|--------|--------|--------|--------|--------|--------|
A|--------|--------|--------|--------|--------|--------|--------|--------|--------|
F|--------|--------|--------|--------|--------|--------|--------|--------|--------|
C|--------|--------|--------|--------|--------|--------|--------|--------|--------|
G|--------|--------|--------|--------|--------|--------|--------|--------|--------|
C|--------|--------|--------|--------|--------|--------|--------|--------|--------|


D|--------|--------|--------|--------|--------|--------|--------|--------|--------|
A|--------|--------|--------|--------|--------|--------|--------|--------|--------|
F|--------|--------|--------|--------|--------|--------|--------|--------|--------|
C|--------|--------|--------|--------|--------|--------|--------|--------|--------|
G|--------|--------|--------|--------|--------|--------|--------|--------|--------|
C|--------|--------|--------|--------|--------|--------|--------|--------|--------|


D|--------|--------|--------|--------|--------|--------|--------|--------|--------|
A|--------|--------|--------|--------|--------|--------|--------|--------|--------|
F|--------|--------|--------|--------|--------|--------|--------|--------|--------|
C|--------|--------|--------|--------|--------|--------|--------|--------|--------|
G|--------|--------|--------|--------|--------|--------|--------|--------|--------|
C|--------|--------|--------|--------|--------|--------|--------|--------|--------|


D|--------|--------|--------|--------|--------|--------|--------|--------|--------|
A|--------|--------|--------|--------|--------|--------|--------|--------|--------|
F|--------|--------|--------|--------|--------|--------|--------|--------|--------|
C|--------|--------|--------|--------|--------|--------|--------|--------|--------|
G|--------|--------|--------|--------|--------|--------|--------|--------|--------|
C|--------|--------|--------|--------|--------|--------|--------|--------|--------|


D|--------|--------|--------|--------|--------|--------|--------|--------|--------|
A|--------|--------|--------|--------|--------|--------|--------|--------|--------|
F|--------|--------|--------|--------|--------|--------|--------|--------|--------|
C|--------|--------|--------|--------|--------|--------|--------|--------|--------|
G|--------|--------|--------|--------|--------|--------|--------|--------|--------|
C|--------|--------|--------|--------|--------|--------|--------|--------|--------|


D|--------|--------|--------|--------|--------|--------|--------|--------|--------|
A|--------|--------|--------|--------|--------|--------|--------|--------|--------|
F|--------|--------|--------|--------|--------|--------|--------|--------|--------|
C|--------|--------|--------|--------|--------|--------|--------|--------|--------|
G|--------|--------|--------|--------|--------|--------|--------|--------|--------|
C|--------|--------|--------|--------|--------|--------|--------|--------|--------|


D|--------|--------|--------|--------|--------|--------|--------|--------|--------|
A|--------|--------|--------|--------|--------|--------|--------|--------|--------|
F|--------|--------|--------|--------|--------|--------|--------|--------|--------|
C|--------|--------|--------|--------|--------|--------|--------|--------|--------|
G|--------|--------|--------|--------|--------|--------|--------|--------|--------|
C|--------|--------|--------|--------|--------|--------|--------|--------|--------|


D|--------|--------|--------|--------|--------|--------|--------|--------|--------|
A|--------|--------|--------|--------|--------|--------|--------|--------|--------|
F|--------|--------|--------|--------|--------|--------|--------|--------|--------|
C|--------|--------|--------|--------|--------|--------|--------|--------|--------|
G|--------|--------|--------|--------|--------|--------|--------|--------|--------|
C|--------|--------|--------|--------|--------|--------|--------|--------|--------|


D|--------|--------|--------|--------|--------|--------|--------|--------|--------|
A|--------|--------|--------|--------|--------|--------|--------|--------|--------|
F|--------|--------|--------|--------|--------|--------|--------|--------|--------|
C|--------|--------|--------|--------|--------|--------|--------|--------|--------|
G|--------|--------|--------|--------|--------|--------|--------|--------|--------|
C|--------|--------|--------|--------|--------|--------|--------|--------|--------|


D|--------|--------|--------|--------|--------|--------|--------|--------|--------|
A|--------|--------|--------|--------|--------|--------|--------|--------|--------|
F|--------|--------|--------|--------|--------|--------|--------|--------|--------|
C|--------|--------|--------|--------|--------|--------|--------|--------|--------|
G|--------|--------|--------|--------|--------|--------|--------|--------|--------|
C|--------|--------|--------|--------|--------|--------|--------|--------|--------|


D|--------|--------|--------|--------|--------|--------|--------|--------|--------|
A|--------|--------|--------|--------|--------|--------|--------|--------|--------|
F|--------|--------|--------|--------|--------|--------|--------|--------|--------|
C|--------|--------|--------|--------|--------|--------|--------|--------|--------|
G|--------|--------|--------|--------|--------|--------|--------|--------|--------|
C|--------|--------|--------|--------|--------|--------|--------|--------|--------|


D|--------|--------|--------|--------|--------|--------|--------|--------|--------|
A|--------|--------|--------|--------|--------|--------|--------|--------|--------|
F|--------|--------|--------|--------|--------|--------|--------|--------|--------|
C|--------|--------|--------|--------|--------|--------|--------|--------|--------|
G|--------|--------|--------|--------|--------|--------|--------|--------|--------|
C|--------|--------|--------|--------|--------|--------|--------|--------|--------|


D|--------|--------|--------|--------|--------|--------|--------|--------|--------|
A|--------|--------|--------|--------|--------|--------|--------|--------|--------|
F|--------|--------|--------|--------|--------|--------|--------|--------|--------|
C|--------|--------|--------|--------|--------|--------|--------|--------|--------|
G|--------|--------|--------|--------|--------|--------|--------|--------|--------|
C|--------|--------|--------|--------|--------|--------|--------|--------|--------|


D|--------|--------|--------|--------|--------|--------|--------|--------|--------|
A|--------|--------|--------|--------|--------|--------|--------|--------|--------|
F|--------|--------|--------|--------|--------|--------|--------|--------|--------|
C|--------|--------|--------|--------|--------|--------|--------|--------|--------|
G|--------|--------|--------|--------|--------|--------|--------|--------|--------|
C|--------|--------|--------|--------|--------|--------|--------|--------|--------|


D|--------|--------|--------|--------|--------|--------|--------|--------|--------|
A|--------|--------|--------|--------|--------|--------|--------|--------|--------|
F|--------|--------|--------|--------|--------|--------|--------|--------|--------|
C|--------|--------|--------|--------|--------|--------|--------|--------|--------|
G|--------|--------|--------|--------|--------|--------|--------|--------|--------|
C|--------|--------|--------|--------|--------|--------|--------|--------|--------|


D|-------------|------------------------|-----------------|-----------------8-----|
A|-------------|------------------------|-----------------|-6---5---6---5---------|
F|-------5-----|-5---7--------5-----7---|------9----------|-----------------------|
C|-------------|---------7--------------|-----------7-----|-----------------------|
G|-------------|------------------------|-----------------|-----------------------|
C|-------------|------------------------|-----------------|-----------------------|


D|-7-----------|------------------------|-----------------|-----------------8-----|
A|-------------|------------------------|-----------------|-6---5---6---5---------|
F|-------5-----|-5---7--------5-----7---|------9----------|-----------------------|
C|-------------|---------7--------------|-----------7-----|-----------------------|
G|-------------|------------------------|-----------------|-----------------------|
C|-------------|------------------------|-----------------|-----------------------|


D|-7-----------|------------------------|-----------------|-----------------8-----|
A|-------------|------------------------|-----------------|-6---5---6---5---------|
F|-------5-----|-5---7--------5-----7---|------9----------|-----------------------|
C|-------------|---------7--------------|-----------7-----|-----------------------|
G|-------------|------------------------|-----------------|-----------------------|
C|-------------|------------------------|-----------------|-----------------------|


D|-7-----------|------------------------|-----------------|-----------------8-----|
A|-------------|------------------------|-----------------|-6---5---6---5---------|
F|-------5-----|-5---7--------5-----7---|------9----------|-----------------------|
C|-------------|---------7--------------|-----------7-----|-----------------------|
G|-------------|------------------------|-----------------|-----------------------|
C|-------------|------------------------|-----------------|-----------------------|


D|-7-----------|------------------------|-----------------|-----------------8-----|
A|-------------|------------------------|-----------------|-6---5---6---5---------|
F|-------5-----|-5---7--------5-----7---|------9----------|-----------------------|
C|-------------|---------7--------------|-----------7-----|-----------------------|
G|-------------|------------------------|-----------------|-----------------------|
C|-------------|------------------------|-----------------|-----------------------|


D|-7-----------|------------------------|-----------------|-----------------8-----|
A|-------------|------------------------|-----------------|-6---5---6---5---------|
F|-------5-----|-5---7--------5-----7---|------9----------|-----------------------|
C|-------------|---------7--------------|-----------7-----|-----------------------|
G|-------------|------------------------|-----------------|-----------------------|
C|-------------|------------------------|-----------------|-----------------------|


D|-7-----------|------------------------|-----------------|-----------------8-----|
A|-------------|------------------------|-----------------|-6---5---6---5---------|
F|-------5-----|-5---7--------5-----7---|------9----------|-----------------------|
C|-------------|---------7--------------|-----------7-----|-----------------------|
G|-------------|------------------------|-----------------|-----------------------|
C|-------------|------------------------|-----------------|-----------------------|


D|-7-----------|------------------------|-----------------|-----------------8-----|
A|-------------|------------------------|-----------------|-6---5---6---5---------|
F|-------5-----|-5---7--------5-----7---|------9----------|-----------------------|
C|-------------|---------7--------------|-----------7-----|-----------------------|
G|-------------|------------------------|-----------------|-----------------------|
C|-------------|------------------------|-----------------|-----------------------|


D|-7---------------------|---------------------------------|---------------------------|
A|-----------------------|---------------------------------|---------------------------|
F|-------14--14--14--14--|-14--14--14--14--14--14--14--14--|-14--14--14--14------------|
C|-----------------------|---------------------------------|-----------------5---------|
G|-------12--12--12--12--|-12--12--12--12--12--12--12--12--|-12--12--12--12--5---------|
C|-----------------------|---------------------------------|-----------------5----5----|


D|---------------------|-------------|--------|--------|--------|--------|--------|
A|---------------------|-------------|--------|--------|--------|--------|--------|
F|---------------------|-------------|--------|--------|--------|--------|--------|
C|-----------7---------|-------------|--------|--------|--------|--------|--------|
G|-----------7---------|-------------|--------|--------|--------|--------|--------|
C|-5----5----7---------|-------------|--------|--------|--------|--------|--------|


D|--------|--------|--------|--------|--------|--------|--------|--------|--------|
A|--------|--------|--------|--------|--------|--------|--------|--------|--------|
F|--------|--------|--------|--------|--------|--------|--------|--------|--------|
C|--------|--------|--------|--------|--------|--------|--------|--------|--------|
G|--------|--------|--------|--------|--------|--------|--------|--------|--------|
C|--------|--------|--------|--------|--------|--------|--------|--------|--------|


D|--------|--------|--------|--------|--------|--------|--------|--------|--------|
A|--------|--------|--------|--------|--------|--------|--------|--------|--------|
F|--------|--------|--------|--------|--------|--------|--------|--------|--------|
C|--------|--------|--------|--------|--------|--------|--------|--------|--------|
G|--------|--------|--------|--------|--------|--------|--------|--------|--------|
C|--------|--------|--------|--------|--------|--------|--------|--------|--------|


D|--------|--------|--------|--------|--------|--------|--------|--------|--------|
A|--------|--------|--------|--------|--------|--------|--------|--------|--------|
F|--------|--------|--------|--------|--------|--------|--------|--------|--------|
C|--------|--------|--------|--------|--------|--------|--------|--------|--------|
G|--------|--------|--------|--------|--------|--------|--------|--------|--------|
C|--------|--------|--------|--------|--------|--------|--------|--------|--------|


D|--------|--------|--------|--------|--------|--------|--------|--------|--------|
A|--------|--------|--------|--------|--------|--------|--------|--------|--------|
F|--------|--------|--------|--------|--------|--------|--------|--------|--------|
C|--------|--------|--------|--------|--------|--------|--------|--------|--------|
G|--------|--------|--------|--------|--------|--------|--------|--------|--------|
C|--------|--------|--------|--------|--------|--------|--------|--------|--------|


D|--------|--------|--------|--------|--------|--------|--------|--------|--------|
A|--------|--------|--------|--------|--------|--------|--------|--------|--------|
F|--------|--------|--------|--------|--------|--------|--------|--------|--------|
C|--------|--------|--------|--------|--------|--------|--------|--------|--------|
G|--------|--------|--------|--------|--------|--------|--------|--------|--------|
C|--------|--------|--------|--------|--------|--------|--------|--------|--------|


D|--------|--------|--------|--------|--------|--------|--------|--------|--------|
A|--------|--------|--------|--------|--------|--------|--------|--------|--------|
F|--------|--------|--------|--------|--------|--------|--------|--------|--------|
C|--------|--------|--------|--------|--------|--------|--------|--------|--------|
G|--------|--------|--------|--------|--------|--------|--------|--------|--------|
C|--------|--------|--------|--------|--------|--------|--------|--------|--------|


D|--------|--------|--------|--------|--------|--------|--------|--------|--------|
A|--------|--------|--------|--------|--------|--------|--------|--------|--------|
F|--------|--------|--------|--------|--------|--------|--------|--------|--------|
C|--------|--------|--------|--------|--------|--------|--------|--------|--------|
G|--------|--------|--------|--------|--------|--------|--------|--------|--------|
C|--------|--------|--------|--------|--------|--------|--------|--------|--------|


D|--------|--------|--------|--------|--------|--------|--------|--------|--------|
A|--------|--------|--------|--------|--------|--------|--------|--------|--------|
F|--------|--------|--------|--------|--------|--------|--------|--------|--------|
C|--------|--------|--------|--------|--------|--------|--------|--------|--------|
G|--------|--------|--------|--------|--------|--------|--------|--------|--------|
C|--------|--------|--------|--------|--------|--------|--------|--------|--------|


D|--------|--------|--------|--------|--------|--------|--------|--------|--------|
A|--------|--------|--------|--------|--------|--------|--------|--------|--------|
F|--------|--------|--------|--------|--------|--------|--------|--------|--------|
C|--------|--------|--------|--------|--------|--------|--------|--------|--------|
G|--------|--------|--------|--------|--------|--------|--------|--------|--------|
C|--------|--------|--------|--------|--------|--------|--------|--------|--------|


D|--------|--------|
A|--------|--------|
F|--------|--------|
C|--------|--------|
G|--------|--------|
C|--------|--------|





Track 6: Rythem

D|--------|--------|--------|--------|--------|--------|--------|--------|--------|
A|--------|--------|--------|--------|--------|--------|--------|--------|--------|
F|--------|--------|--------|--------|--------|--------|--------|--------|--------|
C|--------|--------|--------|--------|--------|--------|--------|--------|--------|
G|--------|--------|--------|--------|--------|--------|--------|--------|--------|
C|--------|--------|--------|--------|--------|--------|--------|--------|--------|


D|--------|--------|--------|--------|--------|--------|--------|--------|--------|
A|--------|--------|--------|--------|--------|--------|--------|--------|--------|
F|--------|--------|--------|--------|--------|--------|--------|--------|--------|
C|--------|--------|--------|--------|--------|--------|--------|--------|--------|
G|--------|--------|--------|--------|--------|--------|--------|--------|--------|
C|--------|--------|--------|--------|--------|--------|--------|--------|--------|


D|--------|--------|--------|--------|--------|--------|--------|--------|--------|
A|--------|--------|--------|--------|--------|--------|--------|--------|--------|
F|--------|--------|--------|--------|--------|--------|--------|--------|--------|
C|--------|--------|--------|--------|--------|--------|--------|--------|--------|
G|--------|--------|--------|--------|--------|--------|--------|--------|--------|
C|--------|--------|--------|--------|--------|--------|--------|--------|--------|


D|--------|--------|--------|--------|--------|--------|--------|--------|--------|
A|--------|--------|--------|--------|--------|--------|--------|--------|--------|
F|--------|--------|--------|--------|--------|--------|--------|--------|--------|
C|--------|--------|--------|--------|--------|--------|--------|--------|--------|
G|--------|--------|--------|--------|--------|--------|--------|--------|--------|
C|--------|--------|--------|--------|--------|--------|--------|--------|--------|


D|--------|--------|--------|--------|--------|--------|--------|--------|--------|
A|--------|--------|--------|--------|--------|--------|--------|--------|--------|
F|--------|--------|--------|--------|--------|--------|--------|--------|--------|
C|--------|--------|--------|--------|--------|--------|--------|--------|--------|
G|--------|--------|--------|--------|--------|--------|--------|--------|--------|
C|--------|--------|--------|--------|--------|--------|--------|--------|--------|


D|--------|--------|--------|--------|--------|--------|--------|--------|--------|
A|--------|--------|--------|--------|--------|--------|--------|--------|--------|
F|--------|--------|--------|--------|--------|--------|--------|--------|--------|
C|--------|--------|--------|--------|--------|--------|--------|--------|--------|
G|--------|--------|--------|--------|--------|--------|--------|--------|--------|
C|--------|--------|--------|--------|--------|--------|--------|--------|--------|


D|--------|--------|--------|--------|--------|--------|--------|--------|--------|
A|--------|--------|--------|--------|--------|--------|--------|--------|--------|
F|--------|--------|--------|--------|--------|--------|--------|--------|--------|
C|--------|--------|--------|--------|--------|--------|--------|--------|--------|
G|--------|--------|--------|--------|--------|--------|--------|--------|--------|
C|--------|--------|--------|--------|--------|--------|--------|--------|--------|


D|--------|--------|--------|--------|--------|--------|--------|--------|--------|
A|--------|--------|--------|--------|--------|--------|--------|--------|--------|
F|--------|--------|--------|--------|--------|--------|--------|--------|--------|
C|--------|--------|--------|--------|--------|--------|--------|--------|--------|
G|--------|--------|--------|--------|--------|--------|--------|--------|--------|
C|--------|--------|--------|--------|--------|--------|--------|--------|--------|


D|--------|--------|--------|--------|--------|--------|--------|--------|--------|
A|--------|--------|--------|--------|--------|--------|--------|--------|--------|
F|--------|--------|--------|--------|--------|--------|--------|--------|--------|
C|--------|--------|--------|--------|--------|--------|--------|--------|--------|
G|--------|--------|--------|--------|--------|--------|--------|--------|--------|
C|--------|--------|--------|--------|--------|--------|--------|--------|--------|


D|--------|--------|--------|--------|--------|--------|--------|--------|--------|
A|--------|--------|--------|--------|--------|--------|--------|--------|--------|
F|--------|--------|--------|--------|--------|--------|--------|--------|--------|
C|--------|--------|--------|--------|--------|--------|--------|--------|--------|
G|--------|--------|--------|--------|--------|--------|--------|--------|--------|
C|--------|--------|--------|--------|--------|--------|--------|--------|--------|


D|--------|--------|--------|--------|--------|--------|--------|--------|--------|
A|--------|--------|--------|--------|--------|--------|--------|--------|--------|
F|--------|--------|--------|--------|--------|--------|--------|--------|--------|
C|--------|--------|--------|--------|--------|--------|--------|--------|--------|
G|--------|--------|--------|--------|--------|--------|--------|--------|--------|
C|--------|--------|--------|--------|--------|--------|--------|--------|--------|


D|--------|--------|--------|--------|--------|--------|--------|--------|--------|
A|--------|--------|--------|--------|--------|--------|--------|--------|--------|
F|--------|--------|--------|--------|--------|--------|--------|--------|--------|
C|--------|--------|--------|--------|--------|--------|--------|--------|--------|
G|--------|--------|--------|--------|--------|--------|--------|--------|--------|
C|--------|--------|--------|--------|--------|--------|--------|--------|--------|


D|--------|--------|--------|--------|--------|--------|--------|--------|--------|
A|--------|--------|--------|--------|--------|--------|--------|--------|--------|
F|--------|--------|--------|--------|--------|--------|--------|--------|--------|
C|--------|--------|--------|--------|--------|--------|--------|--------|--------|
G|--------|--------|--------|--------|--------|--------|--------|--------|--------|
C|--------|--------|--------|--------|--------|--------|--------|--------|--------|


D|--------|--------|--------|--------|--------|--------|--------|--------|--------|
A|--------|--------|--------|--------|--------|--------|--------|--------|--------|
F|--------|--------|--------|--------|--------|--------|--------|--------|--------|
C|--------|--------|--------|--------|--------|--------|--------|--------|--------|
G|--------|--------|--------|--------|--------|--------|--------|--------|--------|
C|--------|--------|--------|--------|--------|--------|--------|--------|--------|


D|--------|--------|--------|--------|--------|--------|--------|--------|--------|
A|--------|--------|--------|--------|--------|--------|--------|--------|--------|
F|--------|--------|--------|--------|--------|--------|--------|--------|--------|
C|--------|--------|--------|--------|--------|--------|--------|--------|--------|
G|--------|--------|--------|--------|--------|--------|--------|--------|--------|
C|--------|--------|--------|--------|--------|--------|--------|--------|--------|


D|--------|--------|--------|--------|--------|--------|--------|--------|--------|
A|--------|--------|--------|--------|--------|--------|--------|--------|--------|
F|--------|--------|--------|--------|--------|--------|--------|--------|--------|
C|--------|--------|--------|--------|--------|--------|--------|--------|--------|
G|--------|--------|--------|--------|--------|--------|--------|--------|--------|
C|--------|--------|--------|--------|--------|--------|--------|--------|--------|


D|--------|--------|--------|--------|--------|--------|--------|--------|--------|
A|--------|--------|--------|--------|--------|--------|--------|--------|--------|
F|--------|--------|--------|--------|--------|--------|--------|--------|--------|
C|--------|--------|--------|--------|--------|--------|--------|--------|--------|
G|--------|--------|--------|--------|--------|--------|--------|--------|--------|
C|--------|--------|--------|--------|--------|--------|--------|--------|--------|


D|--------|--------|--------|--------|--------|--------|--------|--------|--------|
A|--------|--------|--------|--------|--------|--------|--------|--------|--------|
F|--------|--------|--------|--------|--------|--------|--------|--------|--------|
C|--------|--------|--------|--------|--------|--------|--------|--------|--------|
G|--------|--------|--------|--------|--------|--------|--------|--------|--------|
C|--------|--------|--------|--------|--------|--------|--------|--------|--------|


D|--------------------|--------------------|--------------------|-------------|------------------------|
A|--------------------|--------------------|--------------------|-------------|------------------------|
F|--------------------|--------------------|--------------------|-------------|------------------------|
C|-------7---7---7----|-------7---7---7----|-------3---3---3----|-------5-----|-0----2----7---7---7----|
G|--------------------|--------------------|--------------------|-------------|------------------------|
C|--------------------|--------------------|--------------------|-------------|------------------------|


D|--------------------|--------------------|-------------|------------------------|
A|--------------------|--------------------|-------------|------------------------|
F|--------------------|--------------------|-------------|------------------------|
C|-------7---7---7----|-------3---3---3----|-------5-----|-0----2----7---7---7----|
G|--------------------|--------------------|-------------|------------------------|
C|--------------------|--------------------|-------------|------------------------|


D|--------------------|--------------------|-------------|------------------------|
A|--------------------|--------------------|-------------|------------------------|
F|--------------------|--------------------|-------------|------------------------|
C|-------7---7---7----|-------3---3---3----|-------5-----|-0----2----7---7---7----|
G|--------------------|--------------------|-------------|------------------------|
C|--------------------|--------------------|-------------|------------------------|


D|--------------------|--------------------|-------------|-----------------|--------|
A|--------------------|--------------------|-------------|-----------------|--------|
F|--------------------|--------------------|-------------|-----------------|--------|
C|-------7---7---7----|-------3---3---3----|-------5-----|-0----2----------|--------|
G|--------------------|--------------------|-------------|-----------------|--------|
C|--------------------|--------------------|-------------|-----------------|--------|


D|--------|--------|--------|--------|--------|--------|--------|--------|--------|
A|--------|--------|--------|--------|--------|--------|--------|--------|--------|
F|--------|--------|--------|--------|--------|--------|--------|--------|--------|
C|--------|--------|--------|--------|--------|--------|--------|--------|--------|
G|--------|--------|--------|--------|--------|--------|--------|--------|--------|
C|--------|--------|--------|--------|--------|--------|--------|--------|--------|


D|--------|--------|--------|--------|--------|--------|--------|--------|--------|
A|--------|--------|--------|--------|--------|--------|--------|--------|--------|
F|--------|--------|--------|--------|--------|--------|--------|--------|--------|
C|--------|--------|--------|--------|--------|--------|--------|--------|--------|
G|--------|--------|--------|--------|--------|--------|--------|--------|--------|
C|--------|--------|--------|--------|--------|--------|--------|--------|--------|


D|--------|--------|--------|--------|--------|--------|--------|--------|--------|
A|--------|--------|--------|--------|--------|--------|--------|--------|--------|
F|--------|--------|--------|--------|--------|--------|--------|--------|--------|
C|--------|--------|--------|--------|--------|--------|--------|--------|--------|
G|--------|--------|--------|--------|--------|--------|--------|--------|--------|
C|--------|--------|--------|--------|--------|--------|--------|--------|--------|


D|--------|--------|--------|--------|--------|--------|--------|--------|--------|
A|--------|--------|--------|--------|--------|--------|--------|--------|--------|
F|--------|--------|--------|--------|--------|--------|--------|--------|--------|
C|--------|--------|--------|--------|--------|--------|--------|--------|--------|
G|--------|--------|--------|--------|--------|--------|--------|--------|--------|
C|--------|--------|--------|--------|--------|--------|--------|--------|--------|


D|--------|--------|--------|--------|--------|--------|--------|--------|--------|
A|--------|--------|--------|--------|--------|--------|--------|--------|--------|
F|--------|--------|--------|--------|--------|--------|--------|--------|--------|
C|--------|--------|--------|--------|--------|--------|--------|--------|--------|
G|--------|--------|--------|--------|--------|--------|--------|--------|--------|
C|--------|--------|--------|--------|--------|--------|--------|--------|--------|


D|--------|--------|--------|--------|--------|--------|--------|--------|--------|
A|--------|--------|--------|--------|--------|--------|--------|--------|--------|
F|--------|--------|--------|--------|--------|--------|--------|--------|--------|
C|--------|--------|--------|--------|--------|--------|--------|--------|--------|
G|--------|--------|--------|--------|--------|--------|--------|--------|--------|
C|--------|--------|--------|--------|--------|--------|--------|--------|--------|


D|--------|--------|--------|--------|--------|--------|--------|--------|--------|
A|--------|--------|--------|--------|--------|--------|--------|--------|--------|
F|--------|--------|--------|--------|--------|--------|--------|--------|--------|
C|--------|--------|--------|--------|--------|--------|--------|--------|--------|
G|--------|--------|--------|--------|--------|--------|--------|--------|--------|
C|--------|--------|--------|--------|--------|--------|--------|--------|--------|


D|--------|--------|--------|--------|--------|--------|--------|--------|--------|
A|--------|--------|--------|--------|--------|--------|--------|--------|--------|
F|--------|--------|--------|--------|--------|--------|--------|--------|--------|
C|--------|--------|--------|--------|--------|--------|--------|--------|--------|
G|--------|--------|--------|--------|--------|--------|--------|--------|--------|
C|--------|--------|--------|--------|--------|--------|--------|--------|--------|


D|--------|--------|--------|--------|--------|--------|--------|--------|--------|
A|--------|--------|--------|--------|--------|--------|--------|--------|--------|
F|--------|--------|--------|--------|--------|--------|--------|--------|--------|
C|--------|--------|--------|--------|--------|--------|--------|--------|--------|
G|--------|--------|--------|--------|--------|--------|--------|--------|--------|
C|--------|--------|--------|--------|--------|--------|--------|--------|--------|


D|--------|--------|--------|--------|--------|--------|--------|--------|--------|
A|--------|--------|--------|--------|--------|--------|--------|--------|--------|
F|--------|--------|--------|--------|--------|--------|--------|--------|--------|
C|--------|--------|--------|--------|--------|--------|--------|--------|--------|
G|--------|--------|--------|--------|--------|--------|--------|--------|--------|
C|--------|--------|--------|--------|--------|--------|--------|--------|--------|


D|--------|--------|--------|--------|--------|--------|--------|--------|--------|
A|--------|--------|--------|--------|--------|--------|--------|--------|--------|
F|--------|--------|--------|--------|--------|--------|--------|--------|--------|
C|--------|--------|--------|--------|--------|--------|--------|--------|--------|
G|--------|--------|--------|--------|--------|--------|--------|--------|--------|
C|--------|--------|--------|--------|--------|--------|--------|--------|--------|


D|--------|--------|--------|--------|--------|--------|--------|--------|
A|--------|--------|--------|--------|--------|--------|--------|--------|
F|--------|--------|--------|--------|--------|--------|--------|--------|
C|--------|--------|--------|--------|--------|--------|--------|--------|
G|--------|--------|--------|--------|--------|--------|--------|--------|
C|--------|--------|--------|--------|--------|--------|--------|--------|





Track 7: Rythem

D|--------|--------|--------|--------|--------|--------|--------|--------|--------|
A|--------|--------|--------|--------|--------|--------|--------|--------|--------|
F|--------|--------|--------|--------|--------|--------|--------|--------|--------|
C|--------|--------|--------|--------|--------|--------|--------|--------|--------|
G|--------|--------|--------|--------|--------|--------|--------|--------|--------|
C|--------|--------|--------|--------|--------|--------|--------|--------|--------|


D|--------|--------|--------|--------|--------|--------|--------|--------|--------|
A|--------|--------|--------|--------|--------|--------|--------|--------|--------|
F|--------|--------|--------|--------|--------|--------|--------|--------|--------|
C|--------|--------|--------|--------|--------|--------|--------|--------|--------|
G|--------|--------|--------|--------|--------|--------|--------|--------|--------|
C|--------|--------|--------|--------|--------|--------|--------|--------|--------|


D|--------|--------|--------|--------|--------|--------|--------|--------|--------|
A|--------|--------|--------|--------|--------|--------|--------|--------|--------|
F|--------|--------|--------|--------|--------|--------|--------|--------|--------|
C|--------|--------|--------|--------|--------|--------|--------|--------|--------|
G|--------|--------|--------|--------|--------|--------|--------|--------|--------|
C|--------|--------|--------|--------|--------|--------|--------|--------|--------|


D|--------|--------|--------|--------|--------|--------|--------|--------|--------|
A|--------|--------|--------|--------|--------|--------|--------|--------|--------|
F|--------|--------|--------|--------|--------|--------|--------|--------|--------|
C|--------|--------|--------|--------|--------|--------|--------|--------|--------|
G|--------|--------|--------|--------|--------|--------|--------|--------|--------|
C|--------|--------|--------|--------|--------|--------|--------|--------|--------|


D|--------|--------|--------|--------|--------|--------|--------|--------|--------|
A|--------|--------|--------|--------|--------|--------|--------|--------|--------|
F|--------|--------|--------|--------|--------|--------|--------|--------|--------|
C|--------|--------|--------|--------|--------|--------|--------|--------|--------|
G|--------|--------|--------|--------|--------|--------|--------|--------|--------|
C|--------|--------|--------|--------|--------|--------|--------|--------|--------|


D|--------|--------|--------|--------|--------|--------|--------|--------|--------|
A|--------|--------|--------|--------|--------|--------|--------|--------|--------|
F|--------|--------|--------|--------|--------|--------|--------|--------|--------|
C|--------|--------|--------|--------|--------|--------|--------|--------|--------|
G|--------|--------|--------|--------|--------|--------|--------|--------|--------|
C|--------|--------|--------|--------|--------|--------|--------|--------|--------|


D|--------|--------|--------|--------|--------|--------|--------|--------|--------|
A|--------|--------|--------|--------|--------|--------|--------|--------|--------|
F|--------|--------|--------|--------|--------|--------|--------|--------|--------|
C|--------|--------|--------|--------|--------|--------|--------|--------|--------|
G|--------|--------|--------|--------|--------|--------|--------|--------|--------|
C|--------|--------|--------|--------|--------|--------|--------|--------|--------|


D|--------|--------|--------|--------|--------|--------|--------|--------|--------|
A|--------|--------|--------|--------|--------|--------|--------|--------|--------|
F|--------|--------|--------|--------|--------|--------|--------|--------|--------|
C|--------|--------|--------|--------|--------|--------|--------|--------|--------|
G|--------|--------|--------|--------|--------|--------|--------|--------|--------|
C|--------|--------|--------|--------|--------|--------|--------|--------|--------|


D|--------|--------|--------|--------|--------|--------|--------|--------|--------|
A|--------|--------|--------|--------|--------|--------|--------|--------|--------|
F|--------|--------|--------|--------|--------|--------|--------|--------|--------|
C|--------|--------|--------|--------|--------|--------|--------|--------|--------|
G|--------|--------|--------|--------|--------|--------|--------|--------|--------|
C|--------|--------|--------|--------|--------|--------|--------|--------|--------|


D|--------|--------|--------|--------|--------|--------|--------|--------|--------|
A|--------|--------|--------|--------|--------|--------|--------|--------|--------|
F|--------|--------|--------|--------|--------|--------|--------|--------|--------|
C|--------|--------|--------|--------|--------|--------|--------|--------|--------|
G|--------|--------|--------|--------|--------|--------|--------|--------|--------|
C|--------|--------|--------|--------|--------|--------|--------|--------|--------|


D|--------|--------|--------|--------|--------|--------|--------|--------|--------|
A|--------|--------|--------|--------|--------|--------|--------|--------|--------|
F|--------|--------|--------|--------|--------|--------|--------|--------|--------|
C|--------|--------|--------|--------|--------|--------|--------|--------|--------|
G|--------|--------|--------|--------|--------|--------|--------|--------|--------|
C|--------|--------|--------|--------|--------|--------|--------|--------|--------|


D|--------|--------|--------|--------|--------|--------|--------|--------|--------|
A|--------|--------|--------|--------|--------|--------|--------|--------|--------|
F|--------|--------|--------|--------|--------|--------|--------|--------|--------|
C|--------|--------|--------|--------|--------|--------|--------|--------|--------|
G|--------|--------|--------|--------|--------|--------|--------|--------|--------|
C|--------|--------|--------|--------|--------|--------|--------|--------|--------|


D|--------|--------|--------|--------|--------|--------|--------|--------|--------|
A|--------|--------|--------|--------|--------|--------|--------|--------|--------|
F|--------|--------|--------|--------|--------|--------|--------|--------|--------|
C|--------|--------|--------|--------|--------|--------|--------|--------|--------|
G|--------|--------|--------|--------|--------|--------|--------|--------|--------|
C|--------|--------|--------|--------|--------|--------|--------|--------|--------|


D|--------|--------|--------|--------|--------|--------|--------|--------|--------|
A|--------|--------|--------|--------|--------|--------|--------|--------|--------|
F|--------|--------|--------|--------|--------|--------|--------|--------|--------|
C|--------|--------|--------|--------|--------|--------|--------|--------|--------|
G|--------|--------|--------|--------|--------|--------|--------|--------|--------|
C|--------|--------|--------|--------|--------|--------|--------|--------|--------|


D|--------|--------|--------|--------|--------|--------|--------|--------|--------|
A|--------|--------|--------|--------|--------|--------|--------|--------|--------|
F|--------|--------|--------|--------|--------|--------|--------|--------|--------|
C|--------|--------|--------|--------|--------|--------|--------|--------|--------|
G|--------|--------|--------|--------|--------|--------|--------|--------|--------|
C|--------|--------|--------|--------|--------|--------|--------|--------|--------|


D|--------|--------|--------|--------|--------|--------|--------|--------|--------|
A|--------|--------|--------|--------|--------|--------|--------|--------|--------|
F|--------|--------|--------|--------|--------|--------|--------|--------|--------|
C|--------|--------|--------|--------|--------|--------|--------|--------|--------|
G|--------|--------|--------|--------|--------|--------|--------|--------|--------|
C|--------|--------|--------|--------|--------|--------|--------|--------|--------|


D|--------|--------|--------|--------|--------|--------|--------|--------|--------|
A|--------|--------|--------|--------|--------|--------|--------|--------|--------|
F|--------|--------|--------|--------|--------|--------|--------|--------|--------|
C|--------|--------|--------|--------|--------|--------|--------|--------|--------|
G|--------|--------|--------|--------|--------|--------|--------|--------|--------|
C|--------|--------|--------|--------|--------|--------|--------|--------|--------|


D|--------|--------|--------|--------|--------|--------|--------|--------|--------|
A|--------|--------|--------|--------|--------|--------|--------|--------|--------|
F|--------|--------|--------|--------|--------|--------|--------|--------|--------|
C|--------|--------|--------|--------|--------|--------|--------|--------|--------|
G|--------|--------|--------|--------|--------|--------|--------|--------|--------|
C|--------|--------|--------|--------|--------|--------|--------|--------|--------|


D|--------|--------|--------|--------|--------|--------|--------|--------|--------|
A|--------|--------|--------|--------|--------|--------|--------|--------|--------|
F|--------|--------|--------|--------|--------|--------|--------|--------|--------|
C|--------|--------|--------|--------|--------|--------|--------|--------|--------|
G|--------|--------|--------|--------|--------|--------|--------|--------|--------|
C|--------|--------|--------|--------|--------|--------|--------|--------|--------|


D|--------|--------|--------|--------|--------|--------|--------|--------------------|
A|--------|--------|--------|--------|--------|--------|--------|--------------------|
F|--------|--------|--------|--------|--------|--------|--------|--------------------|
C|--------|--------|--------|--------|--------|--------|--------|-------7---7---7----|
G|--------|--------|--------|--------|--------|--------|--------|--------------------|
C|--------|--------|--------|--------|--------|--------|--------|--------------------|


D|--------------------|--------------------|-------------|------------------------|
A|--------------------|--------------------|-------------|------------------------|
F|--------------------|--------------------|-------------|------------------------|
C|-------7---7---7----|-------3---3---3----|-------5-----|-0----2----7---7---7----|
G|--------------------|--------------------|-------------|------------------------|
C|--------------------|--------------------|-------------|------------------------|


D|--------------------|--------------------|-------------|------------------------|
A|--------------------|--------------------|-------------|------------------------|
F|--------------------|--------------------|-------------|------------------------|
C|-------7---7---7----|-------3---3---3----|-------5-----|-0----2----7---7---7----|
G|--------------------|--------------------|-------------|------------------------|
C|--------------------|--------------------|-------------|------------------------|


D|--------------------|--------------------|-------------|------------------------|
A|--------------------|--------------------|-------------|------------------------|
F|--------------------|--------------------|-------------|------------------------|
C|-------7---7---7----|-------3---3---3----|-------5-----|-0----2----7---7---7----|
G|--------------------|--------------------|-------------|------------------------|
C|--------------------|--------------------|-------------|------------------------|


D|--------------------|--------------------|-------------|---------------------------|
A|--------------------|--------------------|-------------|---------------------------|
F|--------------------|--------------------|-------------|---------------------------|
C|-------7---7---7----|-------3---3---3----|-------5-----|-0----2----3---3---3---3---|
G|--------------------|--------------------|-------------|---------------------------|
C|--------------------|--------------------|-------------|---------------------------|


D|---------------------------------|-----------------------|-------------|--------|
A|---------------------------------|-----------------------|-------------|--------|
F|---------------------------------|-----------------------|-------------|--------|
C|-3---3---3---3---3---3---3---3---|-3---3---3---3---5-----|-------7-----|--------|
G|---------------------------------|-----------------------|-------------|--------|
C|---------------------------------|-----------------------|-------------|--------|


D|--------|--------|--------|--------|--------|--------|--------|--------|--------|
A|--------|--------|--------|--------|--------|--------|--------|--------|--------|
F|--------|--------|--------|--------|--------|--------|--------|--------|--------|
C|--------|--------|--------|--------|--------|--------|--------|--------|--------|
G|--------|--------|--------|--------|--------|--------|--------|--------|--------|
C|--------|--------|--------|--------|--------|--------|--------|--------|--------|


D|--------|--------|--------|--------|--------|--------|--------|--------|--------|
A|--------|--------|--------|--------|--------|--------|--------|--------|--------|
F|--------|--------|--------|--------|--------|--------|--------|--------|--------|
C|--------|--------|--------|--------|--------|--------|--------|--------|--------|
G|--------|--------|--------|--------|--------|--------|--------|--------|--------|
C|--------|--------|--------|--------|--------|--------|--------|--------|--------|


D|--------|--------|--------|--------|--------|--------|--------|--------|--------|
A|--------|--------|--------|--------|--------|--------|--------|--------|--------|
F|--------|--------|--------|--------|--------|--------|--------|--------|--------|
C|--------|--------|--------|--------|--------|--------|--------|--------|--------|
G|--------|--------|--------|--------|--------|--------|--------|--------|--------|
C|--------|--------|--------|--------|--------|--------|--------|--------|--------|


D|--------|--------|--------|--------|--------|--------|--------|--------|--------|
A|--------|--------|--------|--------|--------|--------|--------|--------|--------|
F|--------|--------|--------|--------|--------|--------|--------|--------|--------|
C|--------|--------|--------|--------|--------|--------|--------|--------|--------|
G|--------|--------|--------|--------|--------|--------|--------|--------|--------|
C|--------|--------|--------|--------|--------|--------|--------|--------|--------|


D|--------|--------|--------|--------|--------|--------|--------|--------|--------|
A|--------|--------|--------|--------|--------|--------|--------|--------|--------|
F|--------|--------|--------|--------|--------|--------|--------|--------|--------|
C|--------|--------|--------|--------|--------|--------|--------|--------|--------|
G|--------|--------|--------|--------|--------|--------|--------|--------|--------|
C|--------|--------|--------|--------|--------|--------|--------|--------|--------|


D|--------|--------|--------|--------|--------|--------|--------|--------|--------|
A|--------|--------|--------|--------|--------|--------|--------|--------|--------|
F|--------|--------|--------|--------|--------|--------|--------|--------|--------|
C|--------|--------|--------|--------|--------|--------|--------|--------|--------|
G|--------|--------|--------|--------|--------|--------|--------|--------|--------|
C|--------|--------|--------|--------|--------|--------|--------|--------|--------|


D|--------|--------|--------|--------|--------|--------|--------|--------|--------|
A|--------|--------|--------|--------|--------|--------|--------|--------|--------|
F|--------|--------|--------|--------|--------|--------|--------|--------|--------|
C|--------|--------|--------|--------|--------|--------|--------|--------|--------|
G|--------|--------|--------|--------|--------|--------|--------|--------|--------|
C|--------|--------|--------|--------|--------|--------|--------|--------|--------|


D|--------|--------|--------|--------|--------|--------|--------|--------|--------|
A|--------|--------|--------|--------|--------|--------|--------|--------|--------|
F|--------|--------|--------|--------|--------|--------|--------|--------|--------|
C|--------|--------|--------|--------|--------|--------|--------|--------|--------|
G|--------|--------|--------|--------|--------|--------|--------|--------|--------|
C|--------|--------|--------|--------|--------|--------|--------|--------|--------|


D|--------|--------|--------|--------|--------|--------|--------|--------|--------|
A|--------|--------|--------|--------|--------|--------|--------|--------|--------|
F|--------|--------|--------|--------|--------|--------|--------|--------|--------|
C|--------|--------|--------|--------|--------|--------|--------|--------|--------|
G|--------|--------|--------|--------|--------|--------|--------|--------|--------|
C|--------|--------|--------|--------|--------|--------|--------|--------|--------|


D|--------|--------|--------|--------|--------|--------|--------|
A|--------|--------|--------|--------|--------|--------|--------|
F|--------|--------|--------|--------|--------|--------|--------|
C|--------|--------|--------|--------|--------|--------|--------|
G|--------|--------|--------|--------|--------|--------|--------|
C|--------|--------|--------|--------|--------|--------|--------|





Track 8: Rythem

D|--------|--------|--------|--------|--------|--------|--------|--------|--------|
A|--------|--------|--------|--------|--------|--------|--------|--------|--------|
F|--------|--------|--------|--------|--------|--------|--------|--------|--------|
C|--------|--------|--------|--------|--------|--------|--------|--------|--------|
G|--------|--------|--------|--------|--------|--------|--------|--------|--------|
C|--------|--------|--------|--------|--------|--------|--------|--------|--------|


D|--------|--------|--------|--------|--------|--------|--------|--------|--------|
A|--------|--------|--------|--------|--------|--------|--------|--------|--------|
F|--------|--------|--------|--------|--------|--------|--------|--------|--------|
C|--------|--------|--------|--------|--------|--------|--------|--------|--------|
G|--------|--------|--------|--------|--------|--------|--------|--------|--------|
C|--------|--------|--------|--------|--------|--------|--------|--------|--------|


D|--------|--------|--------|--------|--------|--------|--------|--------|--------|
A|--------|--------|--------|--------|--------|--------|--------|--------|--------|
F|--------|--------|--------|--------|--------|--------|--------|--------|--------|
C|--------|--------|--------|--------|--------|--------|--------|--------|--------|
G|--------|--------|--------|--------|--------|--------|--------|--------|--------|
C|--------|--------|--------|--------|--------|--------|--------|--------|--------|


D|--------|--------|--------|--------|--------|--------|--------|--------|--------|
A|--------|--------|--------|--------|--------|--------|--------|--------|--------|
F|--------|--------|--------|--------|--------|--------|--------|--------|--------|
C|--------|--------|--------|--------|--------|--------|--------|--------|--------|
G|--------|--------|--------|--------|--------|--------|--------|--------|--------|
C|--------|--------|--------|--------|--------|--------|--------|--------|--------|


D|--------|--------|--------|--------|--------|--------|--------|--------|--------|
A|--------|--------|--------|--------|--------|--------|--------|--------|--------|
F|--------|--------|--------|--------|--------|--------|--------|--------|--------|
C|--------|--------|--------|--------|--------|--------|--------|--------|--------|
G|--------|--------|--------|--------|--------|--------|--------|--------|--------|
C|--------|--------|--------|--------|--------|--------|--------|--------|--------|


D|--------|--------|--------|--------|--------|--------|--------|--------|--------|
A|--------|--------|--------|--------|--------|--------|--------|--------|--------|
F|--------|--------|--------|--------|--------|--------|--------|--------|--------|
C|--------|--------|--------|--------|--------|--------|--------|--------|--------|
G|--------|--------|--------|--------|--------|--------|--------|--------|--------|
C|--------|--------|--------|--------|--------|--------|--------|--------|--------|


D|--------|--------|--------|--------|--------|--------|--------|--------|--------|
A|--------|--------|--------|--------|--------|--------|--------|--------|--------|
F|--------|--------|--------|--------|--------|--------|--------|--------|--------|
C|--------|--------|--------|--------|--------|--------|--------|--------|--------|
G|--------|--------|--------|--------|--------|--------|--------|--------|--------|
C|--------|--------|--------|--------|--------|--------|--------|--------|--------|


D|--------|--------|--------|--------|--------|--------|--------|--------|--------|
A|--------|--------|--------|--------|--------|--------|--------|--------|--------|
F|--------|--------|--------|--------|--------|--------|--------|--------|--------|
C|--------|--------|--------|--------|--------|--------|--------|--------|--------|
G|--------|--------|--------|--------|--------|--------|--------|--------|--------|
C|--------|--------|--------|--------|--------|--------|--------|--------|--------|


D|--------|--------|--------|--------|--------|--------|--------|--------|--------|
A|--------|--------|--------|--------|--------|--------|--------|--------|--------|
F|--------|--------|--------|--------|--------|--------|--------|--------|--------|
C|--------|--------|--------|--------|--------|--------|--------|--------|--------|
G|--------|--------|--------|--------|--------|--------|--------|--------|--------|
C|--------|--------|--------|--------|--------|--------|--------|--------|--------|


D|--------|--------|--------|--------|--------|--------|--------|--------|--------|
A|--------|--------|--------|--------|--------|--------|--------|--------|--------|
F|--------|--------|--------|--------|--------|--------|--------|--------|--------|
C|--------|--------|--------|--------|--------|--------|--------|--------|--------|
G|--------|--------|--------|--------|--------|--------|--------|--------|--------|
C|--------|--------|--------|--------|--------|--------|--------|--------|--------|


D|--------|--------|--------|--------|--------|--------|--------|--------|--------|
A|--------|--------|--------|--------|--------|--------|--------|--------|--------|
F|--------|--------|--------|--------|--------|--------|--------|--------|--------|
C|--------|--------|--------|--------|--------|--------|--------|--------|--------|
G|--------|--------|--------|--------|--------|--------|--------|--------|--------|
C|--------|--------|--------|--------|--------|--------|--------|--------|--------|


D|--------|--------|--------|--------|--------|--------|--------|--------|--------|
A|--------|--------|--------|--------|--------|--------|--------|--------|--------|
F|--------|--------|--------|--------|--------|--------|--------|--------|--------|
C|--------|--------|--------|--------|--------|--------|--------|--------|--------|
G|--------|--------|--------|--------|--------|--------|--------|--------|--------|
C|--------|--------|--------|--------|--------|--------|--------|--------|--------|


D|--------|--------|--------|--------|--------|--------|--------|--------|--------|
A|--------|--------|--------|--------|--------|--------|--------|--------|--------|
F|--------|--------|--------|--------|--------|--------|--------|--------|--------|
C|--------|--------|--------|--------|--------|--------|--------|--------|--------|
G|--------|--------|--------|--------|--------|--------|--------|--------|--------|
C|--------|--------|--------|--------|--------|--------|--------|--------|--------|


D|--------|--------|--------|--------|--------|--------|--------|--------|--------|
A|--------|--------|--------|--------|--------|--------|--------|--------|--------|
F|--------|--------|--------|--------|--------|--------|--------|--------|--------|
C|--------|--------|--------|--------|--------|--------|--------|--------|--------|
G|--------|--------|--------|--------|--------|--------|--------|--------|--------|
C|--------|--------|--------|--------|--------|--------|--------|--------|--------|


D|--------|--------|--------|--------|--------|--------|--------|--------|--------|
A|--------|--------|--------|--------|--------|--------|--------|--------|--------|
F|--------|--------|--------|--------|--------|--------|--------|--------|--------|
C|--------|--------|--------|--------|--------|--------|--------|--------|--------|
G|--------|--------|--------|--------|--------|--------|--------|--------|--------|
C|--------|--------|--------|--------|--------|--------|--------|--------|--------|


D|--------|--------|--------|--------|--------|--------|--------|--------|--------|
A|--------|--------|--------|--------|--------|--------|--------|--------|--------|
F|--------|--------|--------|--------|--------|--------|--------|--------|--------|
C|--------|--------|--------|--------|--------|--------|--------|--------|--------|
G|--------|--------|--------|--------|--------|--------|--------|--------|--------|
C|--------|--------|--------|--------|--------|--------|--------|--------|--------|


D|--------|--------|--------|--------|--------|--------|--------|--------|--------|
A|--------|--------|--------|--------|--------|--------|--------|--------|--------|
F|--------|--------|--------|--------|--------|--------|--------|--------|--------|
C|--------|--------|--------|--------|--------|--------|--------|--------|--------|
G|--------|--------|--------|--------|--------|--------|--------|--------|--------|
C|--------|--------|--------|--------|--------|--------|--------|--------|--------|


D|--------|--------|--------|--------|--------|--------|--------|--------|--------|
A|--------|--------|--------|--------|--------|--------|--------|--------|--------|
F|--------|--------|--------|--------|--------|--------|--------|--------|--------|
C|--------|--------|--------|--------|--------|--------|--------|--------|--------|
G|--------|--------|--------|--------|--------|--------|--------|--------|--------|
C|--------|--------|--------|--------|--------|--------|--------|--------|--------|


D|--------|--------|--------|--------|--------|--------|--------|--------|--------|
A|--------|--------|--------|--------|--------|--------|--------|--------|--------|
F|--------|--------|--------|--------|--------|--------|--------|--------|--------|
C|--------|--------|--------|--------|--------|--------|--------|--------|--------|
G|--------|--------|--------|--------|--------|--------|--------|--------|--------|
C|--------|--------|--------|--------|--------|--------|--------|--------|--------|


D|--------|--------|--------|--------|--------|--------|--------|--------|--------|
A|--------|--------|--------|--------|--------|--------|--------|--------|--------|
F|--------|--------|--------|--------|--------|--------|--------|--------|--------|
C|--------|--------|--------|--------|--------|--------|--------|--------|--------|
G|--------|--------|--------|--------|--------|--------|--------|--------|--------|
C|--------|--------|--------|--------|--------|--------|--------|--------|--------|


D|--------|--------|--------|--------|--------|--------|--------|--------|--------|
A|--------|--------|--------|--------|--------|--------|--------|--------|--------|
F|--------|--------|--------|--------|--------|--------|--------|--------|--------|
C|--------|--------|--------|--------|--------|--------|--------|--------|--------|
G|--------|--------|--------|--------|--------|--------|--------|--------|--------|
C|--------|--------|--------|--------|--------|--------|--------|--------|--------|


D|--------|--------|--------|--------|--------|--------|--------|--------|--------|
A|--------|--------|--------|--------|--------|--------|--------|--------|--------|
F|--------|--------|--------|--------|--------|--------|--------|--------|--------|
C|--------|--------|--------|--------|--------|--------|--------|--------|--------|
G|--------|--------|--------|--------|--------|--------|--------|--------|--------|
C|--------|--------|--------|--------|--------|--------|--------|--------|--------|


D|--------|---------------------------------|---------------------------------|---------------------------------|
A|--------|---------------------------------|---------------------------------|---------------------------------|
F|--------|---------------------------------|---------------------------------|---------------------------------|
C|--------|-7---7---7---7---7---7---7---7---|-3---3---3---3---3---3---3---3---|-5---5---5---5---5---5---5---5---|
G|--------|---------------------------------|---------------------------------|---------------------------------|
C|--------|---------------------------------|---------------------------------|---------------------------------|


D|---------------------------------|---------------------------------|---------------------------------|
A|---------------------------------|---------------------------------|---------------------------------|
F|-3---3---3---3---2---2---2---2---|---------------------------------|---------------------------------|
C|---------------------------------|-7---7---7---7---7---7---7---7---|-3---3---3---3---3---3---3---3---|
G|---------------------------------|---------------------------------|---------------------------------|
C|---------------------------------|---------------------------------|---------------------------------|


D|---------------------------------|---------------------------------|---------------------------------|
A|---------------------------------|---------------------------------|---------------------------------|
F|---------------------------------|-3---3---3---3---2---2---2---2---|---------------------------------|
C|-5---5---5---5---5---5---5---5---|---------------------------------|-7---7---7---7---7---7---7---7---|
G|---------------------------------|---------------------------------|---------------------------------|
C|---------------------------------|---------------------------------|---------------------------------|


D|---------------------------------|---------------------------------|---------------------------------|
A|---------------------------------|---------------------------------|---------------------------------|
F|---------------------------------|---------------------------------|-3---3---3---3---2---2---2---2---|
C|-3---3---3---3---3---3---3---3---|-5---5---5---5---5---5---5---5---|---------------------------------|
G|---------------------------------|---------------------------------|---------------------------------|
C|---------------------------------|---------------------------------|---------------------------------|


D|---------------------------------|---------------------------------|---------------------------------|
A|---------------------------------|---------------------------------|---------------------------------|
F|---------------------------------|---------------------------------|---------------------------------|
C|-7---7---7---7---7---7---7---7---|-3---3---3---3---3---3---3---3---|-5---5---5---5---5---5---5---5---|
G|---------------------------------|---------------------------------|---------------------------------|
C|---------------------------------|---------------------------------|---------------------------------|


D|---------------------------------|--------|--------|--------|--------|--------|--------|
A|---------------------------------|--------|--------|--------|--------|--------|--------|
F|-3---3---3---3---2---2---2---2---|--------|--------|--------|--------|--------|--------|
C|---------------------------------|--------|--------|--------|--------|--------|--------|
G|---------------------------------|--------|--------|--------|--------|--------|--------|
C|---------------------------------|--------|--------|--------|--------|--------|--------|


D|--------|--------|--------|--------|--------|--------|--------|--------|--------|
A|--------|--------|--------|--------|--------|--------|--------|--------|--------|
F|--------|--------|--------|--------|--------|--------|--------|--------|--------|
C|--------|--------|--------|--------|--------|--------|--------|--------|--------|
G|--------|--------|--------|--------|--------|--------|--------|--------|--------|
C|--------|--------|--------|--------|--------|--------|--------|--------|--------|


D|--------|--------|--------|--------|--------|--------|--------|--------|--------|
A|--------|--------|--------|--------|--------|--------|--------|--------|--------|
F|--------|--------|--------|--------|--------|--------|--------|--------|--------|
C|--------|--------|--------|--------|--------|--------|--------|--------|--------|
G|--------|--------|--------|--------|--------|--------|--------|--------|--------|
C|--------|--------|--------|--------|--------|--------|--------|--------|--------|


D|--------|--------|--------|--------|--------|--------|--------|--------|--------|
A|--------|--------|--------|--------|--------|--------|--------|--------|--------|
F|--------|--------|--------|--------|--------|--------|--------|--------|--------|
C|--------|--------|--------|--------|--------|--------|--------|--------|--------|
G|--------|--------|--------|--------|--------|--------|--------|--------|--------|
C|--------|--------|--------|--------|--------|--------|--------|--------|--------|


D|--------|--------|--------|--------|--------|--------|--------|--------|--------|
A|--------|--------|--------|--------|--------|--------|--------|--------|--------|
F|--------|--------|--------|--------|--------|--------|--------|--------|--------|
C|--------|--------|--------|--------|--------|--------|--------|--------|--------|
G|--------|--------|--------|--------|--------|--------|--------|--------|--------|
C|--------|--------|--------|--------|--------|--------|--------|--------|--------|


D|--------|--------|--------|--------|--------|--------|--------|--------|--------|
A|--------|--------|--------|--------|--------|--------|--------|--------|--------|
F|--------|--------|--------|--------|--------|--------|--------|--------|--------|
C|--------|--------|--------|--------|--------|--------|--------|--------|--------|
G|--------|--------|--------|--------|--------|--------|--------|--------|--------|
C|--------|--------|--------|--------|--------|--------|--------|--------|--------|


D|--------|--------|--------|--------|--------|--------|--------|--------|--------|
A|--------|--------|--------|--------|--------|--------|--------|--------|--------|
F|--------|--------|--------|--------|--------|--------|--------|--------|--------|
C|--------|--------|--------|--------|--------|--------|--------|--------|--------|
G|--------|--------|--------|--------|--------|--------|--------|--------|--------|
C|--------|--------|--------|--------|--------|--------|--------|--------|--------|


D|--------|--------|--------|--------|--------|--------|--------|--------|--------|
A|--------|--------|--------|--------|--------|--------|--------|--------|--------|
F|--------|--------|--------|--------|--------|--------|--------|--------|--------|
C|--------|--------|--------|--------|--------|--------|--------|--------|--------|
G|--------|--------|--------|--------|--------|--------|--------|--------|--------|
C|--------|--------|--------|--------|--------|--------|--------|--------|--------|


D|--------|--------|--------|
A|--------|--------|--------|
F|--------|--------|--------|
C|--------|--------|--------|
G|--------|--------|--------|
C|--------|--------|--------|





Track 9: Untitled

G|--------|--------|--------|--------|--------|--------|--------|--------|--------|
D|--------|--------|--------|--------|--------|--------|--------|--------|--------|
A|--------|--------|--------|--------|--------|--------|--------|--------|--------|
E|--------|--------|--------|--------|--------|--------|--------|--------|--------|


G|--------|--------|--------|--------|--------|--------|--------|--------|--------|
D|--------|--------|--------|--------|--------|--------|--------|--------|--------|
A|--------|--------|--------|--------|--------|--------|--------|--------|--------|
E|--------|--------|--------|--------|--------|--------|--------|--------|--------|


G|--------|--------|--------|--------|--------|--------|--------|--------|--------|
D|--------|--------|--------|--------|--------|--------|--------|--------|--------|
A|--------|--------|--------|--------|--------|--------|--------|--------|--------|
E|--------|--------|--------|--------|--------|--------|--------|--------|--------|


G|--------|--------|--------|--------|--------|--------|--------|--------|--------|
D|--------|--------|--------|--------|--------|--------|--------|--------|--------|
A|--------|--------|--------|--------|--------|--------|--------|--------|--------|
E|--------|--------|--------|--------|--------|--------|--------|--------|--------|


G|--------|--------|--------|--------|--------|--------|--------|--------|--------|
D|--------|--------|--------|--------|--------|--------|--------|--------|--------|
A|--------|--------|--------|--------|--------|--------|--------|--------|--------|
E|--------|--------|--------|--------|--------|--------|--------|--------|--------|


G|--------|--------|--------|--------|--------|--------|--------|--------|--------|
D|--------|--------|--------|--------|--------|--------|--------|--------|--------|
A|--------|--------|--------|--------|--------|--------|--------|--------|--------|
E|--------|--------|--------|--------|--------|--------|--------|--------|--------|


G|--------|--------|--------|--------|--------|--------|--------|--------|--------|
D|--------|--------|--------|--------|--------|--------|--------|--------|--------|
A|--------|--------|--------|--------|--------|--------|--------|--------|--------|
E|--------|--------|--------|--------|--------|--------|--------|--------|--------|


G|--------|--------|--------|--------|--------|--------|--------|--------|--------|
D|--------|--------|--------|--------|--------|--------|--------|--------|--------|
A|--------|--------|--------|--------|--------|--------|--------|--------|--------|
E|--------|--------|--------|--------|--------|--------|--------|--------|--------|


G|--------|--------|--------|--------|--------|--------|--------|--------|--------|
D|--------|--------|--------|--------|--------|--------|--------|--------|--------|
A|--------|--------|--------|--------|--------|--------|--------|--------|--------|
E|--------|--------|--------|--------|--------|--------|--------|--------|--------|


G|--------|--------|--------|--------|--------|--------|--------|--------|--------|
D|--------|--------|--------|--------|--------|--------|--------|--------|--------|
A|--------|--------|--------|--------|--------|--------|--------|--------|--------|
E|--------|--------|--------|--------|--------|--------|--------|--------|--------|


G|--------|--------|--------|--------|--------|--------|--------|--------|--------|
D|--------|--------|--------|--------|--------|--------|--------|--------|--------|
A|--------|--------|--------|--------|--------|--------|--------|--------|--------|
E|--------|--------|--------|--------|--------|--------|--------|--------|--------|


G|--------|--------|--------|--------|--------|--------|--------|--------|--------|
D|--------|--------|--------|--------|--------|--------|--------|--------|--------|
A|--------|--------|--------|--------|--------|--------|--------|--------|--------|
E|--------|--------|--------|--------|--------|--------|--------|--------|--------|


G|--------|--------|--------|--------|--------|--------|--------|--------|--------|
D|--------|--------|--------|--------|--------|--------|--------|--------|--------|
A|--------|--------|--------|--------|--------|--------|--------|--------|--------|
E|--------|--------|--------|--------|--------|--------|--------|--------|--------|


G|--------|--------|--------|--------|--------|--------|--------|--------|--------|
D|--------|--------|--------|--------|--------|--------|--------|--------|--------|
A|--------|--------|--------|--------|--------|--------|--------|--------|--------|
E|--------|--------|--------|--------|--------|--------|--------|--------|--------|


G|--------|--------|--------|--------|--------|--------|--------|--------|--------|
D|--------|--------|--------|--------|--------|--------|--------|--------|--------|
A|--------|--------|--------|--------|--------|--------|--------|--------|--------|
E|--------|--------|--------|--------|--------|--------|--------|--------|--------|


G|--------|--------|--------|--------|--------|--------|--------|--------|--------|
D|--------|--------|--------|--------|--------|--------|--------|--------|--------|
A|--------|--------|--------|--------|--------|--------|--------|--------|--------|
E|--------|--------|--------|--------|--------|--------|--------|--------|--------|


G|--------|--------|--------|--------|--------|--------|--------|--------|--------|
D|--------|--------|--------|--------|--------|--------|--------|--------|--------|
A|--------|--------|--------|--------|--------|--------|--------|--------|--------|
E|--------|--------|--------|--------|--------|--------|--------|--------|--------|


G|--------|--------|--------|--------|--------|--------|--------|--------|--------|
D|--------|--------|--------|--------|--------|--------|--------|--------|--------|
A|--------|--------|--------|--------|--------|--------|--------|--------|--------|
E|--------|--------|--------|--------|--------|--------|--------|--------|--------|


G|--------|--------|--------|--------|--------|--------|--------|--------|--------|
D|--------|--------|--------|--------|--------|--------|--------|--------|--------|
A|--------|--------|--------|--------|--------|--------|--------|--------|--------|
E|--------|--------|--------|--------|--------|--------|--------|--------|--------|


G|--------|--------|--------|--------|--------|--------|--------|--------|--------|
D|--------|--------|--------|--------|--------|--------|--------|--------|--------|
A|--------|--------|--------|--------|--------|--------|--------|--------|--------|
E|--------|--------|--------|--------|--------|--------|--------|--------|--------|


G|--------|--------|--------|--------|--------|--------|--------|--------|--------|
D|--------|--------|--------|--------|--------|--------|--------|--------|--------|
A|--------|--------|--------|--------|--------|--------|--------|--------|--------|
E|--------|--------|--------|--------|--------|--------|--------|--------|--------|


G|--------|--------|--------|--------|--------|--------|--------|--------|--------|
D|--------|--------|--------|--------|--------|--------|--------|--------|--------|
A|--------|--------|--------|--------|--------|--------|--------|--------|--------|
E|--------|--------|--------|--------|--------|--------|--------|--------|--------|


G|--------|--------|--------|--------|--------|--------|--------|--------|--------|
D|--------|--------|--------|--------|--------|--------|--------|--------|--------|
A|--------|--------|--------|--------|--------|--------|--------|--------|--------|
E|--------|--------|--------|--------|--------|--------|--------|--------|--------|


G|--------|--------|--------|--------|--------|--------|--------|--------|--------|
D|--------|--------|--------|--------|--------|--------|--------|--------|--------|
A|--------|--------|--------|--------|--------|--------|--------|--------|--------|
E|--------|--------|--------|--------|--------|--------|--------|--------|--------|


G|--------|--------|--------|--------|--------|--------|--------|--------|--------|
D|--------|--------|--------|--------|--------|--------|--------|--------|--------|
A|--------|--------|--------|--------|--------|--------|--------|--------|--------|
E|--------|--------|--------|--------|--------|--------|--------|--------|--------|


G|--------|--------|--------|--------|--------|--------|--------|--------|--------|
D|--------|--------|--------|--------|--------|--------|--------|--------|--------|
A|--------|--------|--------|--------|--------|--------|--------|--------|--------|
E|--------|--------|--------|--------|--------|--------|--------|--------|--------|


G|--------|--------|--------|--------|--------|--------|--------|--------|--------|
D|--------|--------|--------|--------|--------|--------|--------|--------|--------|
A|--------|--------|--------|--------|--------|--------|--------|--------|--------|
E|--------|--------|--------|--------|--------|--------|--------|--------|--------|


G|--------|--------|--------|--------|--------|--------|--------|--------|--------|
D|--------|--------|--------|--------|--------|--------|--------|--------|--------|
A|--------|--------|--------|--------|--------|--------|--------|--------|--------|
E|--------|--------|--------|--------|--------|--------|--------|--------|--------|


G|--------|--------|--------|--------|--------|--------|--------|--------|--------|
D|--------|--------|--------|--------|--------|--------|--------|--------|--------|
A|--------|--------|--------|--------|--------|--------|--------|--------|--------|
E|--------|--------|--------|--------|--------|--------|--------|--------|--------|


G|--------|--------|--------|--------|--------|--------|--------|--------|--------|
D|--------|--------|--------|--------|--------|--------|--------|--------|--------|
A|--------|--------|--------|--------|--------|--------|--------|--------|--------|
E|--------|--------|--------|--------|--------|--------|--------|--------|--------|


G|--------|--------|--------|--------|--------|--------|--------|--------|--------|
D|--------|--------|--------|--------|--------|--------|--------|--------|--------|
A|--------|--------|--------|--------|--------|--------|--------|--------|--------|
E|--------|--------|--------|--------|--------|--------|--------|--------|--------|


G|--------|--------|--------|--------|--------|--------|--------|--------|
D|--------|--------|--------|--------|--------|--------|--------|--------|
A|--------|--------|--------|--------|--------|--------|--------|--------|
E|--------|--------|--------|--------|--------|--------|--------|--------|