Menu:

 

Search:

 

the sky is falling - a broken heart:

 



Title: A Broken Heart
Artist: 
Album: 
Author: The Sky Is Falling


Track 1: Rythem Acoustic

D|------------------------|---------------------------|------------------------|-------------------8---5---|
A|------5-----------------|-5-----------------5---6---|------5-----------------|-5-------------------------|
F|---------------5--------|----------5----------------|---------------5--------|----------5----------------|
C|-0---------0--------0---|------0--------0-----------|-0---------0--------0---|------0--------0-----------|
G|------------------------|---------------------------|------------------------|---------------------------|
C|------------------------|---------------------------|------------------------|---------------------------|


D|------------------------|---------------------------|------------------------|---------------------------|
A|------5-----------------|-5-----------------5---6---|------5-----------------|-5-----------------5---6---|
F|---------------5--------|----------5----------------|---------------5--------|----------5----------------|
C|-0---------0--------0---|------0--------0-----------|-0---------0--------0---|------0--------0-----------|
G|------------------------|---------------------------|------------------------|---------------------------|
C|------------------------|---------------------------|------------------------|---------------------------|


D|-8----------------------|---------------------------|---------------------------|
A|-----------5------------|---------5-----------------|-5---6--------5------------|
F|--------------------5---|------------------5--------|-----------------------5---|
C|------3---------3-------|-----3--------3--------3---|---------5---------5-------|
G|------------------------|---------------------------|---------------------------|
C|------------------------|---------------------------|---------------------------|


D|---------------------------|-5---6---------------------|---------------------------|
A|---------6-----------------|--------------5------------|---------5-----------------|
F|------------------5--------|-----------------------5---|------------------5--------|
C|-----5--------5--------5---|---------0---------0-------|-----0--------0--------0---|
G|---------------------------|---------------------------|---------------------------|
C|---------------------------|---------------------------|---------------------------|


D|---------------------------|---------------------------|-8---5---------------------|
A|-5---6--------5------------|---------5-----------------|--------------5------------|
F|-----------------------5---|------------------5--------|-----------------------5---|
C|---------0---------0-------|-----0--------0--------0---|---------0---------0-------|
G|---------------------------|---------------------------|---------------------------|
C|---------------------------|---------------------------|---------------------------|


D|---------------------------|---------------------------|---------------------------|
A|---------5-----------------|-5---6--------5------------|---------5-----------------|
F|------------------5--------|-----------------------5---|------------------5--------|
C|-----0--------0--------0---|---------0---------0-------|-----0--------0--------0---|
G|---------------------------|---------------------------|---------------------------|
C|---------------------------|---------------------------|---------------------------|


D|---------8--------------|---------------------------|---------------------------|
A|-5---6-------------5----|--------------5------------|---------5---6--------5----|
F|------------------------|-----5-----------------5---|---------------------------|
C|--------------3---------|-3--------3--------3-------|-----3-----------5---------|
G|------------------------|---------------------------|---------------------------|
C|------------------------|---------------------------|---------------------------|


D|---------------------------|---------5---6-------------|---------------------------|
A|--------------6------------|----------------------5----|--------------5------------|
F|-----5-----------------5---|---------------------------|-----5-----------------5---|
C|-5--------5--------5-------|-----5-----------0---------|-0--------0--------0-------|
G|---------------------------|---------------------------|---------------------------|
C|---------------------------|---------------------------|---------------------------|


D|---------------------------|---------------------------|---------8---5-------------|
A|---------5---6--------5----|--------------5------------|----------------------5----|
F|---------------------------|-----5-----------------5---|---------------------------|
C|-----0-----------0---------|-0--------0--------0-------|-----0-----------0---------|
G|---------------------------|---------------------------|---------------------------|
C|---------------------------|---------------------------|---------------------------|


D|---------------------------|---------------------------|---------------------------|
A|--------------5------------|---------5---6--------5----|--------------5------------|
F|-----5-----------------5---|---------------------------|-----5-----------------5---|
C|-0--------0--------0-------|-----0-----------0---------|-0--------0--------0-------|
G|---------------------------|---------------------------|---------------------------|
C|---------------------------|---------------------------|---------------------------|


D|-----------------8---------|------------------------|---------------------------|
A|---------5---6-------------|-5-----------------5----|--------------5---6--------|
F|---------------------------|----------5-------------|-----5---------------------|
C|-----0----------------3----|------3--------3--------|-3--------3-----------5----|
G|---------------------------|------------------------|---------------------------|
C|---------------------------|------------------------|---------------------------|


D|------------------------|--------------5---6--------|------------------------|---------------------------|
A|-5-----------------6----|----------------------5----|-5----5---5----5---5----|-5---5----5---5---6---5----|
F|----------5-------------|-----5----------------5----|-5----5---5----5---5----|-5---5----5---5---5---5----|
C|------5--------5--------|-5--------5-----------3----|-3----3---3----3---3----|-3---3----3---3---3---5----|
G|------------------------|---------------------------|------------------------|---------------------------|
C|------------------------|---------------------------|------------------------|---------------------------|


D|------------------------|--------------5---6--------|-------------------8----|---------------------------|
A|-5----5---5----5---6----|-5---5----5---5---5---6----|-6----6---6----6---6----|-6---6----6---6---6---6----|
F|-5----5---5----5---5----|-5---5----5---5---5---7----|-7----7---7----7---7----|-7---7----7---7---7---7----|
C|-5----5---5----5---5----|-5---5----5---5---5---0----|-0----0---0----0---0----|-0---0----0---0---0---0----|
G|------------------------|---------------------------|------------------------|---------------------------|
C|------------------------|---------------------------|------------------------|---------------------------|


D|-------------------8----|--------------8---5--------|------------------------|---------------------------|
A|-6----6---6----6---6----|-6---6----6---6---6---5----|-5----5---5----5---5----|-5---5----5---5---6---5----|
F|-7----7---7----7---7----|-7---7----7---7---7---5----|-5----5---5----5---5----|-5---5----5---5---5---5----|
C|-0----0---0----0---0----|-0---0----0---0---0---3----|-3----3---3----3---3----|-3---3----3---3---3---5----|
G|------------------------|---------------------------|------------------------|---------------------------|
C|------------------------|---------------------------|------------------------|---------------------------|


D|------------------------|--------------5---6--------|-------------------8----|---------------------------|
A|-5----5---5----5---6----|-5---5----5---5---5---6----|-6----6---6----6---6----|-6---6----6---6---6---6----|
F|-5----5---5----5---5----|-5---5----5---5---5---7----|-7----7---7----7---7----|-7---7----7---7---7---7----|
C|-5----5---5----5---5----|-5---5----5---5---5---0----|-0----0---0----0---0----|-0---0----0---0---0---0----|
G|------------------------|---------------------------|------------------------|---------------------------|
C|------------------------|---------------------------|------------------------|---------------------------|


D|-------------------8----|--------------8---5--------|--------|--------|--------|
A|-6----6---6----6---6----|-6---6----6---6---6--------|--------|--------|--------|
F|-7----7---7----7---7----|-7---7----7---7---7--------|--------|--------|--------|
C|-0----0---0----0---0----|-0---0----0---0---0--------|--------|--------|--------|
G|------------------------|---------------------------|--------|--------|--------|
C|------------------------|---------------------------|--------|--------|--------|


D|--------|--------|--------|--------|--------|--------|--------|--------|--------|
A|--------|--------|--------|--------|--------|--------|--------|--------|--------|
F|--------|--------|--------|--------|--------|--------|--------|--------|--------|
C|--------|--------|--------|--------|--------|--------|--------|--------|--------|
G|--------|--------|--------|--------|--------|--------|--------|--------|--------|
C|--------|--------|--------|--------|--------|--------|--------|--------|--------|


D|--------|--------|--------|--------|--------|--------|--------|--------|--------|
A|--------|--------|--------|--------|--------|--------|--------|--------|--------|
F|--------|--------|--------|--------|--------|--------|--------|--------|--------|
C|--------|--------|--------|--------|--------|--------|--------|--------|--------|
G|--------|--------|--------|--------|--------|--------|--------|--------|--------|
C|--------|--------|--------|--------|--------|--------|--------|--------|--------|


D|--------|--------|--------|--------|--------|--------|--------|--------|--------|
A|--------|--------|--------|--------|--------|--------|--------|--------|--------|
F|--------|--------|--------|--------|--------|--------|--------|--------|--------|
C|--------|--------|--------|--------|--------|--------|--------|--------|--------|
G|--------|--------|--------|--------|--------|--------|--------|--------|--------|
C|--------|--------|--------|--------|--------|--------|--------|--------|--------|


D|--------|--------|--------|--------|--------|--------|--------|--------|--------|
A|--------|--------|--------|--------|--------|--------|--------|--------|--------|
F|--------|--------|--------|--------|--------|--------|--------|--------|--------|
C|--------|--------|--------|--------|--------|--------|--------|--------|--------|
G|--------|--------|--------|--------|--------|--------|--------|--------|--------|
C|--------|--------|--------|--------|--------|--------|--------|--------|--------|


D|--------|--------|--------|--------|--------|--------|--------|--------|--------|
A|--------|--------|--------|--------|--------|--------|--------|--------|--------|
F|--------|--------|--------|--------|--------|--------|--------|--------|--------|
C|--------|--------|--------|--------|--------|--------|--------|--------|--------|
G|--------|--------|--------|--------|--------|--------|--------|--------|--------|
C|--------|--------|--------|--------|--------|--------|--------|--------|--------|


D|--------|--------|--------|--------|--------|--------|--------|--------|--------|
A|--------|--------|--------|--------|--------|--------|--------|--------|--------|
F|--------|--------|--------|--------|--------|--------|--------|--------|--------|
C|--------|--------|--------|--------|--------|--------|--------|--------|--------|
G|--------|--------|--------|--------|--------|--------|--------|--------|--------|
C|--------|--------|--------|--------|--------|--------|--------|--------|--------|


D|--------|--------|--------|--------|--------|--------|--------|--------|--------|
A|--------|--------|--------|--------|--------|--------|--------|--------|--------|
F|--------|--------|--------|--------|--------|--------|--------|--------|--------|
C|--------|--------|--------|--------|--------|--------|--------|--------|--------|
G|--------|--------|--------|--------|--------|--------|--------|--------|--------|
C|--------|--------|--------|--------|--------|--------|--------|--------|--------|


D|--------|--------|--------|--------|--------|--------|--------|--------|--------|
A|--------|--------|--------|--------|--------|--------|--------|--------|--------|
F|--------|--------|--------|--------|--------|--------|--------|--------|--------|
C|--------|--------|--------|--------|--------|--------|--------|--------|--------|
G|--------|--------|--------|--------|--------|--------|--------|--------|--------|
C|--------|--------|--------|--------|--------|--------|--------|--------|--------|


D|--------|--------|--------|--------|--------|--------|--------|--------|--------|
A|--------|--------|--------|--------|--------|--------|--------|--------|--------|
F|--------|--------|--------|--------|--------|--------|--------|--------|--------|
C|--------|--------|--------|--------|--------|--------|--------|--------|--------|
G|--------|--------|--------|--------|--------|--------|--------|--------|--------|
C|--------|--------|--------|--------|--------|--------|--------|--------|--------|


D|--------|--------|--------|--------|--------|--------|--------|--------|--------|
A|--------|--------|--------|--------|--------|--------|--------|--------|--------|
F|--------|--------|--------|--------|--------|--------|--------|--------|--------|
C|--------|--------|--------|--------|--------|--------|--------|--------|--------|
G|--------|--------|--------|--------|--------|--------|--------|--------|--------|
C|--------|--------|--------|--------|--------|--------|--------|--------|--------|


D|--------|--------|--------|--------|--------|--------|--------|--------|--------|
A|--------|--------|--------|--------|--------|--------|--------|--------|--------|
F|--------|--------|--------|--------|--------|--------|--------|--------|--------|
C|--------|--------|--------|--------|--------|--------|--------|--------|--------|
G|--------|--------|--------|--------|--------|--------|--------|--------|--------|
C|--------|--------|--------|--------|--------|--------|--------|--------|--------|


D|--------|--------|--------|--------|--------|--------|--------|--------|--------|
A|--------|--------|--------|--------|--------|--------|--------|--------|--------|
F|--------|--------|--------|--------|--------|--------|--------|--------|--------|
C|--------|--------|--------|--------|--------|--------|--------|--------|--------|
G|--------|--------|--------|--------|--------|--------|--------|--------|--------|
C|--------|--------|--------|--------|--------|--------|--------|--------|--------|


D|--------|--------|--------|--------|--------|--------|--------|--------|--------|
A|--------|--------|--------|--------|--------|--------|--------|--------|--------|
F|--------|--------|--------|--------|--------|--------|--------|--------|--------|
C|--------|--------|--------|--------|--------|--------|--------|--------|--------|
G|--------|--------|--------|--------|--------|--------|--------|--------|--------|
C|--------|--------|--------|--------|--------|--------|--------|--------|--------|


D|--------|--------|--------|--------|--------|--------|--------|--------|--------|
A|--------|--------|--------|--------|--------|--------|--------|--------|--------|
F|--------|--------|--------|--------|--------|--------|--------|--------|--------|
C|--------|--------|--------|--------|--------|--------|--------|--------|--------|
G|--------|--------|--------|--------|--------|--------|--------|--------|--------|
C|--------|--------|--------|--------|--------|--------|--------|--------|--------|


D|--------|--------|--------|--------|--------|--------|--------|--------|--------|
A|--------|--------|--------|--------|--------|--------|--------|--------|--------|
F|--------|--------|--------|--------|--------|--------|--------|--------|--------|
C|--------|--------|--------|--------|--------|--------|--------|--------|--------|
G|--------|--------|--------|--------|--------|--------|--------|--------|--------|
C|--------|--------|--------|--------|--------|--------|--------|--------|--------|


D|--------|--------|--------|--------|--------|--------|--------|--------|--------|
A|--------|--------|--------|--------|--------|--------|--------|--------|--------|
F|--------|--------|--------|--------|--------|--------|--------|--------|--------|
C|--------|--------|--------|--------|--------|--------|--------|--------|--------|
G|--------|--------|--------|--------|--------|--------|--------|--------|--------|
C|--------|--------|--------|--------|--------|--------|--------|--------|--------|





Track 2: Lead Acoustic

D|--------|--------|--------|--------|--------|--------|--------|--------|--------|
A|--------|--------|--------|--------|--------|--------|--------|--------|--------|
F|--------|--------|--------|--------|--------|--------|--------|--------|--------|
C|--------|--------|--------|--------|--------|--------|--------|--------|--------|
G|--------|--------|--------|--------|--------|--------|--------|--------|--------|
C|--------|--------|--------|--------|--------|--------|--------|--------|--------|


D|--------|--------|--------|------------------8---|---------------------|------------------8---|
A|--------|--------|--------|------6-----5---------|------6----5----6----|------6-----5---------|
F|--------|--------|--------|----------------------|---------------------|----------------------|
C|--------|--------|--------|----------------------|---------------------|----------------------|
G|--------|--------|--------|----------------------|---------------------|----------------------|
C|--------|--------|--------|----------------------|---------------------|----------------------|


D|-----------5-----|-5---3---5---------------|---------------------|------5---------------|
A|------6----------|---------------8-----6---|------5----6----8----|------------8-----6---|
F|-----------------|-------------------------|---------------------|----------------------|
C|-----------------|-------------------------|---------------------|----------------------|
G|-----------------|-------------------------|---------------------|----------------------|
C|-----------------|-------------------------|---------------------|----------------------|


D|---------------------|------5----6---------|-6--------6--------6-------|-----6---5----8---------|
A|------5----6----8----|----------------5----|--------------5------------|-------------------5----|
F|---------------------|---------------------|-----5-----------------5---|------------------------|
C|---------------------|---------------------|---------------------------|------------------------|
G|---------------------|---------------------|---------------------------|------------------------|
C|---------------------|---------------------|---------------------------|------------------------|


D|-8--------8--------8-------|-----8---10--------------|------8---------------|------------------|
A|--------------6------------|--------------6-----5----|------------6----5----|-6-----6-----5----|
F|-----5-----------------5---|-------------------------|----------------------|------------------|
C|---------------------------|-------------------------|----------------------|------------------|
G|---------------------------|-------------------------|----------------------|------------------|
C|---------------------------|-------------------------|----------------------|------------------|


D|------8----------5----|------5---3---5----------|----------------------|-------5----------|
A|------------6---------|--------------------8----|------6-----5----6----|-8-----------8----|
F|----------------------|-------------------------|----------------------|------------------|
C|----------------------|-------------------------|----------------------|------------------|
G|----------------------|-------------------------|----------------------|------------------|
C|----------------------|-------------------------|----------------------|------------------|


D|----------------------|-------5----6----|------6--------6--------|-6--------6---5----8----|
A|------6-----5----6----|-8---------------|-5-----------------5----|------------------------|
F|----------------------|-----------------|----------5-------------|-----5------------------|
C|----------------------|-----------------|------------------------|------------------------|
G|----------------------|-----------------|------------------------|------------------------|
C|----------------------|-----------------|------------------------|------------------------|


D|------8--------8--------|-8--------8---10--------|------------------------|---------------------------|
A|-5-----------------6----|------------------------|------------------------|---------------------------|
F|----------5-------------|-----5-------------2----|-2----2---2----2---2----|-2---2----2---2---2---5----|
C|------------------------|-------------------3----|-3----3---3----3---3----|-3---3----3---3---3---5----|
G|------------------------|-------------------1----|-1----1---1----1---1----|-1---1----1---1---1---3----|
C|------------------------|------------------------|------------------------|---------------------------|


D|------------------------|------------------------------|-8-----------8-----------8-------|
A|------------------------|----------------------5---6---|-----5---6-------5---6-------5---|
F|-5----5---5----5---5----|-5---5----5---5---5-----------|---------------------------------|
C|-5----5---5----5---5----|-5---5----5---5---5-----------|---------------------------------|
G|-3----3---3----3---3----|-3---3----3---3---3-----------|---------------------------------|
C|------------------------|------------------------------|---------------------------------|


D|-----8---10--8---6----6----|-8----6----5---------|---------8-----------8--------|
A|-6-------------------------|-----------------6---|-5---6-------5---6------------|
F|---------------------------|---------------------|-------------------------2----|
C|---------------------------|---------------------|-------------------------3----|
G|---------------------------|---------------------|-------------------------1----|
C|---------------------------|---------------------|------------------------------|


D|------------------------|---------------------------|------------------------|------------------------------|
A|------------------------|---------------------------|------------------------|----------------------5---6---|
F|-2----2---2----2---2----|-2---2----2---2---2---5----|-5----5---5----5---5----|-5---5----5---5---5-----------|
C|-3----3---3----3---3----|-3---3----3---3---3---5----|-5----5---5----5---5----|-5---5----5---5---5-----------|
G|-1----1---1----1---1----|-1---1----1---1---1---3----|-3----3---3----3---3----|-3---3----3---3---3-----------|
C|------------------------|---------------------------|------------------------|------------------------------|


D|-8-----------8-----------8-------|-----8---10--8---6----6----|-8----6----5---------|
A|-----5---6-------5---6-------5---|-6-------------------------|-----------------6---|
F|---------------------------------|---------------------------|---------------------|
C|---------------------------------|---------------------------|---------------------|
G|---------------------------------|---------------------------|---------------------|
C|---------------------------------|---------------------------|---------------------|


D|---------8-----------8--------|--------|--------|--------|--------|--------|--------|
A|-5---6-------5---6------------|--------|--------|--------|--------|--------|--------|
F|------------------------------|--------|--------|--------|--------|--------|--------|
C|------------------------------|--------|--------|--------|--------|--------|--------|
G|------------------------------|--------|--------|--------|--------|--------|--------|
C|------------------------------|--------|--------|--------|--------|--------|--------|


D|--------|--------|--------|--------|--------|--------|--------|--------|--------|
A|--------|--------|--------|--------|--------|--------|--------|--------|--------|
F|--------|--------|--------|--------|--------|--------|--------|--------|--------|
C|--------|--------|--------|--------|--------|--------|--------|--------|--------|
G|--------|--------|--------|--------|--------|--------|--------|--------|--------|
C|--------|--------|--------|--------|--------|--------|--------|--------|--------|


D|--------|--------|--------|--------|--------|--------|--------|--------|--------|
A|--------|--------|--------|--------|--------|--------|--------|--------|--------|
F|--------|--------|--------|--------|--------|--------|--------|--------|--------|
C|--------|--------|--------|--------|--------|--------|--------|--------|--------|
G|--------|--------|--------|--------|--------|--------|--------|--------|--------|
C|--------|--------|--------|--------|--------|--------|--------|--------|--------|


D|--------|--------|--------|--------|--------|--------|--------|--------|--------|
A|--------|--------|--------|--------|--------|--------|--------|--------|--------|
F|--------|--------|--------|--------|--------|--------|--------|--------|--------|
C|--------|--------|--------|--------|--------|--------|--------|--------|--------|
G|--------|--------|--------|--------|--------|--------|--------|--------|--------|
C|--------|--------|--------|--------|--------|--------|--------|--------|--------|


D|--------|--------|--------|--------|--------|--------|--------|--------|--------|
A|--------|--------|--------|--------|--------|--------|--------|--------|--------|
F|--------|--------|--------|--------|--------|--------|--------|--------|--------|
C|--------|--------|--------|--------|--------|--------|--------|--------|--------|
G|--------|--------|--------|--------|--------|--------|--------|--------|--------|
C|--------|--------|--------|--------|--------|--------|--------|--------|--------|


D|--------|--------|--------|--------|--------|--------|--------|--------|--------|
A|--------|--------|--------|--------|--------|--------|--------|--------|--------|
F|--------|--------|--------|--------|--------|--------|--------|--------|--------|
C|--------|--------|--------|--------|--------|--------|--------|--------|--------|
G|--------|--------|--------|--------|--------|--------|--------|--------|--------|
C|--------|--------|--------|--------|--------|--------|--------|--------|--------|


D|--------|--------|--------|--------|--------|--------|--------|--------|--------|
A|--------|--------|--------|--------|--------|--------|--------|--------|--------|
F|--------|--------|--------|--------|--------|--------|--------|--------|--------|
C|--------|--------|--------|--------|--------|--------|--------|--------|--------|
G|--------|--------|--------|--------|--------|--------|--------|--------|--------|
C|--------|--------|--------|--------|--------|--------|--------|--------|--------|


D|--------|--------|--------|--------|--------|--------|--------|--------|--------|
A|--------|--------|--------|--------|--------|--------|--------|--------|--------|
F|--------|--------|--------|--------|--------|--------|--------|--------|--------|
C|--------|--------|--------|--------|--------|--------|--------|--------|--------|
G|--------|--------|--------|--------|--------|--------|--------|--------|--------|
C|--------|--------|--------|--------|--------|--------|--------|--------|--------|


D|--------|--------|--------|--------|--------|--------|--------|--------|--------|
A|--------|--------|--------|--------|--------|--------|--------|--------|--------|
F|--------|--------|--------|--------|--------|--------|--------|--------|--------|
C|--------|--------|--------|--------|--------|--------|--------|--------|--------|
G|--------|--------|--------|--------|--------|--------|--------|--------|--------|
C|--------|--------|--------|--------|--------|--------|--------|--------|--------|


D|--------|--------|--------|--------|--------|--------|--------|--------|--------|
A|--------|--------|--------|--------|--------|--------|--------|--------|--------|
F|--------|--------|--------|--------|--------|--------|--------|--------|--------|
C|--------|--------|--------|--------|--------|--------|--------|--------|--------|
G|--------|--------|--------|--------|--------|--------|--------|--------|--------|
C|--------|--------|--------|--------|--------|--------|--------|--------|--------|


D|--------|--------|--------|--------|--------|--------|--------|--------|--------|
A|--------|--------|--------|--------|--------|--------|--------|--------|--------|
F|--------|--------|--------|--------|--------|--------|--------|--------|--------|
C|--------|--------|--------|--------|--------|--------|--------|--------|--------|
G|--------|--------|--------|--------|--------|--------|--------|--------|--------|
C|--------|--------|--------|--------|--------|--------|--------|--------|--------|


D|--------|--------|--------|--------|--------|--------|--------|--------|--------|
A|--------|--------|--------|--------|--------|--------|--------|--------|--------|
F|--------|--------|--------|--------|--------|--------|--------|--------|--------|
C|--------|--------|--------|--------|--------|--------|--------|--------|--------|
G|--------|--------|--------|--------|--------|--------|--------|--------|--------|
C|--------|--------|--------|--------|--------|--------|--------|--------|--------|


D|--------|--------|--------|--------|--------|--------|--------|--------|--------|
A|--------|--------|--------|--------|--------|--------|--------|--------|--------|
F|--------|--------|--------|--------|--------|--------|--------|--------|--------|
C|--------|--------|--------|--------|--------|--------|--------|--------|--------|
G|--------|--------|--------|--------|--------|--------|--------|--------|--------|
C|--------|--------|--------|--------|--------|--------|--------|--------|--------|


D|--------|--------|--------|--------|--------|--------|--------|--------|--------|
A|--------|--------|--------|--------|--------|--------|--------|--------|--------|
F|--------|--------|--------|--------|--------|--------|--------|--------|--------|
C|--------|--------|--------|--------|--------|--------|--------|--------|--------|
G|--------|--------|--------|--------|--------|--------|--------|--------|--------|
C|--------|--------|--------|--------|--------|--------|--------|--------|--------|


D|--------|--------|--------|--------|--------|--------|--------|--------|--------|
A|--------|--------|--------|--------|--------|--------|--------|--------|--------|
F|--------|--------|--------|--------|--------|--------|--------|--------|--------|
C|--------|--------|--------|--------|--------|--------|--------|--------|--------|
G|--------|--------|--------|--------|--------|--------|--------|--------|--------|
C|--------|--------|--------|--------|--------|--------|--------|--------|--------|


D|--------|--------|--------|--------|--------|--------|--------|--------|--------|
A|--------|--------|--------|--------|--------|--------|--------|--------|--------|
F|--------|--------|--------|--------|--------|--------|--------|--------|--------|
C|--------|--------|--------|--------|--------|--------|--------|--------|--------|
G|--------|--------|--------|--------|--------|--------|--------|--------|--------|
C|--------|--------|--------|--------|--------|--------|--------|--------|--------|


D|--------|--------|--------|--------|--------|--------|
A|--------|--------|--------|--------|--------|--------|
F|--------|--------|--------|--------|--------|--------|
C|--------|--------|--------|--------|--------|--------|
G|--------|--------|--------|--------|--------|--------|
C|--------|--------|--------|--------|--------|--------|





Track 3: bass

F|--------|--------|--------|--------|--------|--------|--------|--------|--------|
C|--------|--------|--------|--------|--------|--------|--------|--------|--------|
G|--------|--------|--------|--------|--------|--------|--------|--------|--------|
C|--------|--------|--------|--------|--------|--------|--------|--------|--------|


F|--------|--------|--------|-------------|---------------------|-------------|---------------------|
C|--------|--------|--------|-------------|---------------------|-------------|---------------------|
G|--------|--------|--------|-------------|---------------------|-------------|---------------------|
C|--------|--------|--------|------0------|------0----0----0----|------0------|------0----0----0----|


F|-------------|---------------------|-------------|---------------------|-----------------|
C|-------------|---------------------|-------------|---------------------|-----------------|
G|-------------|---------------------|-------------|---------------------|-----------1-----|
C|-3----0------|------0----0----0----|------0------|------0----0----0----|-3----5----------|


F|-----------------|-----------------|-----------------|-----------------|-----------------|
C|-----------------|-0---------------|-----------------|-2---------------|-----------------|
G|-------1----1----|------1----3-----|-------3----3----|------3----------|-----------------|
C|-----------------|-----------------|-----------------|-----------0-----|-------0----0----|


F|-------------|-----------------|-----------------|-----------------|-------------|
C|-------------|-----------------|-----------------|-----------------|-------------|
G|-------------|-----------------|-----------------|-----------------|-------------|
C|-0-----0-----|-------0----0----|-0----3----0-----|-------0----0----|-0-----0-----|


F|-----------------|---------------------|-------------|---------------------|-------------|
C|-----------------|---------------------|-------------|------0--------------|-------------|
G|-----------------|----------------1----|--------1----|-1---------1----3----|--------3----|
C|-------0----0----|-0----3----5---------|-------------|---------------------|-------------|


F|---------------------|------------------------|---------------------------|------------------------|
C|------2--------------|------------------------|--------------0---0--------|------------------------|
G|-3---------3----1----|-1----1---1----1---1----|-1---1----1-----------3----|-3----3---3----3---3----|
C|---------------------|------------------------|---------------------------|------------------------|


F|---------------------------|------------------------|---------------------------|
C|--------------2---2--------|------------------------|---------------------------|
G|-3---3----3-----------5----|-5----5---5----5---5----|-5---5----5---3---5---5----|
C|---------------------------|------------------------|---------------------------|


F|------------------------|------------------7--------|------------------------|---------------------------|
C|------------------------|--------------7------------|------------------------|--------------0---0--------|
G|-5----5---5----5---5----|-5---5----5-----------1----|-1----1---1----1---1----|-1---1----1-----------3----|
C|------------------------|---------------------------|------------------------|---------------------------|


F|------------------------|---------------------------|------------------------|---------------------------|
C|------------------------|--------------2---2--------|------------------------|---------------------------|
G|-3----3---3----3---3----|-3---3----3-----------5----|-5----5---5----5---5----|-5---5----5---3---5---5----|
C|------------------------|---------------------------|------------------------|---------------------------|


F|------------------------|------------------7--------|------------------------|--------------------|
C|------------------------|--------------7------------|------------------------|--------------------|
G|-5----5---5----5---5----|-5---5----5----------------|------------------------|-------7---8--------|
C|------------------------|----------------------8----|-8----8----8---8---8----|---------------10---|


F|------------------------|-------------------------|----------------------------|
C|------------------------|-------------------------|----------------------------|
G|------------------------|-------------------------|----------------------------|
C|-10---10---10--10--10---|-------1---1---0--0------|------0--0--------0--0--6---|


F|-----------------------------------|---------------------------------------|----------------------------|
C|-----------------------------------|---------------------------------------|----------------------------|
G|-----------------------------------|---------------------------------------|----------------------------|
C|-0--0--6---0--0--------0--0--5--6--|-3---0--0--3--5--1---0---1---0--0------|------0--0--------0--0--6---|


F|-----------------------------------|---------------------------------------|-----------------------------------------------|
C|-----------------------------------|-----------------------------------1---|-1--0--------1---1--0--------------------------|
G|-----------------------------------|---------------------------------------|-----------------------------------------------|
C|-0--0--6---0--0--------0--0--5--6--|-3---0--0--3--5--1---0---1---0--0------|-------0--0------------0--0--1--0--4--0--0--0--|


F|-------------1--0------------------------------|-----------------------------------------------|
C|-------------------3--0--1--0--3--0--------1---|-1--0--------1---1--0--------------------------|
G|-----------------------------------------------|-----------------------------------------------|
C|-1--0--3--0--------------------------0--0------|-------0--0------------0--0--1--0--0--1--0--1--|


F|-----------------------------------------------|-----------------------------------------------|
C|-------------------------------------------1---|-1--0--------1---1--0--------------------------|
G|-----------------------------------------------|-----------------------------------------------|
C|-0--4--4--4--0--1--2--0--1--0--3--0--0--0------|-------0--0------------0--0--1--0--4--0--0--0--|


F|-------------1--0------------------------------|-----------------------------------------------|
C|-------------------3--0--1--0--3--0--------1---|-1--0--------1---1--0--------------------------|
G|-----------------------------------------------|-----------------------------------5--5--------|
C|-1--0--3--0--------------------------0--0------|-------0--0------------0--0--1--0--------0--0--|


F|-------7-----7--7------------------------------|-----------------------------7-----7--7--------|
C|-6-----------------------6---------------------|-----------------------6-----------------------|
G|-------------------------------5---------------|-----------5--5--------------------------------|
C|----0-----0--------0--0-----0-----0--0--0--6---|-0--0--6---------0--0-----0-----0--------0--0--|


F|--------------------------------------|--------|--------|---------------------------------------------|
C|-6------------------------------------|--------|--------|---------------------------------------------|
G|-------5------------------------------|--------|--------|---------------------------------------------|
C|----0-----0--0--0--6---0--0--6---0----|--------|--------|-3---3---7--0--0--0--7--0--8--0--0--0--8--0--|


F|-------------------------------------------------|---------------------------------------------|
C|-------------------------------------------------|---------------------------------------------|
G|-------------------------------------------------|-------1--1--1--3--3--3----------------------|
C|-5--0--0--0--0--0--0--0--3--0--0--0--5--0--2--0--|-0--0--------------------3---3---7--0--0--0--|


F|-------------------------------------------------|-------------------------------------------------|
C|-------------------------------------------------|-------------------------------------------------|
G|-------------------------------------------------|-------------------------------1--1--1--3--3--3--|
C|-7--0--8--0--0--0--8--0--5--0--0--0--0--0--0--0--|-3--0--0--0--5--0--2--0--0--0--------------------|


F|---------------------------------------------|-------------------------------------------------|
C|---------------------------------------------|-------------------------------------------------|
G|---------------------------------------------|-------------------------------------------------|
C|-3---3---7--0--0--0--7--0--8--0--0--0--8--0--|-5--0--0--0--0--0--0--0--3--0--0--0--5--0--2--0--|


F|---------------------------------------------|-------------------------------------------------|
C|---------------------------------------------|-------------------------------------------------|
G|-------1--1--1--3--3--3----------------------|-------------------------------------------------|
C|-0--0--------------------3---3---7--0--0--0--|-7--0--8--0--0--0--8--0--5--0--0--0--0--0--0--0--|


F|-------------------------------------------------|---------------------------------------------|
C|-------------------------------------------------|---------------------------------------------|
G|-------------------------------1--1--1--3--3--3--|---------------------------------------------|
C|-3--0--0--0--5--0--2--0--0--0--------------------|-3---3---3--3--3--3--3--3--3--3--7--7--7--7--|


F|-------------------------------------------------|-------------------------------------------------|
C|-------------------------7--7--------------------|-------------------------10-10-------8--8--7--7--|
G|-------------------8--8--------8--8--------8--8--|-------7--8--------8--8--------8--8--------------|
C|-7--7--7--7--8--8--------------------8--8--------|-8--8--------8--8--------------------------------|


F|-------------------------------------------------|-------------------------------------------------|
C|-------------------7--7--------------------------|-------7--8--------10-10-------------14-14-12-12-|
G|-------------------------8--8--------3--3--5--5--|-------------------------12-12-------------------|
C|-10-10-10-10-0--0--------------0--0--------------|-0--0--------0--0--------------0--0--------------|


F|-------------------------------------------------|-------------------------------------------------|
C|-------------------------7--7--------------------|-------------------------10-10-------8--8--7--7--|
G|-8--8--7--7--------8--8--------8--8--------8--8--|-------7--8--------8--8--------8--8--------------|
C|-------------8--8--------------------8--8--------|-8--8--------8--8--------------------------------|


F|-------------------------------------------------|-------------------------------------------------|
C|-------------------7--7--------------------------|-------7--8--------10-10-------------14-14-12-12-|
G|-------------------------8--8--------3--3--5--5--|-------------------------12-12-------------------|
C|-10-10-10-10-0--0--------------0--0--------------|-0--0--------0--0--------------0--0--------------|


F|-------------------------------------------------|-------------------------------------------------|
C|-------------------------7--7--------------------|-------------------------10-10-------8--8--7--7--|
G|-8--8--7--7--------8--8--------8--8--------8--8--|-------7--8--------8--8--------8--8--------------|
C|-------------8--8--------------------8--8--------|-8--8--------8--8--------------------------------|


F|-------------------------------------------------|-------------------------------------------------|
C|-------------------7--7--------------------------|-------7--8--------10-10-------------14-14-12-12-|
G|-------------------------8--8--------3--3--5--5--|-------------------------12-12-------------------|
C|-10-10-10-10-0--0--------------0--0--------------|-0--0--------0--0--------------0--0--------------|


F|-------------------------------------------------|-------------------------------------------------|
C|-------------------------7--7--------------------|-------------------------10-10-------8--8--7--7--|
G|-8--8--7--7--------8--8--------8--8--------8--8--|-------7--8--------8--8--------8--8--------------|
C|-------------8--8--------------------8--8--------|-8--8--------8--8--------------------------------|


F|-------------------------------------------------|-------------------------------------------------|
C|-------------------7--7--------------------------|-------7--8--------10-10-------------14-14-12-12-|
G|-------------------------8--8--------3--3--5--5--|-------------------------12-12-------------------|
C|-10-10-10-10-0--0--------------0--0--------------|-0--0--------0--0--------------0--0--------------|


F|-------------------------------------------------|-------------------------------------------------|
C|-------------------------------------5--5--5--5--|-------------------------------------0--0--5--5--|
G|-8--8--7--7--------8--8--8--8--------------------|-------------8--0--10-0--------0--0--------------|
C|-------------8--8--------------5--5--------------|-0--0--0--0--------------0--0--------------------|


F|-------------------------------------------------|-------------------------------------------------|
C|-------------------------5--5--5--5--------------|-------------------------0--0--5--5--------------|
G|-------8--8--8--8--------------------------------|-8--0--10-0--------0--0--------------5--5--------|
C|-8--8--------------5--5--------------0--0--0--0--|-------------0--0--------------------------0--0--|


F|-------7-----7--7--------------------------------|-------------------------------|
C|-6-----------------------6-----------------------|-------------------------------|
G|-------------------------------5-----------------|-------------------5--5--------|
C|----0-----0--------0--0-----0-----0--4--0--0--0--|-1--0--3--0--------------0--0--|


F|-------7-----7--7--------------------------------|-------------------------------|
C|-6-----------------------6-----------------------|-------------------------------|
G|-------------------------------5-----------------|-------------------5--5--------|
C|----0-----0--------0--0-----0-----0--4--0--0--0--|-1--0--3--0--------------0--0--|


F|-------7-----7--7--------------------------------|-------------------------------------------------|
C|-6-----------------------6-----------------------|-------------------------------------------------|
G|-------------------------------5-----------------|-------------------------------------5--5--------|
C|----0-----0--------0--0-----0-----0--4--0--0--0--|-1--0--3--0--1--1--1--1--1--1--1--1--------0--0--|


F|-------7-----7--7--------------------------------|-----------------------------------------------|
C|-6-----------------------6-----------------------|-------------------------------------------1---|
G|-------------------------------5-----------------|-----------------------------------------------|
C|----0-----0--------0--0-----0-----0--4--0--0--0--|-1--0--3--0--1--1--1--1--1--1--1--1--0--0------|


F|-----------------------------------------------|-------------1--0------------------------------|
C|-1--0--------1---1--0--------------------------|-------------------3--0--1--0--3--0--------1---|
G|-----------------------------------------------|-----------------------------------------------|
C|-------0--0------------0--0--1--0--4--0--0--0--|-1--0--3--0--------------------------0--0------|


F|-----------------------------------------------|-----------------------------------------------|
C|-1--0--------1---1--0--------------------------|-------------------------------------------1---|
G|-----------------------------------------------|-----------------------------------------------|
C|-------0--0------------0--0--1--0--0--1--0--1--|-0--4--4--4--0--1--2--0--1--0--3--0--0--0------|


F|-----------------------------------------------|-------------1--0------------------------------|
C|-1--0--------1---1--0--------------------------|-------------------3--0--1--0--3--0--------1---|
G|-----------------------------------------------|-----------------------------------------------|
C|-------0--0------------0--0--1--0--4--0--0--0--|-1--0--3--0--------------------------0--0------|


F|----------------------------------------|------------------------|--------------------|
C|-1--0--------1---1--0-------------------|------------------------|--------------------|
G|----------------------------------------|------------------------|--------------------|
C|-------0--0------------0--0--1--0-------|------------------------|--------------------|


F|--------------------------|-----------------|-----------------------|-------------------|
C|--------------------------|-----------------|-----------------------|-------------------|
G|--------------------------|-----------------|-----------------------|-------------------|
C|--------------------------|-----------------|-----------------------|-------------------|


F|-----------------------|-------------|-----------------|----------------|--------------------|
C|-----------------------|-------------|-----------------|----------------|--------------------|
G|-----------------------|-------------|-----------------|----------------|--------------------|
C|-----------------------|-------------|-----------------|----------------|--------------------|


F|-------------------|-----------------|--------|---------------------------------|
C|-------------------|-----------------|--------|---------------------------------|
G|-------------------|-----------------|--------|---------------------------------|
C|-------------------|-----8-----8-----|-7------|-7---0---0---0---0---0---0---0---|


F|---------------------------------|-----------------|--------|---------------------------------|
C|---------------------------------|-----------------|--------|---------------------------------|
G|-----5---5---7---7---8---8---10--|-12--------------|--------|---------------------------------|
C|-0-------------------------------|-----8-----8-----|-7------|-7---0---0---0---0---0---0---0---|


F|---------------------------------|----------------|--------|--------|--------|--------|
C|---------------------------------|----------------|--------|--------|--------|--------|
G|-----5---5---7---7---8---8---10--|-12-------------|--------|--------|--------|--------|
C|-0-------------------------------|----------------|--------|--------|--------|--------|


F|--------|--------|--------|--------|--------|--------|--------|--------|--------|
C|--------|--------|--------|--------|--------|--------|--------|--------|--------|
G|--------|--------|--------|--------|--------|--------|--------|--------|--------|
C|--------|--------|--------|--------|--------|--------|--------|--------|--------|


F|--------|--------|--------|--------|--------|--------|--------|--------|--------|
C|--------|--------|--------|--------|--------|--------|--------|--------|--------|
G|--------|--------|--------|--------|--------|--------|--------|--------|--------|
C|--------|--------|--------|--------|--------|--------|--------|--------|--------|


F|--------|--------|--------|--------|--------|--------|--------|--------|--------|
C|--------|--------|--------|--------|--------|--------|--------|--------|--------|
G|--------|--------|--------|--------|--------|--------|--------|--------|--------|
C|--------|--------|--------|--------|--------|--------|--------|--------|--------|


F|--------|--------|--------|--------|--------|--------|--------|--------|--------|
C|--------|--------|--------|--------|--------|--------|--------|--------|--------|
G|--------|--------|--------|--------|--------|--------|--------|--------|--------|
C|--------|--------|--------|--------|--------|--------|--------|--------|--------|


F|--------|--------|--------|--------|--------|--------|--------|--------|--------|
C|--------|--------|--------|--------|--------|--------|--------|--------|--------|
G|--------|--------|--------|--------|--------|--------|--------|--------|--------|
C|--------|--------|--------|--------|--------|--------|--------|--------|--------|


F|--------|--------|--------|--------|--------|--------|--------|--------|--------|
C|--------|--------|--------|--------|--------|--------|--------|--------|--------|
G|--------|--------|--------|--------|--------|--------|--------|--------|--------|
C|--------|--------|--------|--------|--------|--------|--------|--------|--------|





Track 4: Rythem

D|--------|--------|--------|--------|--------|--------|--------|--------|--------|
A|--------|--------|--------|--------|--------|--------|--------|--------|--------|
F|--------|--------|--------|--------|--------|--------|--------|--------|--------|
C|--------|--------|--------|--------|--------|--------|--------|--------|--------|
G|--------|--------|--------|--------|--------|--------|--------|--------|--------|
C|--------|--------|--------|--------|--------|--------|--------|--------|--------|


D|--------|--------|--------|--------|--------|--------|--------|--------|--------|
A|--------|--------|--------|--------|--------|--------|--------|--------|--------|
F|--------|--------|--------|--------|--------|--------|--------|--------|--------|
C|--------|--------|--------|--------|--------|--------|--------|--------|--------|
G|--------|--------|--------|--------|--------|--------|--------|--------|--------|
C|--------|--------|--------|--------|--------|--------|--------|--------|--------|


D|--------|--------|--------|--------|--------|--------|--------|--------|--------|
A|--------|--------|--------|--------|--------|--------|--------|--------|--------|
F|--------|--------|--------|--------|--------|--------|--------|--------|--------|
C|--------|--------|--------|--------|--------|--------|--------|--------|--------|
G|--------|--------|--------|--------|--------|--------|--------|--------|--------|
C|--------|--------|--------|--------|--------|--------|--------|--------|--------|


D|--------|--------|--------|--------|--------|--------|--------|--------|--------|
A|--------|--------|--------|--------|--------|--------|--------|--------|--------|
F|--------|--------|--------|--------|--------|--------|--------|--------|--------|
C|--------|--------|--------|--------|--------|--------|--------|--------|--------|
G|--------|--------|--------|--------|--------|--------|--------|--------|--------|
C|--------|--------|--------|--------|--------|--------|--------|--------|--------|


D|--------|--------|--------|--------|--------|--------|--------|--------|--------|
A|--------|--------|--------|--------|--------|--------|--------|--------|--------|
F|--------|--------|--------|--------|--------|--------|--------|--------|--------|
C|--------|--------|--------|--------|--------|--------|--------|--------|--------|
G|--------|--------|--------|--------|--------|--------|--------|--------|--------|
C|--------|--------|--------|--------|--------|--------|--------|--------|--------|


D|--------|--------|--------|--------|--------|--------|--------|-------------|------------------------|
A|--------|--------|--------|--------|--------|--------|--------|-------------|------------------------|
F|--------|--------|--------|--------|--------|--------|--------|-------------|------------------------|
C|--------|--------|--------|--------|--------|--------|--------|--------8----|-8----8------------8----|
G|--------|--------|--------|--------|--------|--------|--------|--------8----|-8----8------------8----|
C|--------|--------|--------|--------|--------|--------|--------|--------8----|-8----8----8---8---8----|


D|-------------|------------------------|---------------------------|-----------------------------------------------|
A|-------------|------------------------|---------------------------|-----------------------------------------------|
F|-------------|------------------------|---------------------------|-----------------------------------------------|
C|--------10---|-10---10-----------10---|---------------------8--0--|-5--0--6--0--------8--0--5--0--6--0--------6---|
G|--------10---|-10---10-----------10---|---------------------------|-------------------------------------------5---|
C|--------10---|-10---10---10--10--10---|-------13--13--0--0--------|-------------0--0--------------------0--0--6---|


D|-----------------------------------------------|-----------------------------------------|
A|-----------------------------------------------|-----------------------------------------|
F|-----------------------------------------------|-----------------------------------------|
C|-------6---------8--0--5--0--6--0--------------|-------------------------1---------8--0--|
G|-------5---------------------------------5--6--|-3---------3--5--1-----------------------|
C|-0--0--6---0--0--------------------0--0--5--6--|-3---0--0--3--5--1---0-------0--0--------|


D|-----------------------------------------------|-----------------------------------------------|
A|-----------------------------------------------|-----------------------------------------------|
F|-----------------------------------------------|-----------------------------------------------|
C|-5--0--6--0--------8--0--5--0--6--0--------6---|-------6---------8--0--5--0--6--0--------------|
G|-------------------------------------------5---|-------5---------------------------------5--6--|
C|-------------0--0--------------------0--0--6---|-0--0--6---0--0--------------------0--0--5--6--|


D|---------------------------------------|-----------------------------------------------|
A|---------------------------------------|-----------------------------------------------|
F|---------------------------------------|-----------------------------------------------|
C|-------------------------1---------1---|-1--0--------1---1--0--------------------------|
G|-3---------3--5--1---------------------|-----------------------------------------------|
C|-3---0--0--3--5--1---0-------0--0------|-------0--0------------0--0--1--0--4--0--0--0--|


D|-----------------------------------------------|-----------------------------------------------|
A|-----------------------------------------------|-----------------------------------------------|
F|-------------1--0------------------------------|-----------------------------------------------|
C|-------------------3--0--1--0--3--0--------1---|-1--0--------1---1--0--------------------0--1--|
G|-----------------------------------------------|-----------------------------------0--1--------|
C|-1--0--3--0--------------------------0--0------|-------0--0------------0--0--1--0--------------|


D|-----------------------------------------------|-----------------------------------------------|
A|-----------------------------------------------|-----------------------------------------------|
F|-0--1--4--1--0---------------------------------|-----------------------------------------------|
C|----------------1--2-----------------------1---|-1--0--------1---1--0--------------------------|
G|----------------------0--1--0--3--0------------|-----------------------------------------------|
C|-------------------------------------0--0------|-------0--0------------0--0--1--0--4--0--0--0--|


D|-----------------------------------------------|-----------------------------------------------|
A|-----------------------------------------------|-----------------------------------------------|
F|-------------1--0------------------------------|-----------------------------------7--7--------|
C|-------------------3--0--1--0--3--0--------1---|-1--0--------1---1--0--------------6--6--------|
G|-----------------------------------------------|-----------------------------------5--5--------|
C|-1--0--3--0--------------------------0--0------|-------0--0------------0--0--1--0--------0--0--|


D|-----------------------------------------------|-----------------------------------------------|
A|-----------------------------------------------|-----------------------------------------------|
F|-7-----7-----7--7--------7-----7---------------|-----------7--7--------7-----7-----7--7--------|
C|-6-----6-----6--6--------6-----6-----------6---|-------6---6--6--------6-----6-----6--6--------|
G|-5-----5-----5--5--------5-----5-----------5---|-------5---5--5--------5-----5-----5--5--------|
C|----0-----0--------0--0-----0-----0--0--0--6---|-0--0--6---------0--0-----0-----0--------0--0--|


D|---------------------------------------------|-------------------------------------------------|
A|---------------------------------------------|-------------------------------------------------|
F|-7-----7-------------------------------------|-------------------------------------------------|
C|-6-----6-----------6---------6---7--0--------|-7--0--8--0--------8--0--5--0--------------------|
G|-5-----5-----------5---------5---------------|-------------------------------------------------|
C|----0-----0--0--0--6---0--0--6---------0--0--|-------------0--0--------------0--0--0--0--0--0--|


D|-------------------------------------------------------|---------------------------------------------|
A|-------------------------------------------------------|---------------------------------------------|
F|-------------------------------0--2--3--2--------------|---------------------------------------------|
C|-3--0--------5--0--2--0--------------------0--2--3--2--|---------7--0--------7--0--8--0--------8--0--|
G|-------------------------------------------------------|-3---3---------------------------------------|
C|-------0--0--------------0--0--------------------------|-3---3---------0--0--------------0--0--------|


D|-------------------------------------------------|---------------------------------------------------|
A|-------------------------------------------------|---------------------------------------------------|
F|-------------------------------------------------|-------0--2--3--2----------------------------------|
C|-5--0--------------------3--0--------5--0--2--0--|-------------------0--2--3--2----------7--0--------|
G|-------------------------------------------------|-------------------------------3---3---------------|
C|-------0--0--0--0--0--0--------0--0--------------|-0--0--------------------------3---3---------0--0--|


D|-------------------------------------------------|-------------------------------------------------------|
A|-------------------------------------------------|-------------------------------------------------------|
F|-------------------------------------------------|-------------------------------0--2--3--2--------------|
C|-7--0--8--0--------8--0--5--0--------------------|-3--0--------5--0--2--0--------------------0--2--3--2--|
G|-------------------------------------------------|-------------------------------------------------------|
C|-------------0--0--------------0--0--0--0--0--0--|-------0--0--------------0--0--------------------------|


D|---------------------------------------------|-------------------------------------------------|
A|---------------------------------------------|-------------------------------------------------|
F|---------------------------------------------|-------------------------------------------------|
C|---------7--0--------7--0--8--0--------8--0--|-5--0--------------------3--0--------5--0--2--0--|
G|-3---3---------------------------------------|-------------------------------------------------|
C|-3---3---------0--0--------------0--0--------|-------0--0--0--0--0--0--------0--0--------------|


D|---------------------------------------------------|-------------------------------------------------|
A|---------------------------------------------------|-------------------------------------------------|
F|-------0--2--3--2----------------------------------|-------------------------------------------------|
C|-------------------0--2--3--2----------7--0--------|-7--0--8--0--------8--0--5--0--------------------|
G|-------------------------------3---3---------------|-------------------------------------------------|
C|-0--0--------------------------3---3---------0--0--|-------------0--0--------------0--0--0--0--0--0--|


D|-------------------------------------------------------|---------------------------------------------|
A|-------------------------------------------------------|---------------------------------------------|
F|-------------------------------0--2--3--2--------------|---------------------------------------------|
C|-3--0--------5--0--2--0--------------------0--2--3--2--|---------------------------------------------|
G|-------------------------------------------------------|-3---3---3--3--3--3--3--3--3--3--7--7--7--7--|
C|-------0--0--------------0--0--------------------------|-3---3---3--3--3--3--3--3--3--3--7--7--7--7--|


D|-------------------------------------------------|-------------------------------------------------|
A|-------------------------------------------------|-------------------------------------------------|
F|-------------------------------------------------|-------------------------------------------------|
C|-------------------7--0--------------10-0--------|-------------------7--0--------------12-0--10-0--|
G|-7--7--7--7--------------8--0--------------8--0--|-------7--8--------------8--0--------------------|
C|-7--7--7--7--8--8--------------8--8--------------|-8--8--------8--8--------------8--8--------------|


D|-------------------------------------------------|-------------------------------------------------|
A|-------------------------------------------------|-------------------------------------------10-11-|
F|-------------------------------------9--0--------|-------------------9--0--------12-0--10-0--------|
C|-------------------7--0--------------------10-0--|-------7--8--------------10-0--------------------|
G|-------10-10-------------8--0--------------------|-------------------------------------------------|
C|-10-10-------0--0--------------0--0--------------|-0--0--------0--0--------------------------------|


D|-------------------------------------------------|-------------------------------------------------|
A|-10----------------------------------------------|-------------------------------------------------|
F|----12-10-9--------------------------------------|-------------------------------------------------|
C|-------------------7--0--------------10-0--------|-------------------7--0--------------12-0--10-0--|
G|-------------------------8--0--------------8--0--|-------7--8--------------8--0--------------------|
C|-------------8--8--------------8--8--------------|-8--8--------8--8--------------8--8--------------|


D|-------------------------------------------------|-------------------------------------------------|
A|-------------------------------------------------|-------------------------------------------10-11-|
F|-------------------------------------9--0--------|-------------------9--0--------12-0--10-0--------|
C|-------------------7--0--------------------10-0--|-------7--8--------------10-0--------------------|
G|-------10-10-------------8--0--------------------|-------------------------------------------------|
C|-10-10-------0--0--------------0--0--------------|-0--0--------0--0--------------------------------|


D|-------------------------------------------------|-------------------------------------------------|
A|-10----------------------------------------------|-------------------------------------------------|
F|----12-10-9--------------------------------------|-------------------------------------------------|
C|-------------------7--0--------------10-0--------|-------------------7--0--------------12-0--10-0--|
G|-------------------------8--0--------------8--0--|-------7--8--------------8--0--------------------|
C|-------------8--8--------------8--8--------------|-8--8--------8--8--------------8--8--------------|


D|-------------------------------------------------|-------------------------------------------------|
A|-------------------------------------------------|-------------------------------------------10-11-|
F|-------------------------------------9--0--------|-------------------9--0--------12-0--10-0--------|
C|-------------------7--0--------------------10-0--|-------7--8--------------10-0--------------------|
G|-------10-10-------------8--0--------------------|-------------------------------------------------|
C|-10-10-------0--0--------------0--0--------------|-0--0--------0--0--------------------------------|


D|-------------------------------------------------|-------------------------------------------------|
A|-10----------------------------------------------|-------------------------------------------------|
F|----12-10-9--------------------------------------|-------------------------------------------------|
C|-------------------7--0--------------10-0--------|-------------------7--0--------------12-0--10-0--|
G|-------------------------8--0--------------8--0--|-------7--8--------------8--0--------------------|
C|-------------8--8--------------8--8--------------|-8--8--------8--8--------------8--8--------------|


D|-------------------------------------------------|-------------------------------------------------|
A|-------------------------------------------------|-------------------------------------------10-11-|
F|-------------------------------------9--0--------|-------------------9--0--------12-0--10-0--------|
C|-------------------7--0--------------------10-0--|-------7--8--------------10-0--------------------|
G|-------10-10-------------8--0--------------------|-------------------------------------------------|
C|-10-10-------0--0--------------0--0--------------|-0--0--------0--0--------------------------------|


D|-------------------------------------------------|-------------------------------------------------|
A|-10----------------------------------------------|-------------------------------------------------|
F|----12-10-9--------------------------------------|-------------------------------------------------|
C|-------------------8--0--7--0--------5--0--7--0--|-------------------------------------------------|
G|-------------------------------------------------|-------------5--0--7--0--------5--0--8--0--7--0--|
C|-------------8--8--------------5--5--------------|-0--0--0--0--------------0--0--------------------|


D|-------------------------------------------------|-------------------------------------------------|
A|-------------------------------------------------|-------------------------------------------------|
F|-------------------------------------------------|-------------------------------------7--7--------|
C|-------8--0--7--0--------5--0--7--0--------------|-------------------------------------6--6--------|
G|-------------------------------------------------|-5--0--7--0--------5--0--8--0--7--0--5--5--------|
C|-8--8--------------5--5--------------0--0--0--0--|-------------0--0--------------------------0--0--|


D|-------------------------------------------------|-------------------------------------------------|
A|-------------------------------------------------|-------------------------------------------------|
F|-7-----7-----7--7--------7-----7-----------------|-------------1--0--------------------7--7--------|
C|-6-----6-----6--6--------6-----6-----------------|-------------------3--0--1--0--3--0--6--6--------|
G|-5-----5-----5--5--------5-----5-----------------|-------------------------------------5--5--------|
C|----0-----0--------0--0-----0-----0--4--0--0--0--|-1--0--3--0--------------------------------0--0--|


D|-------------------------------------------------|-------------------------------------------------|
A|-------------------------------------------------|-------------------------------------------------|
F|-7-----7-----7--7--------7-----7-----------------|-------------1--0--------------------7--7--------|
C|-6-----6-----6--6--------6-----6-----------------|-------------------3--0--1--0--3--0--6--6--------|
G|-5-----5-----5--5--------5-----5-----------------|-------------------------------------5--5--------|
C|----0-----0--------0--0-----0-----0--4--0--0--0--|-1--0--3--0--------------------------------0--0--|


D|-------------------------------------------------|-------------------------------------------------|
A|-------------------------------------------------|-------------------------------------------------|
F|-7-----7-----7--7--------7-----7-----------------|-------------1--0--------------------7--7--------|
C|-6-----6-----6--6--------6-----6-----------------|-------------------3--0--1--0--3--0--6--6--------|
G|-5-----5-----5--5--------5-----5-----------------|-------------------------------------5--5--------|
C|----0-----0--------0--0-----0-----0--4--0--0--0--|-1--0--3--0--------------------------------0--0--|


D|-------------------------------------------------|-----------------------------------------------|
A|-------------------------------------------------|-----------------------------------------------|
F|-7-----7-----7--7--------7-----7-----------------|-------------1--0------------------------------|
C|-6-----6-----6--6--------6-----6-----------------|-------------------3--0--1--0--3--0--------1---|
G|-5-----5-----5--5--------5-----5-----------------|-----------------------------------------------|
C|----0-----0--------0--0-----0-----0--4--0--0--0--|-1--0--3--0--------------------------0--0------|


D|-----------------------------------------------|-----------------------------------------------|
A|-----------------------------------------------|-----------------------------------------------|
F|-----------------------------------------------|-------------1--0------------------------------|
C|-1--0--------1---1--0--------------------------|-------------------3--0--1--0--3--0--------1---|
G|-----------------------------------------------|-----------------------------------------------|
C|-------0--0------------0--0--1--0--4--0--0--0--|-1--0--3--0--------------------------0--0------|


D|-----------------------------------------------|-----------------------------------------------|
A|-----------------------------------------------|-----------------------------------------------|
F|-----------------------------------------------|-0--1--4--1--0---------------------------------|
C|-1--0--------1---1--0--------------------0--1--|----------------1--2-----------------------1---|
G|-----------------------------------0--1--------|----------------------0--1--0--3--0------------|
C|-------0--0------------0--0--1--0--------------|-------------------------------------0--0------|


D|-----------------------------------------------|-----------------------------------------------|
A|-----------------------------------------------|-----------------------------------------------|
F|-----------------------------------------------|-------------1--0------------------------------|
C|-1--0--------1---1--0--------------------------|-------------------3--0--1--0--3--0--------1---|
G|-----------------------------------------------|-----------------------------------------------|
C|-------0--0------------0--0--1--0--4--0--0--0--|-1--0--3--0--------------------------0--0------|


D|-----------------------------------------------|-----------------------------------------|
A|-----------------------------------------------|-----------------------------------------|
F|-----------------------------------------------|-----------------------------------------|
C|-1--0--------1---1--0--------------------------|-----------------------------------------|
G|-----------------------------------0--0--0--0--|-0-------0-----0--0-------0-----0--0--0--|
C|-------0--0------------0--0--1--0--0--0--0--0--|-0-------0-----0--0-------0-----0--0--0--|


D|-------------------------------------------------|-----------------------------------------|
A|-------------------------------------------------|-----------------------------------------|
F|-------------------------------------------------|-----------------------------------------|
C|-------------------------------------------------|-----------------------------------------|
G|-0-----0--0--------0--0--0-----0--0-----0--0--0--|-0--0-------0-----0--0-------0-----0--0--|
C|-0-----0--0--------0--0--0-----0--0-----0--0--0--|-0--0-------0-----0--0-------0-----0--0--|


D|-------------------------------------------------|-----------------------------------------|
A|-------------------------------------------------|-----------------------------------------|
F|-------------------------------------------------|-----------------------------------------|
C|-------------------------------------------------|-----------------------------------------|
G|-0--0-----0--0--------0--0--0-----0--0-----0--0--|-0--0--0-------0-----0--0-------0-----0--|
C|-0--0-----0--0--------0--0--0-----0--0-----0--0--|-0--0--0-------0-----0--0-------0-----0--|


D|-------------------------------------------------|-----------------------------------------|
A|-------------------------------------------------|-----------------------------------------|
F|-------------------------------------------------|-----------------------------------------|
C|-------------------------------------------------|-----------------------------------------|
G|-0--0--0-----0--0--------0--0--0-----0--0-----0--|-0--0--0--0-------0-----0--0-------0-----|
C|-0--0--0-----0--0--------0--0--0-----0--0-----0--|-0--0--0--0-------0-----0--0-------0-----|


D|-------------------------------------------------|-----------------------------------------|
A|-------------------------------------------------|-----------------------------------------|
F|-------------------------------------------------|-----------------------------------------|
C|-------------------------------------------------|-----------------------------------------|
G|-0--0--0--0-----0--0--------0--0--0-----0--0-----|-0--0--0--0--0-------0-----0--0-------0--|
C|-0--0--0--0-----0--0--------0--0--0-----0--0-----|-0--0--0--0--0-------0-----0--0-------0--|


D|-------------------------------------------------|-----------------------------------------|
A|-------------------------------------------------|-----------------------------------------|
F|-------------------------------------------------|-----------------------------------------|
C|-------------------------------------------------|-----------------------------------------|
G|----0--0--0--0-----0--0--------0--0--0-----0--0--|----0--0--0--0--0-------0-----0--0-------|
C|----0--0--0--0-----0--0--------0--0--0-----0--0--|----0--0--0--0--0-------0-----0--0-------|


D|-------------------------------------------------|--------------------------------|
A|-------------------------------------------------|--------------------------------|
F|-------------------------------------------------|--------------------------------|
C|-------------------------------------------------|-------8------------------------|
G|-0-----0--0--0--0-----0--0--------0--0--0-----0--|-0-----8------------12--10--8---|
C|-0-----0--0--0--0-----0--0--------0--0--0-----0--|-0-----8----8---8---------------|


D|------------------------------|---------------------------------|-------------------------------------|
A|------------------------------|---------------------------------|-------------------------------------|
F|------------------------------|---------------------------------|-------------------------------------|
C|-7----------------------------|---------------------------------|-----7-------------------------------|
G|-7----------------7---8---7---|-8-------------------------------|---------8--7--5---7--8--7---3---5---|
C|-7----7---7---7---------------|-----0---0---0---0---0---0---0---|-0-----------------------------------|


D|------------------------------|------------------------------|---------------------------------|
A|------------------------------|------------------------------|---------------------------------|
F|------------------------------|------------------------------|---------------------------------|
C|-3---8------------------------|-7----------------------------|---------------------------------|
G|-----8------------12--10--8---|-7----------------7---8---7---|-8-------------------------------|
C|-----8----8---8---------------|-7----7---7---7---------------|-----0---0---0---0---0---0---0---|


D|-------------------------------------|------------------------------|------------------------------|
A|-------------------------------------|------------------------------|------------------------------|
F|-------------------------------------|------------------------------|------------------------------|
C|-----7-------------------------------|-3---8------------------------|-7----------------------------|
G|---------8--7--5---7--8--7---3---5---|-----8------------12--10--8---|-7----------------7---8---7---|
C|-0-----------------------------------|-----8----8---8---------------|-7----7---7---7---------------|


D|---------------------------------|-------------------------------------|------------------------------|
A|---------------------------------|-------------------------------------|------------------------------|
F|---------------------------------|-------------------------------------|------------------------------|
C|---------------------------------|-----7-------------------------------|-3---8------------------------|
G|-8-------------------------------|---------8--7--5---7--8--7---3---5---|-----8------------12--10--8---|
C|-----0---0---0---0---0---0---0---|-0-----------------------------------|-----8----8---8---------------|


D|------------------------------|---------------------------------|-------------------------------------|
A|------------------------------|---------------------------------|-------------------------------------|
F|------------------------------|---------------------------------|-------------------------------------|
C|-7----------------------------|---------------------------------|-----7-------------------------------|
G|-7----------------7---8---7---|-8-------------------------------|---------8--7--5---7--8--7---3---5---|
C|-7----7---7---7---------------|-----0---0---0---0---0---0---0---|-0-----------------------------------|


D|------------|------------|------------|------------|------------|------------|------------|
A|------------|------------|------------|------------|------------|------------|------------|
F|------------|------------|------------|------------|------------|------------|------------|
C|-3---8------|-----7------|-----0------|-----0------|-----8------|-----7------|-----0------|
G|-----8------|-----7------|-----0------|-----0------|-----8------|-----7------|-----0------|
C|-----8------|-----7------|-----0------|-----0------|-----8------|-----7------|-----0------|


D|------------|-----------------------------------------------|-------------------------------------------------|
A|------------|-----------------------------------------------|-------------------------------------------------|
F|------------|-----------------------------------------------|-------------------------------------------------|
C|-----0------|-----------7--0--------------10-0--------------|-------------7--0--------------12-0--10-0--------|
G|-----0------|-----------------8--0--------------8--0--------|-7--8--------------8--0--------------------------|
C|-----0------|-----8--8--------------8--8--------------8--8--|-------8--8--------------8--8--------------10-10-|


D|-------------------------------------------------|-------------------------------------------------|
A|-------------------------------------------------|-------------------------------------10-11-10----|
F|-------------------------------9--0--------------|-------------9--0--------12-0--10-0-----------12-|
C|-------------7--0--------------------10-0--------|-7--8--------------10-0--------------------------|
G|-10-10-------------8--0--------------------------|-------------------------------------------------|
C|-------0--0--------------0--0--------------0--0--|-------0--0--------------------------------------|


D|-------------------------------------------------|-------------------------------------------------|
A|-------------------------------------------------|-------------------------------------------------|
F|-10-9--------------------------------------------|-------------------------------------------------|
C|-------------7--0--------------10-0--------------|-------------7--0--------------12-0--10-0--------|
G|-------------------8--0--------------8--0--------|-7--8--------------8--0--------------------------|
C|-------8--8--------------8--8--------------8--8--|-------8--8--------------8--8--------------10-10-|


D|-------------------------------------------------|-------------------------------------------------|
A|-------------------------------------------------|-------------------------------------10-11-10----|
F|-------------------------------9--0--------------|-------------9--0--------12-0--10-0-----------12-|
C|-------------7--0--------------------10-0--------|-7--8--------------10-0--------------------------|
G|-10-10-------------8--0--------------------------|-------------------------------------------------|
C|-------0--0--------------0--0--------------0--0--|-------0--0--------------------------------------|


D|-------------------------------------------------|-------------------------------------------------|
A|-------------------------------------------------|-------------------------------------------------|
F|-10-9--------------------------------------------|-------------------------------------------------|
C|-------------7--0--------------10-0--------------|-------------7--0--------------12-0--10-0--------|
G|-------------------8--0--------------8--0--------|-7--8--------------8--0--------------------------|
C|-------8--8--------------8--8--------------8--8--|-------8--8--------------8--8--------------10-10-|


D|-------------------------------------------------|-------------------------------------------------|
A|-------------------------------------------------|-------------------------------------10-11-10----|
F|-------------------------------9--0--------------|-------------9--0--------12-0--10-0-----------12-|
C|-------------7--0--------------------10-0--------|-7--8--------------10-0--------------------------|
G|-10-12-------------8--0--------------------------|-------------------------------------------------|
C|-------0--0--------------0--0--------------0--0--|-------0--0--------------------------------------|


D|-------------------------------------------------|-------------------------------------------------|
A|-------------------------------------------------|-------------------------------------------------|
F|-10-9--------------------------------------------|-------------------------------------------------|
C|-------------7--0--------------10-0--------------|-------------7--0--------------12-0--10-0--------|
G|-------------------8--0--------------8--0--------|-7--8--------------8--0--------------------------|
C|-------8--8--------------8--8--------------8--8--|-------8--8--------------8--8--------------10-10-|


D|-------------------------------------------------|-------------------------------------------------|
A|-------------------------------------------------|-------------------------------------10-11-10----|
F|-------------------------------9--0--------------|-------------9--0--------12-0--10-0-----------12-|
C|-------------7--0--------------------10-0--------|-7--8--------------10-0--------------------------|
G|-10-12-------------8--0--------------------------|-------------------------------------------------|
C|-------0--0--------------0--0--------------0--0--|-------0--0--------------------------------------|


D|-------------------------------------------------|-------------------------------------------------|
A|-------------------------------------------------|-------------------------------------------------|
F|-10-9--------------------------------------------|-------------------------------------------------|
C|-------------7--0--------------10-0--------------|-------------7--0--------------12-0--10-0--------|
G|-------------------8--0--------------8--0--------|-7--8--------------8--0--------------------------|
C|-------8--8--------------8--8--------------8--8--|-------8--8--------------8--8--------------10-10-|


D|-------------------------------------------------|-------------------------------------------------|
A|-------------------------------------------------|-------------------------------------10-11-10----|
F|-------------------------------9--0--------------|-------------9--0--------12-0--10-0-----------12-|
C|-------------7--0--------------------10-0--------|-7--8--------------10-0--------------------------|
G|-10-12-------------8--0--------------------------|-------------------------------------------------|
C|-------0--0--------------0--0--------------0--0--|-------0--0--------------------------------------|


D|-------------------------------------------------|-------------------------------------------------|
A|-------------------------------------------------|-------------------------------------------------|
F|-10-9--------------------------------------------|-------------------------------------------------|
C|-------------7--0--------------10-0--------------|-------------7--0--------------12-0--10-0--------|
G|-------------------8--0--------------8--0--------|-7--8--------------8--0--------------------------|
C|-------8--8--------------8--8--------------8--8--|-------8--8--------------8--8--------------10-10-|


D|-------------------------------------------------|-------------------------------------------------|
A|-------------------------------------------------|-------------------------------------10-11-10----|
F|-------------------------------9--0--------------|-------------9--0--------12-0--10-0-----------12-|
C|-------------7--0--------------------10-0--------|-7--8--------------10-0--------------------------|
G|-10-12-------------8--0--------------------------|-------------------------------------------------|
C|-------0--0--------------0--0--------------0--0--|-------0--0--------------------------------------|


D|-------------------------------------------------|-------------------------------------------------|
A|-------------------------------------------------|-------------------------------------------------|
F|-10-9--------------------------------------------|-------------------------------------------------|
C|-------------7--0--------------10-0--------------|-------------7--0--------------12-0--10-0--------|
G|-------------------8--0--------------8--0--------|-7--8--------------8--0--------------------------|
C|-------8--8--------------8--8--------------8--8--|-------8--8--------------8--8--------------10-10-|


D|-------------------------------------------------|-------------------------------------------------|
A|-------------------------------------------------|-------------------------------------10-11-10----|
F|-------------------------------9--0--------------|-------------9--0--------12-0--10-0-----------12-|
C|-------------7--0--------------------10-0--------|-7--8--------------10-0--------------------------|
G|-10-12-------------8--0--------------------------|-------------------------------------------------|
C|-------0--0--------------0--0--------------0--0--|-------0--0--------------------------------------|


D|-------------------------------------------------|-------------------------------------------------|
A|-------------------------------------------------|-------------------------------------------------|
F|-10-9--------------------------------------------|-------------------------------------------------|
C|-------------7--0--------------10-0--------------|-------------7--0--------------12-0--10-0--------|
G|-------------------8--0--------------8--0--------|-7--8--------------8--0--------------------------|
C|-------8--8--------------8--8--------------8--8--|-------8--8--------------8--8--------------10-10-|


D|-------------------------------------------------|-------------------------------------------------|
A|-------------------------------------------------|-------------------------------------10-11-10----|
F|-------------------------------9--0--------------|-------------9--0--------12-0--10-0-----------12-|
C|-------------7--0--------------------10-0--------|-7--8--------------10-0--------------------------|
G|-10-12-------------8--0--------------------------|-------------------------------------------------|
C|-------0--0--------------0--0--------------0--0--|-------0--0--------------------------------------|


D|-------------------------------------------------|-------------------------------------------------|
A|-------------------------------------------------|-------------------------------------------------|
F|-10-9--------------------------------------------|-------------------------------------------------|
C|-------7--0--------7--0--8--0--------8--0--5--0--|-------------------3--0--------5--0--2--0--------|
G|-------------------------------------------------|-------------------------------------------------|
C|-------------0--0--------------0--0--------------|-0--0--0--0--0--0--------0--0--------------0--0--|


D|---------------------------------------------------|-------------------------------------------------|
A|---------------------------------------------------|-------------------------------------------------|
F|-0--2--3--2----------------------------------------|-------------------------------------------------|
C|-------------0--2--3--2----------7--0--------7--0--|-8--0--------8--0--5--0--------------------3--0--|
G|-------------------------3---3---------------------|-------------------------------------------------|
C|-------------------------3---3---------0--0--------|-------0--0--------------0--0--0--0--0--0--------|


D|-----------------------------------------------------|-----------------------------------------------|
A|-----------------------------------------------------|-----------------------------------------------|
F|-------------------------0--2--3--2------------------|-----------------------------------------------|
C|-------5--0--2--0--------------------0--2--3--2------|-----7--0--------7--0--8--0--------8--0--5--0--|
G|-------------------------------------------------1---|-1---------------------------------------------|
C|-0--0--------------0--0--------------------------1---|-1---------0--0--------------0--0--------------|


D|-------------------------------------------------|---------------------------------------------------|
A|-------------------------------------------------|---------------------------------------------------|
F|-------------------------------------------------|-0--2--3--2----------------------------------------|
C|-------------------3--0--------5--0--2--0--------|-------------0--2--3--2----------7--0--------7--0--|
G|-------------------------------------------------|-------------------------3---3---------------------|
C|-0--0--0--0--0--0--------0--0--------------0--0--|-------------------------3---3---------0--0--------|


D|-------------------------------------------------|-----------------------------------------------------|
A|-------------------------------------------------|-----------------------------------------------------|
F|-------------------------------------------------|-------------------------0--2--3--2------------------|
C|-8--0--------8--0--5--0--------------------3--0--|-------5--0--2--0--------------------0--2--3--2------|
G|-------------------------------------------------|-------------------------------------------------1---|
C|-------0--0--------------0--0--0--0--0--0--------|-0--0--------------0--0--------------------------1---|


D|----------------|
A|----------------|
F|----------------|
C|----------------|
G|-1--------------|
C|-1--------------|





Track 5: Lead

D|--------|--------|--------|--------|--------|--------|--------|--------|--------|
A|--------|--------|--------|--------|--------|--------|--------|--------|--------|
F|--------|--------|--------|--------|--------|--------|--------|--------|--------|
C|--------|--------|--------|--------|--------|--------|--------|--------|--------|
G|--------|--------|--------|--------|--------|--------|--------|--------|--------|
C|--------|--------|--------|--------|--------|--------|--------|--------|--------|


D|--------|--------|--------|--------|--------|--------|--------|--------|--------|
A|--------|--------|--------|--------|--------|--------|--------|--------|--------|
F|--------|--------|--------|--------|--------|--------|--------|--------|--------|
C|--------|--------|--------|--------|--------|--------|--------|--------|--------|
G|--------|--------|--------|--------|--------|--------|--------|--------|--------|
C|--------|--------|--------|--------|--------|--------|--------|--------|--------|


D|--------|--------|--------|--------|--------|--------|--------|--------|--------|
A|--------|--------|--------|--------|--------|--------|--------|--------|--------|
F|--------|--------|--------|--------|--------|--------|--------|--------|--------|
C|--------|--------|--------|--------|--------|--------|--------|--------|--------|
G|--------|--------|--------|--------|--------|--------|--------|--------|--------|
C|--------|--------|--------|--------|--------|--------|--------|--------|--------|


D|--------|--------|--------|--------|--------|--------|--------|--------|--------|
A|--------|--------|--------|--------|--------|--------|--------|--------|--------|
F|--------|--------|--------|--------|--------|--------|--------|--------|--------|
C|--------|--------|--------|--------|--------|--------|--------|--------|--------|
G|--------|--------|--------|--------|--------|--------|--------|--------|--------|
C|--------|--------|--------|--------|--------|--------|--------|--------|--------|


D|--------|--------|--------|--------|--------|--------|--------|--------|--------|
A|--------|--------|--------|--------|--------|--------|--------|--------|--------|
F|--------|--------|--------|--------|--------|--------|--------|--------|--------|
C|--------|--------|--------|--------|--------|--------|--------|--------|--------|
G|--------|--------|--------|--------|--------|--------|--------|--------|--------|
C|--------|--------|--------|--------|--------|--------|--------|--------|--------|


D|--------|--------|--------|--------|--------|--------|--------|--------|--------|
A|--------|--------|--------|--------|--------|--------|--------|--------|--------|
F|--------|--------|--------|--------|--------|--------|--------|--------|--------|
C|--------|--------|--------|--------|--------|--------|--------|--------|--------|
G|--------|--------|--------|--------|--------|--------|--------|--------|--------|
C|--------|--------|--------|--------|--------|--------|--------|--------|--------|


D|--------|--------|--------|--------|--------|--------|--------|--------|--------|
A|--------|--------|--------|--------|--------|--------|--------|--------|--------|
F|--------|--------|--------|--------|--------|--------|--------|--------|--------|
C|--------|--------|--------|--------|--------|--------|--------|--------|--------|
G|--------|--------|--------|--------|--------|--------|--------|--------|--------|
C|--------|--------|--------|--------|--------|--------|--------|--------|--------|


D|--------|--------|--------|--------|--------|--------|--------|--------|--------|
A|--------|--------|--------|--------|--------|--------|--------|--------|--------|
F|--------|--------|--------|--------|--------|--------|--------|--------|--------|
C|--------|--------|--------|--------|--------|--------|--------|--------|--------|
G|--------|--------|--------|--------|--------|--------|--------|--------|--------|
C|--------|--------|--------|--------|--------|--------|--------|--------|--------|


D|-------------|--------|--------|---------------------------------------------|-------------------------------------------------|
A|-------------|--------|--------|---------------------------------------------|-------------------------------------------------|
F|-------------|--------|--------|---------------------------------------------|-------------------------------------------------|
C|-------------|--------|--------|-7---7---------------------------------------|-------------------------------------------------|
G|--------0----|--------|--------|-5---5---8--0--------8--0--10-0--------10-0--|-7--0--------------------5--0--------7--0--3--0--|
C|--------0----|--------|--------|---------------0--0--------------0--0--------|-------0--0--0--0--0--0--------0--0--------------|


D|---------------------------------------------------|-------------------------------------------------|
A|---------------------------------------------------|-------------------------------------------------|
F|---------------------------------------------------|-------------------------------------------------|
C|-------0--3--5--3--------------0---0---------------|-------------------------------------------------|
G|-------------------0--3--5--3----------8--0--------|-8--0--10-0--------10-0--7--0--------------------|
C|-0--0----------------------------------------0--0--|-------------0--0--------------0--0--0--0--0--0--|


D|-------------------------------------------------------|---------------------------------------------|
A|-------------------------------------------------------|---------------------------------------------|
F|-------------------------------------------------------|---------------------------------------------|
C|-------------------------------0--3--5--3--------------|-0---0---------------------------------------|
G|-5--0--------7--0--3--0--------------------0--3--5--3--|---------8--0--------8--0--10-0--------10-0--|
C|-------0--0--------------0--0--------------------------|---------------0--0--------------0--0--------|


D|-------------------------------------------------|---------------------------------------------------|
A|-------------------------------------------------|---------------------------------------------------|
F|-------------------------------------------------|---------------------------------------------------|
C|-------------------------------------------------|-------0--3--5--3--------------0---0---------------|
G|-7--0--------------------5--0--------7--0--3--0--|-------------------0--3--5--3----------8--0--------|
C|-------0--0--0--0--0--0--------0--0--------------|-0--0----------------------------------------0--0--|


D|-------------------------------------------------|-------------------------------------------------------|
A|-------------------------------------------------|-------------------------------------------------------|
F|-------------------------------------------------|-------------------------------------------------------|
C|-------------------------------------------------|-------------------------------0--3--5--3--------------|
G|-8--0--10-0--------10-0--7--0--------------------|-5--0--------7--0--3--0--------------------0--3--5--3--|
C|-------------0--0--------------0--0--0--0--0--0--|-------0--0--------------0--0--------------------------|


D|---------------------------------------------|-------------------------------------------------|
A|---------------------------------------------|-------------------------------------------------|
F|---------2--0--3--0--2--0--3--0--------------|-------------------------------------------------|
C|-0---0---------------------------3--0--5--0--|-2--0--3--0--------7--0--------------10-0--------|
G|---------------------------------------------|-------------------------8--0--------------8--0--|
C|---------------------------------------------|-------------8--8--------------8--8--------------|


D|-------------------------------------------------|-------------------------------------------------|
A|-------------------------------------------------|-------------------------------------------------|
F|-------------------------------------------------|-------------------------------------9--0--------|
C|-------------------------------------8--0--7--0--|-------------------7--0--------------------10-0--|
G|-------7--8--------8--0--5--0--------------------|-------7--7--------------8--0--------------------|
C|-8--8--------8--8--------------8--8--------------|-10-10-------0--0--------------0--0--------------|


D|-------------------------------------------------|-------------------------------------------------|
A|-------------------------------------------------|-------------------------------------------------|
F|-------------------------------------------10-12-|-10----------------------------------------------|
C|-------7--8--------10-0--------14-0--12-0--------|----14-12-10-------7--0--------------10-0--------|
G|-------------------------12-0--------------------|-------------------------8--0--------------8--0--|
C|-0--0--------0--0--------------------------------|-------------8--8--------------8--8--------------|


D|-------------------------------------------------|-------------------------------------------------|
A|-------------------------------------------------|-------------------------------------------------|
F|-------------------------------------------------|-------------------------------------9--0--------|
C|-------------------------------------8--0--7--0--|-------------------7--0--------------------10-0--|
G|-------7--8--------8--0--5--0--------------------|-------7--7--------------8--0--------------------|
C|-8--8--------8--8--------------8--8--------------|-10-10-------0--0--------------0--0--------------|


D|-------------------------------------------------|-------------------------------------------------|
A|-------------------------------------------------|-------------------------------------------------|
F|-------------------------------------------10-12-|-10----------------------------------------------|
C|-------7--8--------10-0--------14-0--12-0--------|----14-12-10-------7--0--------------10-0--------|
G|-------------------------12-0--------------------|-------------------------8--0--------------8--0--|
C|-0--0--------0--0--------------------------------|-------------8--8--------------8--8--------------|


D|-------------------------------------------------|-------------------------------------------------|
A|-------------------------------------------------|-------------------------------------------------|
F|-------------------------------------------------|-------------------------------------9--0--------|
C|-------------------------------------8--0--7--0--|-------------------7--0--------------------10-0--|
G|-------7--8--------8--0--5--0--------------------|-------7--7--------------8--0--------------------|
C|-8--8--------8--8--------------8--8--------------|-10-10-------0--0--------------0--0--------------|


D|-------------------------------------------------|-------------------------------------------------|
A|-------------------------------------------------|-------------------------------------------------|
F|-------------------------------------------10-12-|-10----------------------------------------------|
C|-------7--8--------10-0--------14-0--12-0--------|----14-12-10-------7--0--------------10-0--------|
G|-------------------------12-0--------------------|-------------------------8--0--------------8--0--|
C|-0--0--------0--0--------------------------------|-------------8--8--------------8--8--------------|


D|-------------------------------------------------|-------------------------------------------------|
A|-------------------------------------------------|-------------------------------------------------|
F|-------------------------------------------------|-------------------------------------9--0--------|
C|-------------------------------------8--0--7--0--|-------------------7--0--------------------10-0--|
G|-------7--8--------8--0--5--0--------------------|-------7--7--------------8--0--------------------|
C|-8--8--------8--8--------------8--8--------------|-10-10-------0--0--------------0--0--------------|


D|-------------------------------------------------|-------------------------------------------------|
A|-------------------------------------------------|-------------------------------------------------|
F|-------------------------------------------10-12-|-10----------------------------------------------|
C|-------7--8--------10-0--------14-0--12-0--------|----14-12-10-------12-0--10-0--------8--0--10-0--|
G|-------------------------12-0--------------------|-------------------------------------------------|
C|-0--0--------0--0--------------------------------|-------------8--8--------------5--5--------------|


D|-------------------------------------------------|-------------------------------------------------|
A|-------------------------------------------------|-------------------------------------------------|
F|-------------------------------------------------|-------------------------------------------------|
C|-------------------------------------------------|-------12-0--10-0--------8--0--10-0--------------|
G|-------------8--0--10-0--------8--0--12-0--10-0--|-------------------------------------------------|
C|-0--0--0--0--------------0--0--------------------|-8--8--------------5--5--------------0--0--0--0--|


D|-------------------------------------------------|-------------------------------------------------|
A|-------------------------------------4--4--------|-4-----4-----4--4--------4-----4-----------------|
F|-------------------------------------7--7--------|-7-----7-----7--7--------7-----7-----------------|
C|-------------------------------------------------|-------------------------------------------------|
G|-8--0--10-0--------8--0--12-0--10-0--------------|-------------------------------------------------|
C|-------------0--0--------------------------0--0--|----0-----0--------0--0-----0-----0--4--0--0--0--|


D|-------------------------------------------------|-------------------------------------------------|
A|-------------------------------------4--4--------|-4-----4-----4--4--------4-----4-----------------|
F|-------------1--0--------------------7--7--------|-7-----7-----7--7--------7-----7-----------------|
C|-------------------3--0--1--0--3--0--------------|-------------------------------------------------|
G|-------------------------------------------------|-------------------------------------------------|
C|-1--0--3--0--------------------------------0--0--|----0-----0--------0--0-----0-----0--4--0--0--0--|


D|-------------------------------------------------|-------------------------------------------------|
A|-------------------------------------16-16-------|-16----16----16-16-------16----16----------------|
F|-------------1--0--------------------19-19-------|-19----19----19-19-------19----19----------------|
C|-------------------3--0--1--0--3--0--------------|-------------------------------------------------|
G|-------------------------------------------------|-------------------------------------------------|
C|-1--0--3--0--------------------------------0--0--|----0-----0--------0--0-----0-----0--4--0--0--0--|


D|-------------------------------------------------|-------------------------------------------------|
A|-------------------------------------16-16-------|-16----16----16-16-------16----16----------------|
F|-------------13-0--------------------19-19-------|-19----19----19-19-------19----19----------------|
C|-------------------15-0--13-0--15-0--------------|-------------------------------------------------|
G|-------------------------------------------------|-------------------------------------------------|
C|-1--0--3--0--------------------------------0--0--|----0-----0--------0--0-----0-----0--4--0--0--0--|


D|-----------------------------------------------|-----------------------------------------------|
A|-----------------------------------------------|-----------------------------------------------|
F|-------------13-0------------------------------|-----------------------------------------------|
C|-------------------15-0--13-0--15-0--------5---|-5--4--------5---5--4--------------------------|
G|-----------------------------------------------|-----------------------------------------------|
C|-1--0--3--0--------------------------0--0------|-------0--0------------0--0--1--0--4--0--0--0--|


D|-----------------------------------------------|-----------------------------------------------|
A|-----------------------------------------------|-----------------------------------------------|
F|-------------5--4------------------------------|-----------------------------------------------|
C|-------------------7--4--6--4--7--4--------5---|-5--4--------5---5--4--------------------------|
G|-----------------------------------------------|-----------------------------------------------|
C|-1--0--3--0--------------------------0--0------|-------0--0------------0--0--1--0--0--0--0--0--|


D|-----------------------------------------------|-----------------------------------------------|
A|-----------------------------------------------|-----------------------------------------------|
F|-----------------------------------------------|-----------------------------------------------|
C|-------------------------------------------5---|-5--4--------5---5--4--------------------------|
G|-----------------------------------------------|-----------------------------------------------|
C|-1--1--1--1--3--3--3--3--1--1--1--1--0--0------|-------0--0------------0--0--1--0--4--0--0--0--|


D|-----------------------------------------------|----------------------------------------|
A|-----------------------------------------------|----------------------------------------|
F|-------------5--4------------------------------|----------------------------------------|
C|-------------------7--4--6--4--7--4--------5---|-5--4--------5---5--4-------------------|
G|-----------------------------------------------|----------------------------------------|
C|-1--0--3--0--------------------------0--0------|-------0--0------------0--0--1--0-------|


D|--------|--------|--------|--------|--------|--------|--------|--------|--------|
A|--------|--------|--------|--------|--------|--------|--------|--------|--------|
F|--------|--------|--------|--------|--------|--------|--------|--------|--------|
C|--------|--------|--------|--------|--------|--------|--------|--------|--------|
G|--------|--------|--------|--------|--------|--------|--------|--------|--------|
C|--------|--------|--------|--------|--------|--------|--------|--------|--------|


D|--------|--------|--------|------------------------------|------------------------------|
A|--------|--------|--------|------------------------------|------------------------------|
F|--------|--------|--------|------------------------------|------------------------------|
C|--------|--------|--------|-----8------------10--8---7---|-7----------------5---7---5---|
G|--------|--------|--------|-----8------------------------|-7----------------------------|
C|--------|--------|--------|-----8----8---8---------------|-7----7---7---7---------------|


D|---------------------------------|-------------------------------------|------------------------------|
A|---------------------------------|-------------------------------------|------------------------------|
F|---------------------------------|-----5-------------------------------|-2----------------------------|
C|-7-------------------------------|---------7--5--3---5--7--5---2---3---|-----8------------10--8---7---|
G|-------------3---5-----------3---|-5-----------------------------------|-----8------------------------|
C|-----0---0---0---0---0---0---0---|-0-----------------------------------|-----8----8---8---------------|


D|------------------------------|---------------------------------|-------------------------------------|
A|------------------------------|---------------------------------|-------------------------------------|
F|------------------------------|---------------------------------|-----5-------------------------------|
C|-7----------------5---7---5---|-7-------------------------------|---------7--5--3---5--7--5---2---3---|
G|-7----------------------------|-------------3---5-----------3---|-5-----------------------------------|
C|-7----7---7---7---------------|-----0---0---0---0---0---0---0---|-0-----------------------------------|


D|------------------------------|------------------13--12--10--|-12--10----17---15--|
A|------------------------------|------10--11--10--------------|--------------------|
F|-2----------------7---9---10--|-9----------------------------|--------------------|
C|-----8----8---8---------------|------------------------------|--------------------|
G|------------------------------|------------------------------|--------------------|
C|------------------------------|------------------------------|--------------------|


D|-13--15--13--12--13--12--8---10--|------------------------------|------------------13--12--10--|
A|---------------------------------|------------------------------|------10--11--10--------------|
F|---------------------------------|------------------7---9---10--|-9----------------------------|
C|---------------------------------|-----8----8---8---------------|------------------------------|
G|---------------------------------|------------------------------|------------------------------|
C|---------------------------------|------------------------------|------------------------------|


D|-12--10----17---15--|-13--15--13--12--13--12--8---10--|---------------------------------|
A|--------------------|---------------------------------|---------------------------------|
F|--------------------|---------------------------------|---------------------------------|
C|--------------------|---------------------------------|---------------------8---8---8---|
G|--------------------|---------------------------------|---------------------------------|
C|--------------------|---------------------------------|-----8---8---8---8---------------|


D|---------------------------------|---------------------------------|---------------------------------|
A|---------------------------------|---------------------------------|---------------------------------|
F|---------------------------------|---------------------------------|---------------------------------|
C|-8-------------------10--10--10--|-10------------------12--12--12--|-12------------------12--12--12--|
G|---------------------------------|---------------------------------|---------------------------------|
C|-----7---7---7---7---------------|-----0---0---0---0---------------|-----0---0---0---0---------------|


D|---------------------------------|---------------------------------|------------|
A|---------------------------------|---------------------------------|------------|
F|---------------------------------|---------------------------------|------------|
C|-12------------------8---8---8---|-8-------------------10--10--10--|-10--0------|
G|---------------------------------|---------------------------------|-----0------|
C|-----8---8---8---8---------------|-----7---7---7---7---------------|-----0------|


D|------------|------------|------------|------------|------------|------------|------------|
A|------------|------------|------------|------------|------------|------------|------------|
F|------------|------------|------------|------------|------------|------------|------------|
C|-----0------|-----8------|-----7------|-----0------|-----0------|-----8------|-----7------|
G|-----0------|-----8------|-----7------|-----0------|-----0------|-----8------|-----7------|
C|-----0------|-----8------|-----7------|-----0------|-----0------|-----8------|-----7------|


D|------------|----------------------------|-------------------------------------------------|
A|------------|----------------------------|-------------------------------------------------|
F|------------|----------------10-12-10----|-------------------------------------------------|
C|-----0------|-----0-------------------14-|-12-10-------7--0--------------10-0--------------|
G|-----0------|-----0-----0----------------|-------------------8--0--------------8--0--------|
C|-----0------|-----0-----0----------------|-------8--8--------------8--8--------------8--8--|


D|-------------------------------------------------|-------------------------------------------------|
A|-------------------------------------------------|-------------------------------------------------|
F|-------------------------------------------------|-------------------------------9--0--------------|
C|-------------------------------8--0--7--0--------|-------------7--0--------------------10-0--------|
G|-7--8--------8--0--5--0--------------------------|-7--8--------------8--0--------------------------|
C|-------8--8--------------8--8--------------10-10-|-------0--0--------------0--0--------------0--0--|


D|-------------------------------------------------|-------------------------------------------------|
A|-------------------------------------------------|-------------------------------------------------|
F|-------------------------------------10-12-10----|-------------------------------------------------|
C|-7--8--------10-0--------14-0--12-0-----------14-|-12-10-------7--0--------------10-0--------------|
G|-------------------12-0--------------------------|-------------------8--0--------------8--0--------|
C|-------0--0--------------------------------------|-------8--8--------------8--8--------------8--8--|


D|-------------------------------------------------|-------------------------------------------------|
A|-------------------------------------------------|-------------------------------------------------|
F|-------------------------------------------------|-------------------------------9--0--------------|
C|-------------------------------8--0--7--0--------|-------------7--0--------------------10-0--------|
G|-7--8--------8--0--5--0--------------------------|-7--8--------------8--0--------------------------|
C|-------8--8--------------8--8--------------10-10-|-------0--0--------------0--0--------------0--0--|


D|-------------------------------------------------|-------------------------------------------------|
A|-------------------------------------------------|-------------------------------------------------|
F|-------------------------------------10-12-10----|-------------------------------------------------|
C|-7--8--------10-0--------14-0--12-0-----------14-|-12-10-------7--0--------------10-0--------------|
G|-------------------12-0--------------------------|-------------------8--0--------------8--0--------|
C|-------0--0--------------------------------------|-------8--8--------------8--8--------------8--8--|


D|-------------------------------------------------|-------------------------------------------------|
A|-------------------------------------------------|-------------------------------------------------|
F|-------------------------------------------------|-------------------------------9--0--------------|
C|-------------------------------8--0--7--0--------|-------------7--0--------------------10-0--------|
G|-7--8--------8--0--5--0--------------------------|-7--8--------------8--0--------------------------|
C|-------8--8--------------8--8--------------10-10-|-------0--0--------------0--0--------------0--0--|


D|-------------------------------------------------|-------------------------------------------------|
A|-------------------------------------------------|-------------------------------------------------|
F|-------------------------------------10-12-10----|-------------------------------------------------|
C|-7--8--------10-0--------14-0--12-0-----------14-|-12-10-------7--0--------------10-0--------------|
G|-------------------12-0--------------------------|-------------------8--0--------------8--0--------|
C|-------0--0--------------------------------------|-------8--8--------------8--8--------------8--8--|


D|-------------------------------------------------|-------------------------------------------------|
A|-------------------------------------------------|-------------------------------------------------|
F|-------------------------------------------------|-------------------------------9--0--------------|
C|-------------------------------8--0--7--0--------|-------------7--0--------------------10-0--------|
G|-7--8--------8--0--5--0--------------------------|-7--8--------------8--0--------------------------|
C|-------8--8--------------8--8--------------10-10-|-------0--0--------------0--0--------------0--0--|


D|-------------------------------------------------|-------------------------------------------------|
A|-------------------------------------------------|-------------------------------------------------|
F|-------------------------------------10-12-10----|-------------------------------------------------|
C|-7--8--------10-0--------14-0--12-0-----------14-|-12-10-------7--0--------------10-0--------------|
G|-------------------12-0--------------------------|-------------------8--0--------------8--0--------|
C|-------0--0--------------------------------------|-------8--8--------------8--8--------------8--8--|


D|-------------------------------------------------|-------------------------------------------------|
A|-------------------------------------------------|-------------------------------------------------|
F|-------------------------------------------------|-------------------------------9--0--------------|
C|-------------------------------8--0--7--0--------|-------------7--0--------------------10-0--------|
G|-7--8--------8--0--5--0--------------------------|-7--8--------------8--0--------------------------|
C|-------8--8--------------8--8--------------10-10-|-------0--0--------------0--0--------------0--0--|


D|-------------------------------------------------|-------------------------------------------------|
A|-------------------------------------------------|-------------------------------------------------|
F|-------------------------------------10-12-10----|-------------------------------------------------|
C|-7--8--------10-0--------14-0--12-0-----------14-|-12-10-------7--0--------------10-0--------------|
G|-------------------12-0--------------------------|-------------------8--0--------------8--0--------|
C|-------0--0--------------------------------------|-------8--8--------------8--8--------------8--8--|


D|-------------------------------------------------|-------------------------------------------------|
A|-------------------------------------------------|-------------------------------------------------|
F|-------------------------------------------------|-------------------------------9--0--------------|
C|-------------------------------8--0--7--0--------|-------------7--0--------------------10-0--------|
G|-7--8--------8--0--5--0--------------------------|-7--8--------------8--0--------------------------|
C|-------8--8--------------8--8--------------10-10-|-------0--0--------------0--0--------------0--0--|


D|-------------------------------------------------|-------------------------------------------------|
A|-------------------------------------------------|-------------------------------------------------|
F|-------------------------------------10-12-10----|-------------------------------------------------|
C|-7--8--------10-0--------14-0--12-0-----------14-|-12-10-------------------------------------------|
G|-------------------12-0--------------------------|-------8--0--------8--0--10-0--------10-0--7--0--|
C|-------0--0--------------------------------------|-------------0--0--------------0--0--------------|


D|-------------------------------------------------|---------------------------------------------------|
A|-------------------------------------------------|---------------------------------------------------|
F|-------------------------------------------------|---------------------------------------------------|
C|-------------------------------------------------|-0--3--5--3--------------0---0---------------------|
G|-------------------5--0--------7--0--3--0--------|-------------0--3--5--3----------8--0--------8--0--|
C|-0--0--0--0--0--0--------0--0--------------0--0--|---------------------------------------0--0--------|


D|-------------------------------------------------|-----------------------------------------------------|
A|-------------------------------------------------|-----------------------------------------------------|
F|-------------------------------------------------|-----------------------------------------------------|
C|-------------------------------------------------|-------------------------0--3--5--3--------------4---|
G|-10-0--------10-0--7--0--------------------5--0--|-------7--0--3--0--------------------0--3--5--3------|
C|-------0--0--------------0--0--0--0--0--0--------|-0--0--------------0--0------------------------------|


D|-----------------------------------------------|-------------------------------------------------|
A|-----------------------------------------------|-------------------------------------------------|
F|-----------------------------------------------|-------------------------------------------------|
C|-4---------------------------------------------|-------------------------------------------------|
G|-----8--0--------8--0--10-0--------10-0--7--0--|-------------------5--0--------7--0--3--0--------|
C|-----------0--0--------------0--0--------------|-0--0--0--0--0--0--------0--0--------------0--0--|


D|---------------------------------------------------|-------------------------------------------------|
A|---------------------------------------------------|-------------------------------------------------|
F|---------------------------------------------------|-------------------------------------------------|
C|-0--3--5--3--------------0---0---------------------|-------------------------------------------------|
G|-------------0--3--5--3----------8--0--------8--0--|-10-0--------10-0--7--0--------------------5--0--|
C|---------------------------------------0--0--------|-------0--0--------------0--0--0--0--0--0--------|


D|-----------------------------------------------------|----------------|
A|-----------------------------------------------------|----------------|
F|-----------------------------------------------------|----------------|
C|-------------------------0--3--5--3--------------4---|-4--------------|
G|-------7--0--3--0--------------------0--3--5--3------|----------------|
C|-0--0--------------0--0------------------------------|----------------|





Track 6: Rythem Acoustic

D|--------|--------|--------|--------|--------|--------|--------|--------|--------|
A|--------|--------|--------|--------|--------|--------|--------|--------|--------|
F|--------|--------|--------|--------|--------|--------|--------|--------|--------|
C|--------|--------|--------|--------|--------|--------|--------|--------|--------|
G|--------|--------|--------|--------|--------|--------|--------|--------|--------|
C|--------|--------|--------|--------|--------|--------|--------|--------|--------|


D|--------|--------|--------|--------|--------|--------|--------|--------|--------|
A|--------|--------|--------|--------|--------|--------|--------|--------|--------|
F|--------|--------|--------|--------|--------|--------|--------|--------|--------|
C|--------|--------|--------|--------|--------|--------|--------|--------|--------|
G|--------|--------|--------|--------|--------|--------|--------|--------|--------|
C|--------|--------|--------|--------|--------|--------|--------|--------|--------|


D|--------|--------|--------|--------|--------|--------|--------|--------|--------|
A|--------|--------|--------|--------|--------|--------|--------|--------|--------|
F|--------|--------|--------|--------|--------|--------|--------|--------|--------|
C|--------|--------|--------|--------|--------|--------|--------|--------|--------|
G|--------|--------|--------|--------|--------|--------|--------|--------|--------|
C|--------|--------|--------|--------|--------|--------|--------|--------|--------|


D|--------|--------|--------|--------|--------|--------|--------|--------|--------|
A|--------|--------|--------|--------|--------|--------|--------|--------|--------|
F|--------|--------|--------|--------|--------|--------|--------|--------|--------|
C|--------|--------|--------|--------|--------|--------|--------|--------|--------|
G|--------|--------|--------|--------|--------|--------|--------|--------|--------|
C|--------|--------|--------|--------|--------|--------|--------|--------|--------|


D|--------|--------|--------|--------|--------|--------|--------|--------|--------|
A|--------|--------|--------|--------|--------|--------|--------|--------|--------|
F|--------|--------|--------|--------|--------|--------|--------|--------|--------|
C|--------|--------|--------|--------|--------|--------|--------|--------|--------|
G|--------|--------|--------|--------|--------|--------|--------|--------|--------|
C|--------|--------|--------|--------|--------|--------|--------|--------|--------|


D|--------|--------|--------|--------|--------|--------|--------|--------|--------|
A|--------|--------|--------|--------|--------|--------|--------|--------|--------|
F|--------|--------|--------|--------|--------|--------|--------|--------|--------|
C|--------|--------|--------|--------|--------|--------|--------|--------|--------|
G|--------|--------|--------|--------|--------|--------|--------|--------|--------|
C|--------|--------|--------|--------|--------|--------|--------|--------|--------|


D|--------|--------|--------|--------|--------|--------|--------|--------|--------|
A|--------|--------|--------|--------|--------|--------|--------|--------|--------|
F|--------|--------|--------|--------|--------|--------|--------|--------|--------|
C|--------|--------|--------|--------|--------|--------|--------|--------|--------|
G|--------|--------|--------|--------|--------|--------|--------|--------|--------|
C|--------|--------|--------|--------|--------|--------|--------|--------|--------|


D|--------|--------|--------|--------|--------|--------|--------|--------|--------|
A|--------|--------|--------|--------|--------|--------|--------|--------|--------|
F|--------|--------|--------|--------|--------|--------|--------|--------|--------|
C|--------|--------|--------|--------|--------|--------|--------|--------|--------|
G|--------|--------|--------|--------|--------|--------|--------|--------|--------|
C|--------|--------|--------|--------|--------|--------|--------|--------|--------|


D|--------|--------|--------|--------|--------|--------|--------|--------|--------|
A|--------|--------|--------|--------|--------|--------|--------|--------|--------|
F|--------|--------|--------|--------|--------|--------|--------|--------|--------|
C|--------|--------|--------|--------|--------|--------|--------|--------|--------|
G|--------|--------|--------|--------|--------|--------|--------|--------|--------|
C|--------|--------|--------|--------|--------|--------|--------|--------|--------|


D|--------|--------|--------|--------|--------|--------|--------|--------|--------|
A|--------|--------|--------|--------|--------|--------|--------|--------|--------|
F|--------|--------|--------|--------|--------|--------|--------|--------|--------|
C|--------|--------|--------|--------|--------|--------|--------|--------|--------|
G|--------|--------|--------|--------|--------|--------|--------|--------|--------|
C|--------|--------|--------|--------|--------|--------|--------|--------|--------|


D|--------|--------|--------|--------|--------|--------|--------|--------|--------|
A|--------|--------|--------|--------|--------|--------|--------|--------|--------|
F|--------|--------|--------|--------|--------|--------|--------|--------|--------|
C|--------|--------|--------|--------|--------|--------|--------|--------|--------|
G|--------|--------|--------|--------|--------|--------|--------|--------|--------|
C|--------|--------|--------|--------|--------|--------|--------|--------|--------|


D|--------|--------|--------|--------|--------|--------|--------|--------|--------|
A|--------|--------|--------|--------|--------|--------|--------|--------|--------|
F|--------|--------|--------|--------|--------|--------|--------|--------|--------|
C|--------|--------|--------|--------|--------|--------|--------|--------|--------|
G|--------|--------|--------|--------|--------|--------|--------|--------|--------|
C|--------|--------|--------|--------|--------|--------|--------|--------|--------|


D|--------|--------|--------|--------|--------|--------|--------|--------|--------|
A|--------|--------|--------|--------|--------|--------|--------|--------|--------|
F|--------|--------|--------|--------|--------|--------|--------|--------|--------|
C|--------|--------|--------|--------|--------|--------|--------|--------|--------|
G|--------|--------|--------|--------|--------|--------|--------|--------|--------|
C|--------|--------|--------|--------|--------|--------|--------|--------|--------|


D|--------|--------|--------|--------|--------|--------|--------|--------|--------|
A|--------|--------|--------|--------|--------|--------|--------|--------|--------|
F|--------|--------|--------|--------|--------|--------|--------|--------|--------|
C|--------|--------|--------|--------|--------|--------|--------|--------|--------|
G|--------|--------|--------|--------|--------|--------|--------|--------|--------|
C|--------|--------|--------|--------|--------|--------|--------|--------|--------|


D|--------|--------|--------|--------|--------|--------|--------|--------|--------|
A|--------|--------|--------|--------|--------|--------|--------|--------|--------|
F|--------|--------|--------|--------|--------|--------|--------|--------|--------|
C|--------|--------|--------|--------|--------|--------|--------|--------|--------|
G|--------|--------|--------|--------|--------|--------|--------|--------|--------|
C|--------|--------|--------|--------|--------|--------|--------|--------|--------|


D|--------|--------|--------|--------|--------|--------|------------------------------|
A|--------|--------|--------|--------|--------|--------|------------------------------|
F|--------|--------|--------|--------|--------|--------|------------------12--10--8---|
C|--------|--------|--------|--------|--------|--------|-----8----8---8---------------|
G|--------|--------|--------|--------|--------|--------|------------------------------|
C|--------|--------|--------|--------|--------|--------|------------------------------|


D|------------------------------|---------------------------------|---------------------------------|
A|------------------------------|---------------------------------|---------------------------------|
F|------------------7---8---7---|-8-------------------------------|-----8---8---7---7---5---5---3---|
C|-7----7---7---7---------------|-----0---0---0---0---0---0---0---|-0-------------------------------|
G|------------------------------|---------------------------------|---------------------------------|
C|------------------------------|---------------------------------|---------------------------------|


D|------------------------------|------------------------------|---------------------------------|
A|------------------------------|------------------------------|---------------------------------|
F|-1----------------12--10--8---|------------------7---8---7---|-8-------------------------------|
C|-----8----8---8---------------|-7----7---7---7---------------|-----0---0---0---0---0---0---0---|
G|------------------------------|------------------------------|---------------------------------|
C|------------------------------|------------------------------|---------------------------------|


D|---------------------------------|-----------7-----|-----------9-----|-----------10----|
A|---------------------------------|-----------------|-----------------|-----------------|
F|-----8---8---7---7---5---5---3---|-1---------------|-----------------|-----------------|
C|-0-------------------------------|-----8-----------|-----7-----------|-----0-----------|
G|---------------------------------|-----------------|-----------------|-----------------|
C|---------------------------------|-----------------|-----------------|-----------------|


D|-----------9-----|-----------7-----|-----------9-----|------------|----------------|
A|-----------------|-----------------|-----------------|------------|------------2---|
F|-----------------|-----------------|-----------------|------------|----------------|
C|-----0-----------|-----8-----------|-----7-----------|-----0------|-----0----------|
G|-----------------|-----------------|-----------------|------------|----------------|
C|-----------------|-----------------|-----------------|------------|----------------|


D|--------------------|---------------------------|--------------------|---------------------------|
A|-3------------------|---------------------------|--------------------|---------------------------|
F|--------------------|---------------------------|--------------------|-----------------------8---|
C|-----8---8----------|-----8---8-------------10--|-10--0---0----------|-----0---0-----------------|
G|--------------------|---------------------------|--------------------|---------------------------|
C|--------------------|---------------------------|--------------------|---------------------------|


D|--------------------|---------------------------|--------------------|-------------------------------|
A|--------------------|---------------------------|--------------------|-------------------12-12-------|
F|-8------------------|---------------------------|--------------------|-------------------------8--8--|
C|-----8---8----------|-----8---8-------------10--|-10--0---0----------|-----0---0---------------------|
G|--------------------|---------------------------|--------------------|-------------------------------|
C|--------------------|---------------------------|--------------------|-------------------------------|


D|-------------------------------------------------|-------------------------------------------------|
A|-------------------7--7--------------------------|-------------------10-10-------8--8--7--7--------|
F|-7--7--------8--8--------8--8--------8--8--------|-7--8--------8--8--------8--8--------------------|
C|-------8--8--------------------8--8--------8--8--|-------8--8--------------------------------10-10-|
G|-------------------------------------------------|-------------------------------------------------|
C|-------------------------------------------------|-------------------------------------------------|


D|-------------------------------------------------|-------------------------------------------------|
A|-------------7--7--------------------------------|-7--8--------10-10-------------14-14-12-12-------|
F|-------------------8--8--------3--3--5--5--------|-------------------12-12-------------------8--8--|
C|-10-10-0--0--------------0--0--------------0--0--|-------0--0--------------0--0--------------------|
G|-------------------------------------------------|-------------------------------------------------|
C|-------------------------------------------------|-------------------------------------------------|


D|-------------------------------------------------|-------------------------------------------------|
A|-------------------7--7--------------------------|-------------------10-10-------8--8--7--7--------|
F|-7--7--------8--8--------8--8--------8--8--------|-7--8--------8--8--------8--8--------------------|
C|-------8--8--------------------8--8--------8--8--|-------8--8--------------------------------10-10-|
G|-------------------------------------------------|-------------------------------------------------|
C|-------------------------------------------------|-------------------------------------------------|


D|-------------------------------------------------|-------------------------------------------------|
A|-------------7--7--------------------------------|-7--8--------10-10-------------14-14-12-12-------|
F|-------------------8--8--------3--3--5--5--------|-------------------12-12-------------------8--8--|
C|-10-10-0--0--------------0--0--------------0--0--|-------0--0--------------0--0--------------------|
G|-------------------------------------------------|-------------------------------------------------|
C|-------------------------------------------------|-------------------------------------------------|


D|-------------------------------------------------|-------------------------------------------------|
A|-------------------7--7--------------------------|-------------------10-10-------8--8--7--7--------|
F|-7--7--------8--8--------8--8--------8--8--------|-7--8--------8--8--------8--8--------------------|
C|-------8--8--------------------8--8--------8--8--|-------8--8--------------------------------10-10-|
G|-------------------------------------------------|-------------------------------------------------|
C|-------------------------------------------------|-------------------------------------------------|


D|-------------------------------------------------|-------------------------------------------------|
A|-------------7--7--------------------------------|-7--8--------10-10-------------14-14-12-12-------|
F|-------------------8--8--------3--3--5--5--------|-------------------12-12-------------------8--8--|
C|-10-10-0--0--------------0--0--------------0--0--|-------0--0--------------0--0--------------------|
G|-------------------------------------------------|-------------------------------------------------|
C|-------------------------------------------------|-------------------------------------------------|


D|-------------------------------------------------|-------------------------------------------------|
A|-------------------7--7--------------------------|-------------------10-10-------8--8--7--7--------|
F|-7--7--------8--8--------8--8--------8--8--------|-7--8--------8--8--------8--8--------------------|
C|-------8--8--------------------8--8--------8--8--|-------8--8--------------------------------10-10-|
G|-------------------------------------------------|-------------------------------------------------|
C|-------------------------------------------------|-------------------------------------------------|


D|-------------------------------------------------|-------------------------------------------------|
A|-------------7--7--------------------------------|-7--8--------10-10-------------14-14-12-12-------|
F|-------------------8--8--------3--3--5--5--------|-------------------12-12-------------------8--8--|
C|-10-10-0--0--------------0--0--------------0--0--|-------0--0--------------0--0--------------------|
G|-------------------------------------------------|-------------------------------------------------|
C|-------------------------------------------------|-------------------------------------------------|


D|-------------------------------------------------|-------------------------------------------------|
A|-------------------7--7--------------------------|-------------------10-10-------8--8--7--7--------|
F|-7--7--------8--8--------8--8--------8--8--------|-7--8--------8--8--------8--8--------------------|
C|-------8--8--------------------8--8--------8--8--|-------8--8--------------------------------10-10-|
G|-------------------------------------------------|-------------------------------------------------|
C|-------------------------------------------------|-------------------------------------------------|


D|-------------------------------------------------|-------------------------------------------------|
A|-------------7--7--------------------------------|-7--8--------10-10-------------14-14-12-12-------|
F|-------------------8--8--------3--3--5--5--------|-------------------12-12-------------------8--8--|
C|-10-10-0--0--------------0--0--------------0--0--|-------0--0--------------0--0--------------------|
G|-------------------------------------------------|-------------------------------------------------|
C|-------------------------------------------------|-------------------------------------------------|


D|-------------------------------------------------|-------------------------------------------------|
A|-------------------7--7--------------------------|-------------------10-10-------8--8--7--7--------|
F|-7--7--------8--8--------8--8--------8--8--------|-7--8--------8--8--------8--8--------------------|
C|-------8--8--------------------8--8--------8--8--|-------8--8--------------------------------10-10-|
G|-------------------------------------------------|-------------------------------------------------|
C|-------------------------------------------------|-------------------------------------------------|


D|-------------------------------------------------|-------------------------------------------------|
A|-------------7--7--------------------------------|-7--8--------10-10-------------14-14-12-12-------|
F|-------------------8--8--------3--3--5--5--------|-------------------12-12-------------------8--8--|
C|-10-10-0--0--------------0--0--------------0--0--|-------0--0--------------0--0--------------------|
G|-------------------------------------------------|-------------------------------------------------|
C|-------------------------------------------------|-------------------------------------------------|


D|-------------------------------------------------|-------------------------------------------------|
A|-------------------------------------------------|-------------------------------------------------|
F|-7--7--------------------------------------------|-------------------------------------------------|
C|-------7--0--0--0--7--0--8--0--0--0--8--0--5--0--|-0--0--0--0--0--0--3--0--0--0--5--0--2--0--0--0--|
G|-------------------------------------------------|-------------------------------------------------|
C|-------------------------------------------------|-------------------------------------------------|


D|---------------------------------------------|-------------------------------------------------|
A|---------------------------------------------|-------------------------------------------------|
F|-1--1--1--3--3--3----------------------------|-------------------------------------------------|
C|-------------------3---3---7--0--0--0--7--0--|-8--0--0--0--8--0--5--0--0--0--0--0--0--0--3--0--|
G|---------------------------------------------|-------------------------------------------------|
C|---------------------------------------------|-------------------------------------------------|


D|-----------------------------------------------|-----------------------------------------------|
A|-----------------------------------------------|-----------------------------------------------|
F|-------------------------1--1--1--3--3--3------|-----------------------------------------------|
C|-0--0--5--0--2--0--0--0--------------------1---|-1---7--0--0--0--7--0--8--0--0--0--8--0--5--0--|
G|-----------------------------------------------|-----------------------------------------------|
C|-----------------------------------------------|-----------------------------------------------|


D|-------------------------------------------------|---------------------------------------------|
A|-------------------------------------------------|---------------------------------------------|
F|-------------------------------------------------|-1--1--1--3--3--3----------------------------|
C|-0--0--0--0--0--0--3--0--0--0--5--0--2--0--0--0--|-------------------3---3---7--0--0--0--7--0--|
G|-------------------------------------------------|---------------------------------------------|
C|-------------------------------------------------|---------------------------------------------|


D|-------------------------------------------------|-----------------------------------------------|
A|-------------------------------------------------|-----------------------------------------------|
F|-------------------------------------------------|-------------------------1--1--1--3--3--3------|
C|-8--0--0--0--8--0--5--0--0--0--0--0--0--0--3--0--|-0--0--5--0--2--0--0--0--------------------1---|
G|-------------------------------------------------|-----------------------------------------------|
C|-------------------------------------------------|-----------------------------------------------|


D|----------------|
A|----------------|
F|----------------|
C|-1--------------|
G|----------------|
C|----------------|





Track 7: Untitled

G|--------|--------|--------|--------|--------|--------|--------|--------|--------|
D|--------|--------|--------|--------|--------|--------|--------|--------|--------|
A|--------|--------|--------|--------|--------|--------|--------|--------|--------|
E|--------|--------|--------|--------|--------|--------|--------|--------|--------|


G|--------|--------|--------|--------|--------|--------|--------|--------|--------|
D|--------|--------|--------|--------|--------|--------|--------|--------|--------|
A|--------|--------|--------|--------|--------|--------|--------|--------|--------|
E|--------|--------|--------|--------|--------|--------|--------|--------|--------|


G|--------|--------|--------|--------|--------|--------|--------|--------|--------|
D|--------|--------|--------|--------|--------|--------|--------|--------|--------|
A|--------|--------|--------|--------|--------|--------|--------|--------|--------|
E|--------|--------|--------|--------|--------|--------|--------|--------|--------|


G|--------|--------|--------|--------|--------|--------|--------|--------|--------|
D|--------|--------|--------|--------|--------|--------|--------|--------|--------|
A|--------|--------|--------|--------|--------|--------|--------|--------|--------|
E|--------|--------|--------|--------|--------|--------|--------|--------|--------|


G|--------|--------|--------|--------|--------|--------|--------|--------|--------|
D|--------|--------|--------|--------|--------|--------|--------|--------|--------|
A|--------|--------|--------|--------|--------|--------|--------|--------|--------|
E|--------|--------|--------|--------|--------|--------|--------|--------|--------|


G|--------|--------|--------|--------|--------|--------|--------|--------|--------|
D|--------|--------|--------|--------|--------|--------|--------|--------|--------|
A|--------|--------|--------|--------|--------|--------|--------|--------|--------|
E|--------|--------|--------|--------|--------|--------|--------|--------|--------|


G|--------|--------|--------|--------|--------|--------|--------|--------|--------|
D|--------|--------|--------|--------|--------|--------|--------|--------|--------|
A|--------|--------|--------|--------|--------|--------|--------|--------|--------|
E|--------|--------|--------|--------|--------|--------|--------|--------|--------|


G|--------|--------|--------|--------|--------|--------|--------|--------|--------|
D|--------|--------|--------|--------|--------|--------|--------|--------|--------|
A|--------|--------|--------|--------|--------|--------|--------|--------|--------|
E|--------|--------|--------|--------|--------|--------|--------|--------|--------|


G|--------|--------|--------|--------|--------|--------|--------|--------|--------|
D|--------|--------|--------|--------|--------|--------|--------|--------|--------|
A|--------|--------|--------|--------|--------|--------|--------|--------|--------|
E|--------|--------|--------|--------|--------|--------|--------|--------|--------|


G|--------|--------|--------|--------|--------|--------|--------|--------|--------|
D|--------|--------|--------|--------|--------|--------|--------|--------|--------|
A|--------|--------|--------|--------|--------|--------|--------|--------|--------|
E|--------|--------|--------|--------|--------|--------|--------|--------|--------|


G|--------|--------|--------|--------|--------|--------|--------|--------|--------|
D|--------|--------|--------|--------|--------|--------|--------|--------|--------|
A|--------|--------|--------|--------|--------|--------|--------|--------|--------|
E|--------|--------|--------|--------|--------|--------|--------|--------|--------|


G|--------|--------|--------|--------|--------|--------|--------|--------|--------|
D|--------|--------|--------|--------|--------|--------|--------|--------|--------|
A|--------|--------|--------|--------|--------|--------|--------|--------|--------|
E|--------|--------|--------|--------|--------|--------|--------|--------|--------|


G|--------|--------|--------|--------|--------|--------|--------|--------|--------|
D|--------|--------|--------|--------|--------|--------|--------|--------|--------|
A|--------|--------|--------|--------|--------|--------|--------|--------|--------|
E|--------|--------|--------|--------|--------|--------|--------|--------|--------|


G|--------|--------|--------|--------|--------|--------|--------|--------|--------|
D|--------|--------|--------|--------|--------|--------|--------|--------|--------|
A|--------|--------|--------|--------|--------|--------|--------|--------|--------|
E|--------|--------|--------|--------|--------|--------|--------|--------|--------|


G|--------|--------|--------|--------|--------|--------|--------|--------|--------|
D|--------|--------|--------|--------|--------|--------|--------|--------|--------|
A|--------|--------|--------|--------|--------|--------|--------|--------|--------|
E|--------|--------|--------|--------|--------|--------|--------|--------|--------|


G|--------|--------|--------|--------|--------|--------|--------|--------|--------|
D|--------|--------|--------|--------|--------|--------|--------|--------|--------|
A|--------|--------|--------|--------|--------|--------|--------|--------|--------|
E|--------|--------|--------|--------|--------|--------|--------|--------|--------|


G|--------|--------|--------|--------|--------|--------|--------|--------|--------|
D|--------|--------|--------|--------|--------|--------|--------|--------|--------|
A|--------|--------|--------|--------|--------|--------|--------|--------|--------|
E|--------|--------|--------|--------|--------|--------|--------|--------|--------|


G|--------|--------|--------|--------|--------|--------|--------|--------|--------|
D|--------|--------|--------|--------|--------|--------|--------|--------|--------|
A|--------|--------|--------|--------|--------|--------|--------|--------|--------|
E|--------|--------|--------|--------|--------|--------|--------|--------|--------|


G|--------|--------|--------|--------|--------|--------|--------|--------|--------|
D|--------|--------|--------|--------|--------|--------|--------|--------|--------|
A|--------|--------|--------|--------|--------|--------|--------|--------|--------|
E|--------|--------|--------|--------|--------|--------|--------|--------|--------|


G|--------|--------|--------|--------|--------|--------|--------|--------|--------|
D|--------|--------|--------|--------|--------|--------|--------|--------|--------|
A|--------|--------|--------|--------|--------|--------|--------|--------|--------|
E|--------|--------|--------|--------|--------|--------|--------|--------|--------|


G|--------|--------|--------|--------|--------|--------|--------|--------|--------|
D|--------|--------|--------|--------|--------|--------|--------|--------|--------|
A|--------|--------|--------|--------|--------|--------|--------|--------|--------|
E|--------|--------|--------|--------|--------|--------|--------|--------|--------|


G|--------|--------|--------|--------|--------|--------|--------|--------|--------|
D|--------|--------|--------|--------|--------|--------|--------|--------|--------|
A|--------|--------|--------|--------|--------|--------|--------|--------|--------|
E|--------|--------|--------|--------|--------|--------|--------|--------|--------|


G|--------|--------|
D|--------|--------|
A|--------|--------|
E|--------|--------|