Menu:

 

Search:

 

the simpsons - the simpsons:

 



Title: The Simpsons Theme (Metal Style)
Artist: 
Album: 
Author: Danny Elfman


Track 1: Lead Guitar

E|--------|--------|-------------|-2-----3-----|-3------|--------|--------|-----------------|
B|--------|--------|-------1-----|-4-----5-----|-5------|--------|--------|-------------17--|
G|--------|--------|-------0-----|-2-----5-----|-5------|--------|--------|-------17--------|
D|--------|--------|-------2-----|-------7-----|-7------|--------|--------|-----------------|
A|--------|--------|-------------|-------------|--------|--------|--------|-----------------|
E|--------|--------|-------------|-------------|--------|--------|--------|-----------------|


E|-------------17--15--------|---------------------------------|---------------------------|
B|-17--19--19------------17--|---------------------------------|---------------7---7---7---|
G|---------------------------|-----17------14--11--11--11--12--|-12------------------------|
D|---------------------------|---------------------------------|---------------------------|
A|---------------------------|---------------------------------|---------------------------|
E|---------------------------|---------------------------------|---------------------------|


E|-----6---6----7---------|-------------|-------------------------------|-------------------------------------------------|
B|-8------------7---------|-------------|-------------------------------|----------9--10-9--10-12-18-16-14----16-14-12----|
G|--------------8---------|-------------|-------------------8-----8--10-|-11-10-11-------------------------16----------14-|
D|------------------------|-------------|-------9--8--9--11----11-------|-------------------------------------------------|
A|------------------------|-------------|-------------------------------|-------------------------------------------------|
E|------------------------|-------------|-------------------------------|-------------------------------------------------|


E|-----------------------------------|-------------11--9-----7---|---------------------------------|
B|-14-12-10----12-10-8---------------|-----------------------0---|-----10--10------------------4---|
G|----------12----------10-------8---|-----10--------------------|-------------10--6---6---6---4---|
D|-------------------------9---------|---------------------------|-----------------7---7---7-------|
A|-----------------------------------|---------------------------|---------------------------------|
E|-----------------------------------|---------------------------|---------------------------------|


E|----------------17-19-17-15----|-17-15-13----15-13-11----0-----|-4-----4-----|-6----9----7-----|
B|----------16-18-------------16-|----------14----------12-0-----|-5-----5-----|-----------------|
G|-------16----------------------|-------------------------------|-------------|-----------------|
D|-------------------------------|-------------------------------|-------------|-----------------|
A|-------------------------------|-------------------------------|-------------|-----------------|
E|-------------------------------|-------------------------------|-------------|-----------------|


E|-----------------------------------|---------------------------------------------|
B|-9---------12-10-------10-8--------|-8--6--------6--4---------------9--11--9-----|
G|------9----------10-10-------9--8--|-------8--6--------6--4--9---11-----------11-|
D|-----------------------------------|---------------------------------------------|
A|-----------------------------------|---------------------------------------------|
E|-----------------------------------|---------------------------------------------|


E|---------------------12--------|-12--------------12--|-12--14--14--17--15--------|
B|--------9--11--9----------11---|------11---13--------|-----------------------17--|
G|-9---11-----------11-----------|---------------------|---------------------------|
D|-------------------------------|---------------------|---------------------------|
A|-------------------------------|---------------------|---------------------------|
E|-------------------------------|---------------------|---------------------------|


E|---------------------------------|---------------------------------|---------------------------|
B|-17------------------------------|-----13--------------------------|-----------------------10--|
G|-----17--17--14--11--11--11--12--|---------9---11--11--11--9-------|-------9---9---11--11------|
D|---------------------------------|-----------------------------10--|-10------------------------|
A|---------------------------------|-22------------------------------|---------------------------|
E|---------------------------------|---------------------------------|---------------------------|


E|---------------------------|-----------------------|-----------------|---------------------|
B|-8---------------------13--|-15--13--15--13--------|-----------------|---------------------|
G|-------9---9---------------|-----------------------|-----------------|------17---------8---|
D|---------------10----------|-----------------------|------------17---|-19--------9---------|
A|---------------------------|-----------------------|-----------------|---------------------|
E|---------------------------|-----------------------|-----------------|---------------------|


E|---------------------------|-----------------------------------------|-------------------------------------------------|
B|-------------9---7---------|--------------------2--4--6-----4--6--8--|----6--8--10----8--10-12-14-12-10----12-10-8-----|
G|-8---10--10------------8---|-8---4---4-------4-----------6-----------|-8-----------10-------------------10----------10-|
D|---------------------------|-------------6---------------------------|-------------------------------------------------|
A|---------------------------|-----------------------------------------|-------------------------------------------------|
E|---------------------------|-----------------------------------------|-------------------------------------------------|


E|-----------------------------------|-------------11--9---------|---------------------------------|
B|-8--6--4-----6--4------------------|---------6-------------12--|-12--10--10------------------4---|
G|----------6--------6--4--------8---|-8---10--------------------|-------------10--6---6---6---4---|
D|-------------------------9---------|---------------------------|-----------------7---7---7-------|
A|-----------------------------------|---------------------------|---------------------------------|
E|-----------------------------------|---------------------------|---------------------------------|


E|--------------------|-------8---7---5-------|-5---------------5---------------|-----------------5----5--5----|
B|--------------------|-------8-----------8---|-----8---7---5-------8---7---5---|-----5---7-------5----5--5----|
G|--------------------|-------9---------------|---------------------------------|-7-----------7---5----5--5----|
D|--------------------|-----------------------|---------------------------------|------------------------------|
A|--------------------|-----------------------|---------------------------------|------------------------------|
E|--------------------|-----------------------|---------------------------------|------------------------------|


E|-5-----5---5-------5---|-----5--------------|--------|--------|--------|--------|
B|-5-----5---5-------5---|-----5--------------|--------|--------|--------|--------|
G|-5-----5---5-------5---|-----5--------------|--------|--------|--------|--------|
D|-----------------------|--------------------|--------|--------|--------|--------|
A|-----------------------|--------------------|--------|--------|--------|--------|
E|-----------------------|--------------------|--------|--------|--------|--------|


E|--------|--------|--------|--------|--------|--------|--------|--------|--------|
B|--------|--------|--------|--------|--------|--------|--------|--------|--------|
G|--------|--------|--------|--------|--------|--------|--------|--------|--------|
D|--------|--------|--------|--------|--------|--------|--------|--------|--------|
A|--------|--------|--------|--------|--------|--------|--------|--------|--------|
E|--------|--------|--------|--------|--------|--------|--------|--------|--------|


E|--------|--------|--------|--------|
B|--------|--------|--------|--------|
G|--------|--------|--------|--------|
D|--------|--------|--------|--------|
A|--------|--------|--------|--------|
E|--------|--------|--------|--------|





Track 2: Rhythm

E|--------|--------|--------|--------|--------|--------------------|------------------------------|
B|--------|--------|--------|--------|--------|----------7---------|----------7-------7-------7---|
G|-5------|-5------|-5------|-5------|--------|-5--------6---------|-5--------6-------6-------6---|
D|-5------|-5------|-5------|-5------|--------|-5--------4---------|-5--------4-------4-------4---|
A|-3------|-3------|-3------|-3------|--------|-3------------------|-3----------------------------|
E|--------|--------|--------|--------|--------|--------------------|------------------------------|


E|---------------------------|------------------------------|--------------------|
B|----------7------------7---|-----7-------7------------7---|----------------7---|
G|-5--------6---5--------6---|-----6-------6---5--------6---|-------5--------6---|
D|-5--------4---5--------4---|-----4-------4---5--------4---|-------5--------4---|
A|-3------------3------------|-----------------3------------|-------3------------|
E|---------------------------|------------------------------|--------------------|


E|------------------------------|------------------------------|--------------------|
B|-----7-------7------------7---|-----7-------7----------------|--------------------|
G|-----6-------6---5--------6---|-----6-------6---4------------|-------4------------|
D|-----4-------4---5--------4---|-----4-------4---4--------3---|-------4--------3---|
A|-----------------3------------|-----------------2--------3---|-------2--------3---|
E|------------------------------|--------------------------1---|----------------1---|


E|------------------------------|--------------------|------------------------------|
B|------------------------------|--------------------|------------------------------|
G|-----------------4------------|-------4------------|-----------------4------------|
D|-----3-------3---4--------3---|-------4--------3---|-----3-------3---4--------3---|
A|-----3-------3---2--------3---|-------2--------3---|-----3-------3---2--------3---|
E|-----1-------1------------1---|----------------1---|-----1-------1------------1---|


E|--------------------|------------------------------|--------------------|-----------------------|
B|--------------------|------------------------------|--------------------|-----------------------|
G|-------4------------|-----------------4------------|-------4------------|-----------------------|
D|-------4--------3---|-----3-------3---4--------3---|-------4--------3---|-----3-------3---2-----|
A|-------2--------3---|-----3-------3---2--------3---|-------2--------3---|-----3-------3---2-----|
E|----------------1---|-----1-------1------------1---|----------------1---|-----1-------1---0-----|


E|-------------|-----------------|-----------------|-------------|-----------------|
B|-------------|-----------------|-----------------|-------------|-----------------|
G|-------------|-3----6----4-----|-1---------3-----|-------3-----|-------9---------|
D|-6-----6-----|-4----7----6-----|-2----2----3-----|-------3-----|-------9----8----|
A|-7-----7-----|-----------------|------4----1-----|-------1-----|-------7----8----|
E|-------------|-----------------|-----------1-----|-------1-----|------------6----|


E|---------------------|---------------------------|---------------------------------|
B|---------------------|---------------------------|---------------------------------|
G|-9---------------9---|-----11------9---7---------|-----5---------------------------|
D|-9----8----10----9---|-----11------7---5-----9---|-2---5-------7-------------------|
A|-7----8----10----7---|-7---9---9-------------7---|-----3---3---7---4---4---4---5---|
E|------6----8---------|---------------------------|-------------5---2---2---2---3---|


E|--------------------|-------------|-------------|-----------------------|---------------------------------|
B|--------------------|-------------|-------------|-----------------------|---------------------------------|
G|--------------------|-------------|-------------|-------3---3-------3---|-----3-------3---3---3-------3---|
D|--------------------|-------------|-------------|-------3---3-------3---|-----3-------3---3---3-------3---|
A|-5------------------|-------------|-------------|-------1---1-------1---|-----1-------1---1---1-------1---|
E|-3------------------|-------------|-------------|-----------------------|---------------------------------|


E|------------------------------|--------------------|---------------------------------|
B|------------------------------|--------------------|---------------------------------|
G|-----3-------3---4------------|-------4------------|---------------------------------|
D|-----3-------3---4--------2---|-------4--------2---|-----2-------2---3---3---3---4---|
A|-----1-------1---2--------2---|-------2--------2---|-----2-------2---5---5---5---6---|
E|--------------------------0---|----------------0---|-----0-------0-------------------|


E|-----------------------|------------------------|--------------------|------------------------------|
B|-----------------------|------------------------|--------------------|------------------------------|
G|-----------------------|-----4-----4------------|-------4------------|-----------------4------------|
D|-----------3---3---3---|-4---6-----4--------2---|-------4--------2---|-----2-------2---4--------2---|
A|-----------5---5---5---|-6---------2--------2---|-------2--------2---|-----2-------2---2--------2---|
E|-----------------------|--------------------0---|----------------0---|-----0-------0------------0---|


E|-----------------------|---------------------------|---------------------|---------------------|
B|-----------4---4---4---|-4---4---4---4-------------|---------------------|---------------------|
G|-----------6---6---6---|-8---8---10--10--5---------|-5---------5---------|-5---------5---------|
D|-----------------------|-----------------5----5----|-5----5----5----5----|-5----5----5----5----|
A|-----------------------|-----------------3----5----|-3----5----3----5----|-3----5----3----5----|
E|-----------------------|----------------------3----|------3---------3----|------3---------3----|


E|---------------------------|-----------------------|-15----15----|-17---20---18----|
B|---------------------------|-----------------16----|-------------|-18---22---20----|
G|-5-------------------------|-----------------------|-------------|-----------------|
D|-5----5----7---5---4-------|---------4-------------|-------------|-----------------|
A|-3----5----------------7---|-5---7-------5---------|-------------|-----------------|
E|------3--------------------|-----------------------|-------------|-----------------|


E|-15--------------|-----------------|--------|--------|-------------------------------|
B|-16---16---------|-----------------|--------|--------|-------------------8-----8--10-|
G|------15---14----|-----------------|--------|--------|-------8--7--8--10----10-------|
D|-----------17----|-----------------|--------|--------|-------------------------------|
A|-----------------|-----------------|--------|--------|-------------------------------|
E|-----------------|-----------------|--------|--------|-------------------------------|


E|----------11-15-13-11----------|-------15-13-11----13-11-9-----|-11-9--7-----9--7--5-----------|
B|-11-13-14-------------13-14----|----------------14----------12-|----------10----------8--4-----|
G|-------------------------------|-------------------------------|-------------------------------|
D|-------------------------------|-------------------------------|-------------------------------|
A|-------------------------------|-------------------------------|-------------------------------|
E|-------------------------------|-------------------------------|-------------------------------|


E|----------5--7--9-----7--9--11-|----9--11-13----11-13-15-------13--|-13--15--15--18--16--------|
B|-------8-----------10----------|-12----------14----------14--------|-----------------------18--|
G|-------------------------------|-----------------------------------|---------------------------|
D|-------------------------------|-----------------------------------|---------------------------|
A|-------------------------------|-----------------------------------|---------------------------|
E|-------------------------------|-----------------------------------|---------------------------|


E|---------------------------------|---------------------------------|-4---7---7----21--21--21--21--|
B|-18------------------------------|---------------------------------|-6---9---9----14--14--14--14--|
G|-----18--18--15------------------|---------------------------------|------------------------------|
D|-----------------5---5---5---6---|-----5---5---6-------5---5---5---|------------------------------|
A|---------------------------------|---------------------------------|------------------------------|
E|---------------------------------|---------------------------------|------------------------------|


E|--------------------|
B|--------------------|
G|--------------------|
D|--------------------|
A|--------------------|
E|--------------------|





Track 3: Lead Guitar

E|--------|--------|--------|--------|--------|--------|--------|--------|--------|
B|--------|--------|--------|--------|--------|--------|--------|--------|--------|
G|--------|--------|--------|--------|--------|--------|--------|--------|--------|
D|--------|--------|--------|--------|--------|--------|--------|--------|--------|
A|--------|--------|--------|--------|--------|--------|--------|--------|--------|
E|--------|--------|--------|--------|--------|--------|--------|--------|--------|


E|--------|--------|--------|--------|--------|--------|--------|--------|--------|
B|--------|--------|--------|--------|--------|--------|--------|--------|--------|
G|--------|--------|--------|--------|--------|--------|--------|--------|--------|
D|--------|--------|--------|--------|--------|--------|--------|--------|--------|
A|--------|--------|--------|--------|--------|--------|--------|--------|--------|
E|--------|--------|--------|--------|--------|--------|--------|--------|--------|


E|--------|--------|--------|--------|--------|--------|--------|--------|--------|
B|--------|--------|--------|--------|--------|--------|--------|--------|--------|
G|--------|--------|--------|--------|--------|--------|--------|--------|--------|
D|--------|--------|--------|--------|--------|--------|--------|--------|--------|
A|--------|--------|--------|--------|--------|--------|--------|--------|--------|
E|--------|--------|--------|--------|--------|--------|--------|--------|--------|


E|--------|--------|--------|--------|--------|--------|--------|--------|--------|
B|--------|--------|--------|--------|--------|--------|--------|--------|--------|
G|--------|--------|--------|--------|--------|--------|--------|--------|--------|
D|--------|--------|--------|--------|--------|--------|--------|--------|--------|
A|--------|--------|--------|--------|--------|--------|--------|--------|--------|
E|--------|--------|--------|--------|--------|--------|--------|--------|--------|


E|--------|--------|--------|--------|--------|--------|--------|--------|--------|
B|--------|--------|--------|--------|--------|--------|--------|--------|--------|
G|--------|--------|--------|--------|--------|--------|--------|--------|--------|
D|--------|--------|--------|--------|--------|--------|--------|--------|--------|
A|--------|--------|--------|--------|--------|--------|--------|--------|--------|
E|--------|--------|--------|--------|--------|--------|--------|--------|--------|


E|-----------------------|---------------------------------|---------------------------------|
B|-----------------------|---------------------------------|---------------------------------|
G|-------8---8-------8---|-----8-------8---8---8-------8---|-----8-------8---8---8-------8---|
D|-------8---8-------8---|-----8-------8---8---8-------8---|-----8-------8---8---8-------8---|
A|-------6---6-------6---|-----6-------6---6---6-------6---|-----6-------6---6---6-------6---|
E|-------6---6-------6---|-----6-------6---6---6-------6---|-----6-------6---6---6-------6---|


E|-----------------------|--------|--------|--------|--------|--------|--------|--------|
B|-----------------------|--------|--------|--------|--------|--------|--------|--------|
G|-----8-------8---7-----|--------|--------|--------|--------|--------|--------|--------|
D|-----8-------8---7-----|--------|--------|--------|--------|--------|--------|--------|
A|-----6-------6---7-----|--------|--------|--------|--------|--------|--------|--------|
E|-----6-------6---5-----|--------|--------|--------|--------|--------|--------|--------|


E|--------|--------|--------|--------|--------|--------|--------|
B|--------|--------|--------|--------|--------|--------|--------|
G|--------|--------|--------|--------|--------|--------|--------|
D|--------|--------|--------|--------|--------|--------|--------|
A|--------|--------|--------|--------|--------|--------|--------|
E|--------|--------|--------|--------|--------|--------|--------|





Track 4: Trombone

E|--------|--------|--------|--------|--------|--------|--------|--------|--------|
B|--------|--------|--------|--------|--------|--------|--------|--------|--------|
G|--------|--------|--------|--------|--------|--------|--------|--------|--------|
D|--------|--------|--------|--------|--------|--------|--------|--------|--------|
A|--------|--------|--------|--------|--------|--------|--------|--------|--------|
E|--------|--------|--------|--------|--------|--------|--------|--------|--------|


E|--------|--------|--------|--------|--------|--------|--------|--------|--------|
B|--------|--------|--------|--------|--------|--------|--------|--------|--------|
G|--------|--------|--------|--------|--------|--------|--------|--------|--------|
D|--------|--------|--------|--------|--------|--------|--------|--------|--------|
A|--------|--------|--------|--------|--------|--------|--------|--------|--------|
E|--------|--------|--------|--------|--------|--------|--------|--------|--------|


E|--------|--------|--------|--------|--------|--------|--------|--------|--------|
B|--------|--------|--------|--------|--------|--------|--------|--------|--------|
G|--------|--------|--------|--------|--------|--------|--------|--------|--------|
D|--------|--------|--------|--------|--------|--------|--------|--------|--------|
A|--------|--------|--------|--------|--------|--------|--------|--------|--------|
E|--------|--------|--------|--------|--------|--------|--------|--------|--------|


E|--------|--------|--------|--------|--------|--------|--------|--------|--------|
B|--------|--------|--------|--------|--------|--------|--------|--------|--------|
G|--------|--------|--------|--------|--------|--------|--------|--------|--------|
D|--------|--------|--------|--------|--------|--------|--------|--------|--------|
A|--------|--------|--------|--------|--------|--------|--------|--------|--------|
E|--------|--------|--------|--------|--------|--------|--------|--------|--------|


E|--------|--------|--------|--------|--------|--------|--------|--------|--------|
B|--------|--------|--------|--------|--------|--------|--------|--------|--------|
G|--------|--------|--------|--------|--------|--------|--------|--------|--------|
D|--------|--------|--------|--------|--------|--------|--------|--------|--------|
A|--------|--------|--------|--------|--------|--------|--------|--------|--------|
E|--------|--------|--------|--------|--------|--------|--------|--------|--------|


E|--------|--------|--------|--------|---------------------------|-----------------------------------------|
B|--------|--------|--------|--------|--------------8--10--8-----|--------8--10--8-------------------------|
G|--------|--------|--------|--------|-------8---10-----------10-|-8---10-----------10---------------------|
D|--------|--------|--------|--------|---------------------------|----------------------------5--7---5-----|
A|--------|--------|--------|--------|---------------------------|---------------------6---8------------8--|
E|--------|--------|--------|--------|---------------------------|-----------------------------------------|


E|---------------------------|--------|--------|--------|--------|--------|--------|
B|---------------------------|--------|--------|--------|--------|--------|--------|
G|---------------------9-----|--------|--------|--------|--------|--------|--------|
D|--------5--7---5-----------|--------|--------|--------|--------|--------|--------|
A|-6---8------------8--------|--------|--------|--------|--------|--------|--------|
E|---------------------------|--------|--------|--------|--------|--------|--------|


E|--------|--------|--------|--------|--------|
B|--------|--------|--------|--------|--------|
G|--------|--------|--------|--------|--------|
D|--------|--------|--------|--------|--------|
A|--------|--------|--------|--------|--------|
E|--------|--------|--------|--------|--------|





Track 5: Lead Guitar

E|--------|--------|--------|--------|--------|--------|--------|--------|--------|
B|--------|--------|--------|--------|--------|--------|--------|--------|--------|
G|--------|--------|--------|--------|--------|--------|--------|--------|--------|
D|--------|--------|--------|--------|--------|--------|--------|--------|--------|
A|--------|--------|--------|--------|--------|--------|--------|--------|--------|
E|--------|--------|--------|--------|--------|--------|--------|--------|--------|


E|--------|--------|--------|--------|--------|--------|--------|--------|--------|
B|--------|--------|--------|--------|--------|--------|--------|--------|--------|
G|--------|--------|--------|--------|--------|--------|--------|--------|--------|
D|--------|--------|--------|--------|--------|--------|--------|--------|--------|
A|--------|--------|--------|--------|--------|--------|--------|--------|--------|
E|--------|--------|--------|--------|--------|--------|--------|--------|--------|


E|--------|--------|--------|--------|--------|--------|--------|--------|--------|
B|--------|--------|--------|--------|--------|--------|--------|--------|--------|
G|--------|--------|--------|--------|--------|--------|--------|--------|--------|
D|--------|--------|--------|--------|--------|--------|--------|--------|--------|
A|--------|--------|--------|--------|--------|--------|--------|--------|--------|
E|--------|--------|--------|--------|--------|--------|--------|--------|--------|


E|--------|--------|--------|--------|--------|--------|--------|--------|--------|
B|--------|--------|--------|--------|--------|--------|--------|--------|--------|
G|--------|--------|--------|--------|--------|--------|--------|--------|--------|
D|--------|--------|--------|--------|--------|--------|--------|--------|--------|
A|--------|--------|--------|--------|--------|--------|--------|--------|--------|
E|--------|--------|--------|--------|--------|--------|--------|--------|--------|


E|--------|--------|--------|--------|--------|--------|--------|--------|--------|
B|--------|--------|--------|--------|--------|--------|--------|--------|--------|
G|--------|--------|--------|--------|--------|--------|--------|--------|--------|
D|--------|--------|--------|--------|--------|--------|--------|--------|--------|
A|--------|--------|--------|--------|--------|--------|--------|--------|--------|
E|--------|--------|--------|--------|--------|--------|--------|--------|--------|


E|--------|--------|--------|--------|-----------------------|---------------------------------|
B|--------|--------|--------|--------|-----------------------|---------------------------------|
G|--------|--------|--------|--------|-----------------------|---------------------------------|
D|--------|--------|--------|--------|-------7---7-------7---|-----7-------7---7---7-------7---|
A|--------|--------|--------|--------|-------7---7-------7---|-----7-------7---7---7-------7---|
E|--------|--------|--------|--------|-------5---5-------5---|-----5-------5---5---5-------5---|


E|-----------------------|--------|--------|--------|--------|--------|--------|--------|
B|-----------------------|--------|--------|--------|--------|--------|--------|--------|
G|-----------------------|--------|--------|--------|--------|--------|--------|--------|
D|-----7-------7---7-----|--------|--------|--------|--------|--------|--------|--------|
A|-----7-------7---7-----|--------|--------|--------|--------|--------|--------|--------|
E|-----5-------5---5-----|--------|--------|--------|--------|--------|--------|--------|


E|--------|--------|--------|--------|
B|--------|--------|--------|--------|
G|--------|--------|--------|--------|
D|--------|--------|--------|--------|
A|--------|--------|--------|--------|
E|--------|--------|--------|--------|





Track 6: Lead Guitar

E|--------|--------|--------|--------|--------|--------|--------|--------|--------|
B|--------|--------|--------|--------|--------|--------|--------|--------|--------|
G|--------|--------|--------|--------|--------|--------|--------|--------|--------|
D|--------|--------|--------|--------|--------|--------|--------|--------|--------|
A|--------|--------|--------|--------|--------|--------|--------|--------|--------|
E|--------|--------|--------|--------|--------|--------|--------|--------|--------|


E|--------|--------|--------|--------|--------|--------|--------|--------|--------|
B|--------|--------|--------|--------|--------|--------|--------|--------|--------|
G|--------|--------|--------|--------|--------|--------|--------|--------|--------|
D|--------|--------|--------|--------|--------|--------|--------|--------|--------|
A|--------|--------|--------|--------|--------|--------|--------|--------|--------|
E|--------|--------|--------|--------|--------|--------|--------|--------|--------|


E|--------|--------|--------|--------|--------|--------|--------|--------|--------|
B|--------|--------|--------|--------|--------|--------|--------|--------|--------|
G|--------|--------|--------|--------|--------|--------|--------|--------|--------|
D|--------|--------|--------|--------|--------|--------|--------|--------|--------|
A|--------|--------|--------|--------|--------|--------|--------|--------|--------|
E|--------|--------|--------|--------|--------|--------|--------|--------|--------|


E|--------|--------|--------|--------|--------|--------|--------|--------|--------|
B|--------|--------|--------|--------|--------|--------|--------|--------|--------|
G|--------|--------|--------|--------|--------|--------|--------|--------|--------|
D|--------|--------|--------|--------|--------|--------|--------|--------|--------|
A|--------|--------|--------|--------|--------|--------|--------|--------|--------|
E|--------|--------|--------|--------|--------|--------|--------|--------|--------|


E|--------|--------|--------|--------|--------|--------|--------|--------|--------|
B|--------|--------|--------|--------|--------|--------|--------|--------|--------|
G|--------|--------|--------|--------|--------|--------|--------|--------|--------|
D|--------|--------|--------|--------|--------|--------|--------|--------|--------|
A|--------|--------|--------|--------|--------|--------|--------|--------|--------|
E|--------|--------|--------|--------|--------|--------|--------|--------|--------|


E|--------|--------|--------|--------|--------|--------|--------|-----------------------|
B|--------|--------|--------|--------|--------|--------|--------|-----------------------|
G|--------|--------|--------|--------|--------|--------|--------|-----------------------|
D|--------|--------|--------|--------|--------|--------|--------|-------8---------------|
A|--------|--------|--------|--------|--------|--------|--------|-------6-------5-------|
E|--------|--------|--------|--------|--------|--------|--------|---------------3-------|


E|-----------------------|-------------|-------------|--------------------|-7----7--------------------|
B|-----------------------|-------------|-------------|----------------7---|---------------------------|
G|-----------------------|-------------|-------------|------------7-------|--------------6------------|
D|---------5-------2-----|-------2-----|-------2-----|--------------------|--------------6--------5---|
A|-7-------3-------4-----|-------4-----|-------4-----|--------------------|--------------4--------5---|
E|-5---------------------|-------------|-------------|--------------------|-----------------------3---|


E|--------------------|---------------------------------|---------------------------------|
B|--------------------|---------------------------------|---------------------------------|
G|-------6------------|---------------------------------|---------------------------------|
D|-------6--------5---|-----5-------5-------------------|---------------------------------|
A|-------4--------5---|-----5-------5---8---8---8---8---|-----8---8---8-------4---4---4---|
E|----------------3---|-----3-------3-------------------|---------------------------------|


E|------------------------------|--------------------|
B|------------------------------|--------------------|
G|--------------6---6---6---6---|--------------------|
D|-6---9---9----6---6---6---6---|--------------------|
A|--------------4---4---4---4---|--------------------|
E|------------------------------|--------------------|





Track 7: Bass

B|--------|--------|-----------------------------------------------|-------------------------------------------------|
G|--------|--------|-----------------------------------------------|-------------------------------------------------|
G|--------|--------|-----------------------------------------------|-------------------------------------------------|
D|--------|--------|-----------------------------------------------|-------------------------------------------------|
A|--------|--------|-3---3--3--3--3--3--3--3--3--3--3--3--3--3--3--|-3--3--3--3--3--3--3--3--3--3--3--3--3--3--3--3--|
E|--------|--------|-----------------------------------------------|-------------------------------------------------|


B|-------------------------------|--------------------|------------------------------|
G|-------------------------------|--------------------|------------------------------|
G|-------------------------------|--------------------|------------------------------|
D|-------------------------------|----------4---------|----------4-------4-------4---|
A|-3--3--3--3--3--3--3--3--3-----|-3------------------|-3----------------------------|
E|-------------------------------|--------------------|------------------------------|


B|---------------------------|------------------------------|--------------------|
G|---------------------------|------------------------------|--------------------|
G|---------------------------|------------------------------|--------------------|
D|----------4------------4---|-----4-------4------------4---|----------------4---|
A|-3------------3------------|-----------------3------------|-------3------------|
E|---------------------------|------------------------------|--------------------|


B|------------------------------|------------------------------|--------------------|
G|------------------------------|------------------------------|--------------------|
G|------------------------------|------------------------------|--------------------|
D|-----4-------4------------4---|-----4-------4----------------|--------------------|
A|-----------------3------------|-----------------2------------|-------2------------|
E|------------------------------|--------------------------1---|----------------1---|


B|------------------------------|--------------------|------------------------------|
G|------------------------------|--------------------|------------------------------|
G|------------------------------|--------------------|------------------------------|
D|------------------------------|--------------------|------------------------------|
A|-----------------2------------|-------2------------|-----------------2------------|
E|-----1-------1------------1---|----------------1---|-----1-------1------------1---|


B|--------------------|------------------------------|--------------------|------------------------|
G|--------------------|------------------------------|--------------------|------------------------|
G|--------------------|------------------------------|--------------------|------------------------|
D|--------------------|------------------------------|--------------------|------------------------|
A|-------2------------|-----------------2------------|-------2------------|-------------------2----|
E|----------------1---|-----1-------1------------1---|----------------1---|-----1--------0---------|


B|---------------------|---------------------|---------------------|---------------------|
G|---------------------|---------------------|---------------------|---------------------|
G|---------------------|---------------------|---------------------|---------------------|
D|---------------------|---------------------|----------------3----|------3---------3----|
A|------2---------2----|------2---------2----|------2----1---------|-1---------1---------|
E|-0---------0---------|-0---------0---------|-0-------------------|---------------------|


B|---------------------|---------------------|---------------------|---------------------------|
G|---------------------|---------------------|---------------------|---------------------------|
G|---------------------|-----------5---------|-----------6---------|---------------------------|
D|------3----2---------|-2-------------------|-5-------------------|-5---------3---3---3---2---|
A|-1--------------1----|------1----3---------|-----------4---------|---------------------------|
E|---------------------|---------------------|-3-------------------|-3---------1---0---1---0---|


B|-------------|-------------|-------------|-----------------|---------------------|
G|-------------|-------------|-------------|-----------------|---------------------|
G|-------------|-------------|-------------|-----------------|---------------------|
D|-2-----------|-------------|-------------|-------2---------|-2---------2---------|
A|-------------|-------------|-------------|------------1----|------1---------1----|
E|-0-----------|-------------|-------------|-----------------|---------------------|


B|-----------------------------|-------------------------|---------------------------------------|
G|-----------------------------|-------------------------|---------------------------------------|
G|-----------4----4--4---------|-------4----4--4---------|---------------------4----4--4---------|
D|-2---------------------2--2--|-------------------2--2--|--------2---------2--------------2--2--|
A|------1----2----2--2---------|-------2----2--2---------|---------------------2----2--2---------|
E|-----------------------0--0--|-------------------0--0--|-----0--0------0--0--------------0--0--|


B|-------------------------|-------------------------------|----------------------|
G|-------------------------|-------------------------------|----------------------|
G|-------4----4--4---------|----------------4--------------|-------4--------------|
D|-------------------2--2--|--------2----------------2-----|----------------2-----|
A|-------2----2--2---------|----------------2--------------|-------2--------------|
E|-------------------0--0--|-----0--0----------------0-----|----------------0-----|


B|-------------------------------|----------------------|--------------------------------|
G|-------------------------------|----------------------|--------------------------------|
G|----------------4--------------|-------4--------------|--------------------------------|
D|-----2-------------------2-----|----------------2-----|-----2--------------------------|
A|----------------2--------------|-------2--------------|--------------------3-----------|
E|-----0-------------------0-----|----------------0-----|-----0----------------------3---|


B|---------------------------------|---------------------------------|---------------------------------|
G|---------------------------------|---------------------------------|---------------------------------|
G|---------------------------------|---------------------------------|---------------------------------|
D|---------------------------------|---------------------------------|---------------------------------|
A|-----3---------------3-----------|-----3---------------3-----------|-----3---------------3-----------|
E|-------------3---------------3---|-------------3---------------3---|-------------3---------------3---|


B|---------------------------------|---------------------------------|---------------------------------|
G|---------------------------------|---------------------------------|---------------------------------|
G|---------------------------------|---------------------------------|---------------------------------|
D|---------------------------------|---------------------------------|---------------------------------|
A|-----3-----------6-------6-------|-6-------6-------6-------6-------|-6-------6-------6-------6-------|
E|-------------3-------------------|---------------------------------|---------------------------------|


B|---------------------------------|---------------------------------|---------------------------------|
G|---------------------------------|---------------------------------|---------------------------------|
G|---------------------------------|---------------------------------|---------------------------------|
D|---------------------------------|---------------------------------|---------------------------------|
A|-6-------6-----------------------|---------------------------------|-----------------12------12------|
E|-----------------5-------5-------|-5-------5-------5-------5-------|-5-------5-----------------------|


B|-------------------------------------|-------------------------------------|--------------------------------|
G|-------------------------------------|-------------------------------------|--------------------------------|
G|-------------------------------------|-------------------------------------|--------------------------------|
D|---------------------3--5--7---5--3--|-----3--5--7---5--3--1---1-----------|--------------------------------|
A|-12------12------6-------------------|-6-----------------------------------|-0---0---3-------4--------4-----|
E|-------------------------------------|-----------------------------3---3---|--------------------------------|


B|----------------------|------------------------------------|----------------------|
G|----------------------|------------------------------------|----------------------|
G|----------------------|------------------------------------|----------------------|
D|----------------------|------------------------------------|----------------------|
A|-------4--------4-----|-----4---------4-----4--------4-----|-------4--------4-----|
E|----------------------|------------------------------------|----------------------|


B|-----------------------------------------|-------------------------------------|
G|-----------------------------------------|-------------------------------------|
G|-----------------------------------------|-------------------------------------|
D|-------------------------2---------------|---------------------2---------------|
A|-----4---------4-----4---------4---------|-----4-----------4---------4---------|
E|-----------------------------------3--3--|---------3---3-----------------3--3--|


B|-----------------------------------------|-------------------------------------|
G|-----------------------------------------|-------------------------------------|
G|-----------------------------------------|-------------------------------------|
D|-------------------------2---------------|---------------------2---------------|
A|-----4--4------------4---------4---------|-----4-----------4---------4---------|
E|-----3-----3---3--3----------------3--3--|---------3---3-----------------3--3--|


B|---------------------------------------------|-------------|
G|---------------------------------------------|-------------|
G|---------------------------------------------|-------------|
D|---------------------------------------------|-------------|
A|-----4--4------------4--4--4--4--4--4--4--4--|-------------|
E|-----3-----3---3--3--------------------------|-------------|