Menu:

 

Search:

 

the rasmus - in the shadows:

 



Title: In The Shadows
Artist: 
Album: Dead Letters
Author: The Rasmus


Track 1: Untitled

 B|--------|--------|--------|--------|--------|--------|--------|--------|--------|
F#|--------|--------|--------|--------|--------|--------|--------|--------|--------|
 D|--------|--------|--------|--------|--------|--------|--------|--------|--------|
 A|--------|--------|--------|--------|--------|--------|--------|--------|--------|
 E|--------|--------|--------|--------|--------|--------|--------|--------|--------|
 B|--------|--------|--------|--------|--------|--------|--------|--------|--------|


 B|--------|--------|--------|--------|--------|--------|--------|--------|--------|
F#|--------|--------|--------|--------|--------|--------|--------|--------|--------|
 D|--------|--------|--------|--------|--------|--------|--------|--------|--------|
 A|--------|--------|--------|--------|--------|--------|--------|--------|--------|
 E|--------|--------|--------|--------|--------|--------|--------|--------|--------|
 B|--------|--------|--------|--------|--------|--------|--------|--------|--------|


 B|--------|--------|--------|--------|--------|--------|--------|--------|--------|
F#|--------|--------|--------|--------|--------|--------|--------|--------|--------|
 D|--------|--------|--------|--------|--------|--------|--------|--------|--------|
 A|--------|--------|--------|--------|--------|--------|--------|--------|--------|
 E|--------|--------|--------|--------|--------|--------|--------|--------|--------|
 B|--------|--------|--------|--------|--------|--------|--------|--------|--------|


 B|--------|--------|--------|--------|--------|--------|--------|--------|--------|
F#|--------|--------|--------|--------|--------|--------|--------|--------|--------|
 D|--------|--------|--------|--------|--------|--------|--------|--------|--------|
 A|--------|--------|--------|--------|--------|--------|--------|--------|--------|
 E|--------|--------|--------|--------|--------|--------|--------|--------|--------|
 B|--------|--------|--------|--------|--------|--------|--------|--------|--------|


 B|--------|--------|--------|--------|--------|--------|--------|--------|--------|
F#|--------|--------|--------|--------|--------|--------|--------|--------|--------|
 D|--------|--------|--------|--------|--------|--------|--------|--------|--------|
 A|--------|--------|--------|--------|--------|--------|--------|--------|--------|
 E|--------|--------|--------|--------|--------|--------|--------|--------|--------|
 B|--------|--------|--------|--------|--------|--------|--------|--------|--------|


 B|--------|--------|--------|--------|--------|--------|--------|--------|--------|
F#|--------|--------|--------|--------|--------|--------|--------|--------|--------|
 D|--------|--------|--------|--------|--------|--------|--------|--------|--------|
 A|--------|--------|--------|--------|--------|--------|--------|--------|--------|
 E|--------|--------|--------|--------|--------|--------|--------|--------|--------|
 B|--------|--------|--------|--------|--------|--------|--------|--------|--------|


 B|--------|--------|--------|--------|--------|--------|--------|--------|--------|
F#|--------|--------|--------|--------|--------|--------|--------|--------|--------|
 D|--------|--------|--------|--------|--------|--------|--------|--------|--------|
 A|--------|--------|--------|--------|--------|--------|--------|--------|--------|
 E|--------|--------|--------|--------|--------|--------|--------|--------|--------|
 B|--------|--------|--------|--------|--------|--------|--------|--------|--------|


 B|--------|--------|--------|--------|--------|--------|--------|--------|--------|
F#|--------|--------|--------|--------|--------|--------|--------|--------|--------|
 D|--------|--------|--------|--------|--------|--------|--------|--------|--------|
 A|--------|--------|--------|--------|--------|--------|--------|--------|--------|
 E|--------|--------|--------|--------|--------|--------|--------|--------|--------|
 B|--------|--------|--------|--------|--------|--------|--------|--------|--------|


 B|--------|--------|--------|--------|--------|--------|--------|--------|--------|
F#|--------|--------|--------|--------|--------|--------|--------|--------|--------|
 D|--------|--------|--------|--------|--------|--------|--------|--------|--------|
 A|--------|--------|--------|--------|--------|--------|--------|--------|--------|
 E|--------|--------|--------|--------|--------|--------|--------|--------|--------|
 B|--------|--------|--------|--------|--------|--------|--------|--------|--------|


 B|--------|--------|--------|--------|--------|--------|--------|--------|--------|
F#|--------|--------|--------|--------|--------|--------|--------|--------|--------|
 D|--------|--------|--------|--------|--------|--------|--------|--------|--------|
 A|--------|--------|--------|--------|--------|--------|--------|--------|--------|
 E|--------|--------|--------|--------|--------|--------|--------|--------|--------|
 B|--------|--------|--------|--------|--------|--------|--------|--------|--------|


 B|--------|--------|--------|--------|--------|
F#|--------|--------|--------|--------|--------|
 D|--------|--------|--------|--------|--------|
 A|--------|--------|--------|--------|--------|
 E|--------|--------|--------|--------|--------|
 B|--------|--------|--------|--------|--------|





Track 2: Bass

G|--------|--------|--------|--------|--------|--------|-------------------------------------|
D|--------|--------|--------|--------|--------|--------|-------------------------------------|
A|--------|--------|--------|--------|--------|--------|-5-------5------5-----0--5---4-------|
E|--------|--------|--------|--------|--------|--------|---------------------------------5---|


G|-------------------------------------|----------------------2--------------|-------------------------------------|
D|-------------------------------------|----------------0--------0-----------|----------------------2--------------|
A|---------------------------------0---|-2-------4-------------------4---0---|----------------0--------0---4---0---|
E|-2-------2------2-----2--0---2-------|-------------------------------------|-2-------4---------------------------|


G|-------------------------------------|-------------------------------------|----------------------2--------------|
D|-------------------------------------|-------------------------------------|----------------0--------0-----------|
A|-5-------5------5-----0--5---4-------|---------------------------------0---|-2-------4-------------------4---0---|
E|---------------------------------5---|-2-------2------2-----2--0---2-------|-------------------------------------|


G|----------------------------------|--------------------------|--------------------------|
D|----------------------------------|--------------------------|--------------------------|
A|----------------------------------|-2----2------2--2----2----|--------------------------|
E|-2-------2------2-----2--2---2----|--------------------------|-2----2------2--2----2----|


G|--------------------------|-----------------------------|--------------------------|
D|--------------------------|-----------------------------|--------------------------|
A|-2----2------2--2----2----|-------------------------0---|-2----2------2--2----2----|
E|--------------------------|-2----2------2--2----2-------|--------------------------|


G|--------------------------|--------------------------|--------------------------------|
D|--------------------------|--------------------------|--------------------------------|
A|--------------------------|-2----2------2--2----2----|--------------------4---5---4---|
E|-2----2------2--2----2----|--------------------------|-2----2------2--2---------------|


G|--------------------------|-----------------------------|--------------------------|
D|--------------------------|-----------------------------|--------------------------|
A|-5----5------5--5----5----|-------------------------0---|-2----2------2--2----2----|
E|--------------------------|-2----2------2--2----2-------|--------------------------|


G|-----------------------------|--------------------------|-----------------------------|
D|-----------------------------|--------------------------|-----------------------------|
A|-------------------------4---|-5----5------5--5----5----|-------------------------0---|
E|-2----2------2--2----2-------|--------------------------|-2----2------2--2----2-------|


G|--------------------------|-------------------------|---------------------------------|
D|--------------------------|-------------------------|---------------------------------|
A|-2----2------2--2----2----|-------------------------|-5---5---5---5---5---5---5---5---|
E|--------------------------|-----2----1----0---------|---------------------------------|


G|---------------------------------|---------------------------------|---------------------------------|
D|---------------------------------|---------------------------------|---------------------------------|
A|---------------------------------|-2---2---2---2---2---2---2---2---|---------------------------------|
E|-2---2---2---2---2---2---2---2---|---------------------------------|-2---2---2---2---2---2---2---2---|


G|---------------------------------|---------------------------------|---------------------------------|
D|---------------------------------|---------------------------------|---------------------------------|
A|-5---5---5---5---5---5---5---5---|---------------------------------|-2---2---2---2---2---2---2---2---|
E|---------------------------------|-2---2---2---2---2---2---2---2---|---------------------------------|


G|-----------------------|-------------------------------------|-------------------------------------|
D|-----------------------|-------------------------------------|-------------------------------------|
A|-----------------9-----|-5-------5------5-----0--5---4-------|---------------------------------0---|
E|-2---2---2---2---------|---------------------------------5---|-2-------2------2-----2--0---2-------|


G|----------------------2--------------|-------------------------------------|-------------------------------------|
D|----------------0--------0-----------|----------------------2--------------|-------------------------------------|
A|-2-------4-------------------4---0---|----------------0--------0---4---0---|-5-------5------5-----0--5---4-------|
E|-------------------------------------|-2-------4---------------------------|---------------------------------5---|


G|-------------------------------------|----------------------2--------------|---------------------------|
D|-------------------------------------|----------------0--------0-----------|---------------------------|
A|---------------------------------0---|-2-------4-------------------4---0---|---------------------------|
E|-2-------2------2-----2--0---2-------|-------------------------------------|-2---2---4---4---5---------|


G|--------------------------|--------------------------|--------------------------|
D|--------------------------|--------------------------|--------------------------|
A|-2----2------2--2----2----|--------------------------|-2----2------2--2----2----|
E|--------------------------|-2----2------2--2----2----|--------------------------|


G|-----------------------------|--------------------------|--------------------------|
D|-----------------------------|--------------------------|--------------------------|
A|-------------------------0---|-2----2------2--2----2----|--------------------------|
E|-2----2------2--2----2-------|--------------------------|-2----2------2--2----2----|


G|--------------------------|--------------------------------|--------------------------|
D|--------------------------|--------------------------------|--------------------------|
A|-2----2------2--2----2----|--------------------4---5---4---|-5----5------5--5----5----|
E|--------------------------|-2----2------2--2---------------|--------------------------|


G|-----------------------------|--------------------------|-----------------------------|
D|-----------------------------|--------------------------|-----------------------------|
A|-------------------------0---|-2----2------2--2----2----|-------------------------4---|
E|-2----2------2--2----2-------|--------------------------|-2----2------2--2----2-------|


G|--------------------------|-----------------------------|--------------------------|
D|--------------------------|-----------------------------|--------------------------|
A|-5----5------5--5----5----|-------------------------0---|-2----2------2--2----2----|
E|--------------------------|-2----2------2--2----2-------|--------------------------|


G|-------------------------|---------------------------------|---------------------------------|
D|-------------------------|---------------------------------|---------------------------------|
A|-------------------------|-5---5---5---5---5---5---5---5---|---------------------------------|
E|-----2----1----0---------|---------------------------------|-2---2---2---2---2---2---2---2---|


G|---------------------------------|---------------------------------|---------------------------------|
D|---------------------------------|---------------------------------|---------------------------------|
A|-2---2---2---2---2---2---2---2---|---------------------------------|-5---5---5---5---5---5---5---5---|
E|---------------------------------|-2---2---2---2---2---2---2---2---|---------------------------------|


G|---------------------------------|---------------------------------|---------------------------------|
D|---------------------------------|---------------------------------|---------------------------------|
A|---------------------------------|-2---2---2---2---2---2---2---2---|---------------------------------|
E|-2---2---2---2---2---2---2---2---|---------------------------------|-2---2---2---2---0---0---0---0---|


G|---------------11------11--|---------------13------13--|---------------14------14--|
D|---------------------------|---------------------------|---------------------------|
A|---------------------------|---------------------------|---------------------------|
E|-10---10---10------10------|-10---10---12------12------|-14---14---14------14------|


G|---------------6-------6---|---------------7-------7---|---------------6-------6---|
D|---------------------------|---------------------------|---------------------------|
A|---------------------------|---------------------------|---------------------------|
E|-14---14---5-------5-------|-7----7----7-------7-------|-7----7----5-------5-------|


G|---------------2-------2---|-------------------------|-----------------------|---------------------------------|
D|---------------------------|-------------------------|-----------------------|---------------------------------|
A|---------------------------|-------------------------|-------5---5---5---5---|-5---5---5---5-------------------|
E|-2----2----2-------2-------|-----2----1----0---------|-----------------------|-----------------2---2---2---2---|


G|---------------------------------|---------------------------------|---------------------------------|
D|---------------------------------|---------------------------------|---------------------------------|
A|-----------------2---2---2---2---|-2---2---2---2-------------------|-----------------5---5---5---5---|
E|-2---2---2---2-------------------|-----------------2---2---2---2---|-2---2---2---2-------------------|


G|---------------------------------|---------------------------------|---------------------------------|
D|---------------------------------|---------------------------------|---------------------------------|
A|-5---5---5---5-------------------|-----------------2---2---2---2---|-2---2---2---2-------------------|
E|-----------------2---2---2---2---|-2---2---2---2-------------------|-----------------2---2---2---2---|


G|-----------------------------|-------------------------------------|-------------------------------------|
D|-----------------------------|-------------------------------------|----------------------------------0--|
A|-----------5-------5------5--|----0--5---4-------------------------|---------------0---2-------4---------|
E|-2---------------------------|---------------5---2-------2------2--|----2--0---2-------------------------|


G|----2--------------------------------|-------------------------------------|-------------------------------------|
D|-------0-----------------------------|----2--------------------------------|-------------------------------------|
A|-----------4---0------------------0--|-------0---4---0---5-------5------5--|----0--5---4-------------------------|
E|-------------------2-------4---------|-------------------------------------|---------------5---2-------2------2--|


G|-------------------------------------|----2--------------------------------|-------------------------|
D|----------------------------------0--|-------0-----------------------------|-------------------------|
A|---------------0---2-------4---------|-----------4---0---------------------|---------------4---5-----|
E|----2--0---2-------------------------|-------------------2-------2------2--|----2--0---0-------------|