Menu:

 

Search:

 

the psychedelic furs - love my way:

 



Title: Love My Way 
Artist: 
Album: Forever Now
Author: Richard Butler, Tim Butler, John Ashton, and Vince Ely


Track 1: Chromatic Percussion

E|-----17--19----------17--19------|---------------17-------|-----17--19----------17--19------|
B|-17--------------20--------------|----------20--------20--|-17--------------20--------------|
G|---------------------------------|------------------------|---------------------------------|
D|---------------------------------|------------------------|---------------------------------|
A|---------------------------------|------------------------|---------------------------------|
E|---------------------------------|------------------------|---------------------------------|


E|---------------------------|-----17--19----------17--19------|---------------17-------|
B|----------20---19--20--19--|-17--------------20--------------|----------20--------20--|
G|---------------------------|---------------------------------|------------------------|
D|---------------------------|---------------------------------|------------------------|
A|---------------------------|---------------------------------|------------------------|
E|---------------------------|---------------------------------|------------------------|


E|-----17--19----------17--19------|---------------------------|---------------------------------|
B|-17--------------20--------------|----------20---19--20--19--|-17------12--------------12------|
G|---------------------------------|---------------------------|-----14----------12--14----------|
D|---------------------------------|---------------------------|---------------------------------|
A|---------------------------------|---------------------------|---------------------------------|
E|---------------------------------|---------------------------|---------------------------------|


E|------------------------|---------------------------------|---------------------------|
B|------------------------|---------12--------------12------|---------------------------|
G|----------12---14---12--|-----14----------12--14----------|----------12---11--12--11--|
D|------------------------|-14------------------------------|---------------------------|
A|------------------------|---------------------------------|---------------------------|
E|------------------------|---------------------------------|---------------------------|


E|---------------------------------|------------------------|---------------------------------|
B|---------12--------------12------|------------------------|---------12--------------12------|
G|-----14----------12--14----------|----------12---14---12--|-----14----------12--14----------|
D|-14------------------------------|------------------------|-14------------------------------|
A|---------------------------------|------------------------|---------------------------------|
E|---------------------------------|------------------------|---------------------------------|


E|---------------------------|-----17--19----------17--19------|---------------17-------|
B|---------------------------|-17--------------20--------------|----------20--------20--|
G|----------12---11--12--11--|---------------------------------|------------------------|
D|---------------------------|---------------------------------|------------------------|
A|---------------------------|---------------------------------|------------------------|
E|---------------------------|---------------------------------|------------------------|


E|-----17--19----------17--19------|---------------------------|-----17--19----------17--19------|
B|-17--------------20--------------|----------20---19--20--19--|-17--------------20--------------|
G|---------------------------------|---------------------------|---------------------------------|
D|---------------------------------|---------------------------|---------------------------------|
A|---------------------------------|---------------------------|---------------------------------|
E|---------------------------------|---------------------------|---------------------------------|


E|---------------17-------|-----17--19----------17--19------|---------------------------|
B|----------20--------20--|-17--------------20--------------|----------20---19--20--19--|
G|------------------------|---------------------------------|---------------------------|
D|------------------------|---------------------------------|---------------------------|
A|------------------------|---------------------------------|---------------------------|
E|------------------------|---------------------------------|---------------------------|


E|---------------------------------|------------------------|---------------------------------|
B|---------12--------------12------|------------------------|---------12--------------12------|
G|-----14----------12--14----------|----------12---14---12--|-----14----------12--14----------|
D|-14------------------------------|------------------------|-14------------------------------|
A|---------------------------------|------------------------|---------------------------------|
E|---------------------------------|------------------------|---------------------------------|


E|---------------------------|---------------------------------|------------------------|
B|---------------------------|---------12--------------12------|------------------------|
G|----------12---11--12--11--|-----14----------12--14----------|----------12---14---12--|
D|---------------------------|-14------------------------------|------------------------|
A|---------------------------|---------------------------------|------------------------|
E|---------------------------|---------------------------------|------------------------|


E|---------------------------------|---------------------------|---------------------------------|
B|---------12--------------12------|---------------------------|---------12--------------12------|
G|-----14----------12--14----------|----------12---11--12--11--|-----14----------12--14----------|
D|-14------------------------------|---------------------------|-14------------------------------|
A|---------------------------------|---------------------------|---------------------------------|
E|---------------------------------|---------------------------|---------------------------------|


E|------------------------|---------------------------------|---------------------------|
B|------------------------|---------12--------------12------|---------------------------|
G|----------12---14---12--|-----14----------12--14----------|----------12---11--12--11--|
D|------------------------|-14------------------------------|---------------------------|
A|------------------------|---------------------------------|---------------------------|
E|------------------------|---------------------------------|---------------------------|


E|---------------------------|-----17--19----------17--19------|---------------17-------|
B|---------------------------|-17--------------20--------------|----------20--------20--|
G|----------12---11--12--11--|---------------------------------|------------------------|
D|-14------------------------|---------------------------------|------------------------|
A|---------------------------|---------------------------------|------------------------|
E|---------------------------|---------------------------------|------------------------|


E|-----17--19----------17--19------|---------------------------|-----17--19----------17--19------|
B|-17--------------20--------------|----------20---19--20--19--|-17--------------20--------------|
G|---------------------------------|---------------------------|---------------------------------|
D|---------------------------------|---------------------------|---------------------------------|
A|---------------------------------|---------------------------|---------------------------------|
E|---------------------------------|---------------------------|---------------------------------|


E|---------------17-------|-----17--19----------17--19------|---------------------------|
B|----------20--------20--|-17--------------20--------------|----------20---19--20--19--|
G|------------------------|---------------------------------|---------------------------|
D|------------------------|---------------------------------|---------------------------|
A|------------------------|---------------------------------|---------------------------|
E|------------------------|---------------------------------|---------------------------|


E|---------------------------------|------------------------|---------------------------------|
B|---------12--------------12------|------------------------|---------12--------------12------|
G|-----14----------12--14----------|----------12---14---12--|-----14----------12--14----------|
D|-14------------------------------|------------------------|-14------------------------------|
A|---------------------------------|------------------------|---------------------------------|
E|---------------------------------|------------------------|---------------------------------|


E|---------------------------|---------------------------------|------------------------|
B|---------------------------|---------12--------------12------|------------------------|
G|----------12---11--12--11--|-----14----------12--14----------|----------12---14---12--|
D|---------------------------|-14------------------------------|------------------------|
A|---------------------------|---------------------------------|------------------------|
E|---------------------------|---------------------------------|------------------------|


E|---------------------------------|---------------------------|---------------------------------|
B|---------12--------------12------|---------------------------|---------12--------------12------|
G|-----14----------12--14----------|----------12---11--12--11--|-----14----------12--14----------|
D|-14------------------------------|---------------------------|-14------------------------------|
A|---------------------------------|---------------------------|---------------------------------|
E|---------------------------------|---------------------------|---------------------------------|


E|------------------------|---------------------------------|---------------------------|
B|------------------------|---------12--------------12------|---------------------------|
G|----------12---14---12--|-----14----------12--14----------|----------12---11--12--11--|
D|------------------------|-14------------------------------|---------------------------|
A|------------------------|---------------------------------|---------------------------|
E|------------------------|---------------------------------|---------------------------|


E|---------------------------------|------------------------|---------------------------------|
B|---------12--------------12------|------------------------|---------12--------------12------|
G|-----14----------12--14----------|----------12---14---12--|-----14----------12--14----------|
D|-14------------------------------|------------------------|-14------------------------------|
A|---------------------------------|------------------------|---------------------------------|
E|---------------------------------|------------------------|---------------------------------|


E|---------------------------|-----17--19----------17--19------|---------------17-------|
B|---------------------------|-17--------------20--------------|----------20--------20--|
G|----------12---11--12--11--|---------------------------------|------------------------|
D|---------------------------|---------------------------------|------------------------|
A|---------------------------|---------------------------------|------------------------|
E|---------------------------|---------------------------------|------------------------|


E|-----17--19----------17--19------|---------------------------|-----17--19----------17--19------|
B|-17--------------20--------------|----------20---19--20--19--|-17--------------20--------------|
G|---------------------------------|---------------------------|---------------------------------|
D|---------------------------------|---------------------------|---------------------------------|
A|---------------------------------|---------------------------|---------------------------------|
E|---------------------------------|---------------------------|---------------------------------|


E|---------------17-------|-----17--19----------17--19------|---------------------------|
B|----------20--------20--|-17--------------20--------------|----------20---19--20--19--|
G|------------------------|---------------------------------|---------------------------|
D|------------------------|---------------------------------|---------------------------|
A|------------------------|---------------------------------|---------------------------|
E|------------------------|---------------------------------|---------------------------|


E|---------------------------------|------------------------|---------------------------------|
B|---------12--------------12------|------------------------|---------12--------------12------|
G|-----14----------12--14----------|----------12---14---12--|-----14----------12--14----------|
D|-14------------------------------|------------------------|-14------------------------------|
A|---------------------------------|------------------------|---------------------------------|
E|---------------------------------|------------------------|---------------------------------|


E|---------------------------|---------------------------------|------------------------|
B|---------------------------|---------12--------------12------|------------------------|
G|----------12---11--12--11--|-----14----------12--14----------|----------12---14---12--|
D|---------------------------|-14------------------------------|------------------------|
A|---------------------------|---------------------------------|------------------------|
E|---------------------------|---------------------------------|------------------------|


E|---------------------------------|---------------------------|---------------------------|
B|---------12--------------12------|---------------------------|---------------------------|
G|-----14----------12--14----------|----------12---11--12--11--|----------12---11--12--11--|
D|-14------------------------------|---------------------------|-14------------------------|
A|---------------------------------|---------------------------|---------------------------|
E|---------------------------------|---------------------------|---------------------------|


E|-----17--19----------17--19------|---------------17-------|-----17--19----------17--19------|
B|-17--------------20--------------|----------20--------20--|-17--------------20--------------|
G|---------------------------------|------------------------|---------------------------------|
D|---------------------------------|------------------------|---------------------------------|
A|---------------------------------|------------------------|---------------------------------|
E|---------------------------------|------------------------|---------------------------------|


E|---------------------------|-----17--19----------17--19------|---------------17-------|
B|----------20---19--20--19--|-17--------------20--------------|----------20--------20--|
G|---------------------------|---------------------------------|------------------------|
D|---------------------------|---------------------------------|------------------------|
A|---------------------------|---------------------------------|------------------------|
E|---------------------------|---------------------------------|------------------------|


E|-----17--19----------17--19------|---------------------------|---------------------------------|
B|-17--------------20--------------|----------20---19--20--19--|---------12--------------12------|
G|---------------------------------|---------------------------|-----14----------12--14----------|
D|---------------------------------|---------------------------|-14------------------------------|
A|---------------------------------|---------------------------|---------------------------------|
E|---------------------------------|---------------------------|---------------------------------|


E|------------------------|---------------------------------|---------------------------|
B|------------------------|---------12--------------12------|---------------------------|
G|----------12---14---12--|-----14----------12--14----------|----------12---11--12--11--|
D|------------------------|-14------------------------------|---------------------------|
A|------------------------|---------------------------------|---------------------------|
E|------------------------|---------------------------------|---------------------------|


E|---------------------------------|------------------------|---------------------------------|
B|---------12--------------12------|------------------------|---------12--------------12------|
G|-----14----------12--14----------|----------12---14---12--|-----14----------12--14----------|
D|-14------------------------------|------------------------|-14------------------------------|
A|---------------------------------|------------------------|---------------------------------|
E|---------------------------------|------------------------|---------------------------------|


E|---------------------------|-----17--19----------17--19------|---------------17-------|
B|---------------------------|-17--------------20--------------|----------20--------20--|
G|----------12---11--12--11--|---------------------------------|------------------------|
D|---------------------------|---------------------------------|------------------------|
A|---------------------------|---------------------------------|------------------------|
E|---------------------------|---------------------------------|------------------------|


E|-----17--19----------17--19------|---------------------------|-----17--19----------17--19------|
B|-17--------------20--------------|----------20---19--20--19--|-17--------------20--------------|
G|---------------------------------|---------------------------|---------------------------------|
D|---------------------------------|---------------------------|---------------------------------|
A|---------------------------------|---------------------------|---------------------------------|
E|---------------------------------|---------------------------|---------------------------------|


E|---------------17-------|-----17--19----------17--19------|---------------------------|
B|----------20--------20--|-17--------------20--------------|----------20---19--20--19--|
G|------------------------|---------------------------------|---------------------------|
D|------------------------|---------------------------------|---------------------------|
A|------------------------|---------------------------------|---------------------------|
E|------------------------|---------------------------------|---------------------------|


E|----------------|--------|--------|--------|--------|--------|--------|--------|
B|-17-------------|--------|--------|--------|--------|--------|--------|--------|
G|----------------|--------|--------|--------|--------|--------|--------|--------|
D|----------------|--------|--------|--------|--------|--------|--------|--------|
A|----------------|--------|--------|--------|--------|--------|--------|--------|
E|----------------|--------|--------|--------|--------|--------|--------|--------|





Track 2: Electric Guitar w/Chorus Effect

E|---------------------------------|---------------------------------|---------------------------------|
B|---------------------------------|---------------------------------|---------------------------------|
G|---------------------------------|---------------------------------|---------------------------------|
D|---------------------------------|---------------------------------|---------------------------------|
A|---------------------------------|---------------------------------|-----2---2---2---2---2---2---2---|
E|-----8---8---8---8---8---8---8---|-8---8---8---8---8---8---8---8---|-8-------------------------------|


E|---------------------------------|---------------------------------|---------------------------------|
B|---------------------------------|---------------------------------|---------------------------------|
G|---------------------------------|---------------------------------|---------------------------------|
D|---------------------------------|---------------------------------|---------------------------------|
A|-2---2---2---2---2---2---2---2---|-2-------------------------------|---------------------------------|
E|---------------------------------|-----8---8---8---8---8---8---8---|-8---8---8---8---8---8---8---8---|


E|---------------------------------|---------------------------------|---------------------------------|
B|---------------------------------|---------------------------------|---------------------------------|
G|---------------------------------|---------------------------------|---------------------------------|
D|---------------------------------|---------------------------------|---------------------------------|
A|-----2---2---2---2---2---2---2---|-2---2---2---2---2---2---2---2---|-2-------------------------------|
E|-8-------------------------------|---------------------------------|-----8---8---8---8---8---8---8---|


E|---------------------------------|---------------------------------|---------------------------------|
B|---------------------------------|---------------------------------|---------------------------------|
G|---------------------------------|---------------------------------|---------------------------------|
D|---------------------------------|---------------------------------|---------------------------------|
A|---------------------------------|-----2---2---2---2---2---2---2---|-2---2---2---2---2---2---2---2---|
E|-8---8---8---8---8---8---8---8---|-8-------------------------------|---------------------------------|


E|---------------------------------|---------------------------------|---------------------------------|
B|---------------------------------|---------------------------------|---------------------------------|
G|---------------------------------|---------------------------------|---------------------------------|
D|---------------------------------|---------------------------------|---------------------------------|
A|-2-------------------------------|---------------------------------|-----2---2---2---2---2---2---2---|
E|-----8---8---8---8---8---8---8---|-8---8---8---8---8---8---8---8---|-8-------------------------------|


E|---------------------------------|---------------------------------|---------------------------------|
B|---------------------------------|---------------------------------|---------------------------------|
G|---------------------------------|---------------------------------|---------------------------------|
D|---------------------------------|---------------------------------|---------------------------------|
A|-2---2---2---2---2---2---2---2---|-2---3---3---3---3---3---3---3---|-3---3---3---3---3---3---3---3---|
E|---------------------------------|---------------------------------|---------------------------------|


E|---------------------------------|---------------------------------|---------------------------------|
B|---------------------------------|---------------------------------|---------------------------------|
G|---------------------------------|---------------------------------|---------------------------------|
D|---------------------------------|---------------------------------|---------------------------------|
A|-3---5---5---5---5---5---5---5---|-5---5---5---5---5---5---5---5---|-5---3---3---3---3---3---3---3---|
E|---------------------------------|---------------------------------|---------------------------------|


E|---------------------------------|---------------------------------|---------------------------------|
B|---------------------------------|---------------------------------|---------------------------------|
G|---------------------------------|---------------------------------|---------------------------------|
D|---------------------------------|---------------------------------|---------------------------------|
A|-3---3---3---3---3---3---3---3---|-3---5---5---5---5---5---5---5---|-5---5---5---5---5---5---5---5---|
E|---------------------------------|---------------------------------|---------------------------------|


E|---------------------------------|---------------------------------|---------------------------------|
B|---------------------------------|---------------------------------|---------------------------------|
G|---------------------------------|---------------------------------|---------------------------------|
D|---------------------------------|---------------------------------|---------------------------------|
A|-5-------------------------------|---------------------------------|-----2---2---2---2---2---2---2---|
E|-----8---8---8---8---8---8---8---|-8---8---8---8---8---8---8---8---|-8-------------------------------|


E|---------------------------------|---------------------------------|---------------------------------|
B|---------------------------------|---------------------------------|---------------------------------|
G|---------------------------------|---------------------------------|---------------------------------|
D|---------------------------------|---------------------------------|---------------------------------|
A|-2---2---2---2---2---2---2---2---|-2-------------------------------|---------------------------------|
E|---------------------------------|-----8---8---8---8---8---8---8---|-8---8---8---8---8---8---8---8---|


E|---------------------------------|---------------------------------|---------------------------------|
B|---------------------------------|---------------------------------|---------------------------------|
G|---------------------------------|---------------------------------|---------------------------------|
D|---------------------------------|---------------------------------|---------------------------------|
A|-----2---2---2---2---2---2---2---|-2---2---2---2---2---2---2---2---|-2-------------------------------|
E|-8-------------------------------|---------------------------------|-----8---8---8---8---8---8---8---|


E|---------------------------------|---------------------------------|---------------------------------|
B|---------------------------------|---------------------------------|---------------------------------|
G|---------------------------------|---------------------------------|---------------------------------|
D|---------------------------------|---------------------------------|---------------------------------|
A|---------------------------------|-----2---2---2---2---2---2---2---|-2---2---2---2---2---2---2---2---|
E|-8---8---8---8---8---8---8---8---|-8-------------------------------|---------------------------------|


E|---------------------------------|---------------------------------|---------------------------------|
B|---------------------------------|---------------------------------|---------------------------------|
G|---------------------------------|---------------------------------|---------------------------------|
D|---------------------------------|---------------------------------|---------------------------------|
A|-2---2---2---2---2---2---2---2---|-2---3---3---3---3---3---3---3---|-3---3---3---3---3---3---3---3---|
E|---------------------------------|---------------------------------|---------------------------------|


E|---------------------------------|---------------------------------|---------------------------------|
B|---------------------------------|---------------------------------|---------------------------------|
G|---------------------------------|---------------------------------|---------------------------------|
D|---------------------------------|---------------------------------|---------------------------------|
A|-3---5---5---5---5---5---5---5---|-5---5---5---5---5---5---5---5---|-5---3---3---3---3---3---3---3---|
E|---------------------------------|---------------------------------|---------------------------------|


E|---------------------------------|---------------------------------|---------------------------------|
B|---------------------------------|---------------------------------|---------------------------------|
G|---------------------------------|---------------------------------|---------------------------------|
D|---------------------------------|---------------------------------|---------------------------------|
A|-3---3---3---3---3---3---3---3---|-3---5---5---5---5---5---5---5---|-5---5---5---5---5---5---5---5---|
E|---------------------------------|---------------------------------|---------------------------------|


E|---------------------------------|---------------------------------|---------------------------------|
B|---------------------------------|---------------------------------|---------------------------------|
G|---------------------------------|---------------------------------|---------------------------------|
D|---------------------------------|---------------------------------|---------------------------------|
A|-5-------------------------------|---------------------------------|-----2---2---2---2---2---2---2---|
E|-----8---8---8---8---8---8---8---|-8---8---8---8---8---8---8---8---|-8-------------------------------|


E|---------------------------------|---------------------------------|---------------------------------|
B|---------------------------------|---------------------------------|---------------------------------|
G|---------------------------------|---------------------------------|---------------------------------|
D|---------------------------------|---------------------------------|---------------------------------|
A|-2---2---2---2---2---2---2---2---|-2-------------------------------|---------------------------------|
E|---------------------------------|-----8---8---8---8---8---8---8---|-8---8---8---8---8---8---8---8---|


E|---------------------------------|---------------------------------|---------------------------------|
B|---------------------------------|---------------------------------|---------------------------------|
G|---------------------------------|---------------------------------|---------------------------------|
D|---------------------------------|---------------------------------|---------------------------------|
A|-----2---2---2---2---2---2---2---|-2---2---2---2---2---2---2---2---|-2-------------------------------|
E|-8-------------------------------|---------------------------------|-----8---8---8---8---8---8---8---|


E|---------------------------------|---------------------------------|---------------------------------|
B|---------------------------------|---------------------------------|---------------------------------|
G|---------------------------------|---------------------------------|---------------------------------|
D|---------------------------------|---------------------------------|---------------------------------|
A|---------------------------------|-----2---2---2---2---2---2---2---|-2---2---2---2---2---2---2---2---|
E|-8---8---8---8---8---8---8---8---|-8-------------------------------|---------------------------------|


E|---------------------------------|---------------------------------|---------------------------------|
B|---------------------------------|---------------------------------|---------------------------------|
G|---------------------------------|---------------------------------|---------------------------------|
D|---------------------------------|---------------------------------|---------------------------------|
A|-2-------------------------------|---------------------------------|-----2---2---2---2---2---2---2---|
E|-----8---8---8---8---8---8---8---|-8---8---8---8---8---8---8---8---|-8-------------------------------|


E|---------------------------------|---------------------------------|---------------------------------|
B|---------------------------------|---------------------------------|---------------------------------|
G|---------------------------------|---------------------------------|---------------------------------|
D|---------------------------------|---------------------------------|---------------------------------|
A|-2---2---2---2---2---2---2---2---|-2---3---3---3---3---3---3---3---|-3---3---3---3---3---3---3---3---|
E|---------------------------------|---------------------------------|---------------------------------|


E|---------------------------------|---------------------------------|---------------------------------|
B|---------------------------------|---------------------------------|---------------------------------|
G|---------------------------------|---------------------------------|---------------------------------|
D|---------------------------------|---------------------------------|---------------------------------|
A|-3---5---5---5---5---5---5---5---|-5---5---5---5---5---5---5---5---|-5---3---3---3---3---3---3---3---|
E|---------------------------------|---------------------------------|---------------------------------|


E|---------------------------------|---------------------------------|---------------------------------|
B|---------------------------------|---------------------------------|---------------------------------|
G|---------------------------------|---------------------------------|---------------------------------|
D|---------------------------------|---------------------------------|---------------------------------|
A|-3---3---3---3---3---3---3---3---|-3---5---5---5---5---5---5---5---|-5---5---5---5---5---5---5---5---|
E|---------------------------------|---------------------------------|---------------------------------|


E|---------------------------------|---------------------------------|---------------------------------|
B|---------------------------------|---------------------------------|---------------------------------|
G|---------------------------------|---------------------------------|---------------------------------|
D|---------------------------------|---------------------------------|---------------------------------|
A|-5-------------------------------|---------------------------------|-----2---2---2---2---2---2---2---|
E|-----8---8---8---8---8---8---8---|-8---8---8---8---8---8---8---8---|-8-------------------------------|


E|---------------------------------|---------------------------------|---------------------------------|
B|---------------------------------|---------------------------------|---------------------------------|
G|---------------------------------|---------------------------------|---------------------------------|
D|---------------------------------|---------------------------------|---------------------------------|
A|-2---2---2---2---2---2---2---2---|-2-------------------------------|---------------------------------|
E|---------------------------------|-----8---8---8---8---8---8---8---|-8---8---8---8---8---8---8---8---|


E|---------------------------------|---------------------------------|---------------------------------|
B|---------------------------------|---------------------------------|---------------------------------|
G|---------------------------------|---------------------------------|---------------------------------|
D|---------------------------------|---------------------------------|---------------------------------|
A|-----2---2---2---2---2---2---2---|-2---2---2---2---2---2---2---2---|-2---2---2---2---2---2---2---2---|
E|-8-------------------------------|---------------------------------|---------------------------------|


E|---------------------------------|---------------------------------|---------------------------------|
B|---------------------------------|---------------------------------|---------------------------------|
G|---------------------------------|---------------------------------|---------------------------------|
D|---------------------------------|---------------------------------|---------------------------------|
A|-2---3---3---3---3---3---3---3---|-3---3---3---3---3---3---3---3---|-3---5---5---5---5---5---5---5---|
E|---------------------------------|---------------------------------|---------------------------------|


E|---------------------------------|---------------------------------|---------------------------------|
B|---------------------------------|---------------------------------|---------------------------------|
G|---------------------------------|---------------------------------|---------------------------------|
D|---------------------------------|---------------------------------|---------------------------------|
A|-5---5---5---5---5---5---5---5---|-5---3---3---3---3---3---3---3---|-3---3---3---3---3---3---3---3---|
E|---------------------------------|---------------------------------|---------------------------------|


E|---------------------------------|---------------------------------|---------------------------------|
B|---------------------------------|---------------------------------|---------------------------------|
G|---------------------------------|---------------------------------|---------------------------------|
D|---------------------------------|---------------------------------|---------------------------------|
A|-3---5---5---5---5---5---5---5---|-5---5---5---5---5---5---5---5---|-5-------------------------------|
E|---------------------------------|---------------------------------|-----8---8---8---8---8---8---8---|


E|---------------------------------|---------------------------------|---------------------------------|
B|---------------------------------|---------------------------------|---------------------------------|
G|---------------------------------|---------------------------------|---------------------------------|
D|---------------------------------|---------------------------------|---------------------------------|
A|---------------------------------|-----2---2---2---2---2---2---2---|-2---2---2---2---2---2---2---2---|
E|-8---8---8---8---8---8---8---8---|-8-------------------------------|---------------------------------|


E|---------------------------------|---------------------------------|---------------------------------|
B|---------------------------------|---------------------------------|---------------------------------|
G|---------------------------------|---------------------------------|---------------------------------|
D|---------------------------------|---------------------------------|---------------------------------|
A|-2-------------------------------|---------------------------------|-----2---2---2---2---2---2---2---|
E|-----8---8---8---8---8---8---8---|-8---8---8---8---8---8---8---8---|-8-------------------------------|


E|---------------------------------|---------------------------------|---------------------------------|
B|---------------------------------|---------------------------------|---------------------------------|
G|---------------------------------|---------------------------------|---------------------------------|
D|---------------------------------|---------------------------------|---------------------------------|
A|-2---2---2---2---2---2---2---2---|-2---3---3---3---3---3---3---3---|-3---3---3---3---3---3---3---3---|
E|---------------------------------|---------------------------------|---------------------------------|


E|---------------------------------|---------------------------------|---------------------------------|
B|---------------------------------|---------------------------------|---------------------------------|
G|---------------------------------|---------------------------------|---------------------------------|
D|---------------------------------|---------------------------------|---------------------------------|
A|-3---5---5---5---5---5---5---5---|-5---5---5---5---5---5---5---5---|-5---3---3---3---3---3---3---3---|
E|---------------------------------|---------------------------------|---------------------------------|


E|---------------------------------|---------------------------------|---------------------------------|
B|---------------------------------|---------------------------------|---------------------------------|
G|---------------------------------|---------------------------------|---------------------------------|
D|---------------------------------|---------------------------------|---------------------------------|
A|-3---3---3---3---3---3---3---3---|-3---5---5---5---5---5---5---5---|-5---5---5---5---5---5---5---5---|
E|---------------------------------|---------------------------------|---------------------------------|


E|----------------|--------|--------|--------|--------|--------|--------|--------|
B|----------------|--------|--------|--------|--------|--------|--------|--------|
G|----------------|--------|--------|--------|--------|--------|--------|--------|
D|----------------|--------|--------|--------|--------|--------|--------|--------|
A|-5--------------|--------|--------|--------|--------|--------|--------|--------|
E|----------------|--------|--------|--------|--------|--------|--------|--------|





Track 3: Synth Pad

E|------------|------------|------------|-----19----17----|------------|------------|
B|------------|------------|------------|-----------------|------------|------------|
G|------------|------------|------------|-----16----14----|------------|------------|
D|------------|------------|------------|-----------------|------------|------------|
A|------------|------------|------------|-----------------|------------|------------|
E|------------|------------|------------|-----------------|------------|------------|


E|------------|-----19----17----|------------|------------|------------|-----19----17----|
B|------------|-----------------|------------|------------|------------|-----------------|
G|------------|-----16----14----|------------|------------|------------|-----16----14----|
D|------------|-----------------|------------|------------|------------|-----------------|
A|------------|-----------------|------------|------------|------------|-----------------|
E|------------|-----------------|------------|------------|------------|-----------------|


E|------------|------------|------------|-----19----17----|--------|--------|--------|
B|------------|------------|------------|-----------------|--------|--------|--------|
G|------------|------------|------------|-----16----14----|--------|--------|--------|
D|------------|------------|------------|-----------------|--------|--------|--------|
A|------------|------------|------------|-----------------|--------|--------|--------|
E|------------|------------|------------|-----------------|--------|--------|--------|


E|--------|--------|--------|--------|--------|------------|------------|------------|
B|--------|--------|--------|--------|--------|------------|------------|------------|
G|--------|--------|--------|--------|--------|------------|------------|------------|
D|--------|--------|--------|--------|--------|------------|------------|------------|
A|--------|--------|--------|--------|--------|------------|------------|------------|
E|--------|--------|--------|--------|--------|------------|------------|------------|


E|-----19----17----|------------|------------|------------|-----19----17----|------------|
B|-----------------|------------|------------|------------|-----------------|------------|
G|-----16----14----|------------|------------|------------|-----16----14----|------------|
D|-----------------|------------|------------|------------|-----------------|------------|
A|-----------------|------------|------------|------------|-----------------|------------|
E|-----------------|------------|------------|------------|-----------------|------------|


E|------------|------------|-----19----17----|-----19----17----|--------|--------|
B|------------|------------|-----------------|-----------------|--------|--------|
G|------------|------------|-----16----14----|-----16----14----|--------|--------|
D|------------|------------|-----------------|-----------------|--------|--------|
A|------------|------------|-----------------|-----------------|--------|--------|
E|------------|------------|-----------------|-----------------|--------|--------|


E|--------|--------|--------|--------|--------|--------|--------|--------|--------|
B|--------|--------|--------|--------|--------|--------|--------|--------|--------|
G|--------|--------|--------|--------|--------|--------|--------|--------|--------|
D|--------|--------|--------|--------|--------|--------|--------|--------|--------|
A|--------|--------|--------|--------|--------|--------|--------|--------|--------|
E|--------|--------|--------|--------|--------|--------|--------|--------|--------|


E|--------|--------|--------|--------|--------|------------|------------|------------|
B|--------|--------|--------|--------|--------|------------|------------|------------|
G|--------|--------|--------|--------|--------|------------|------------|------------|
D|--------|--------|--------|--------|--------|------------|------------|------------|
A|--------|--------|--------|--------|--------|------------|------------|------------|
E|--------|--------|--------|--------|--------|------------|------------|------------|


E|-----19----17----|------------|------------|------------|-----19----17----|--------|
B|-----------------|------------|------------|------------|-----------------|--------|
G|-----16----14----|------------|------------|------------|-----16----14----|--------|
D|-----------------|------------|------------|------------|-----------------|--------|
A|-----------------|------------|------------|------------|-----------------|--------|
E|-----------------|------------|------------|------------|-----------------|--------|


E|--------|--------|--------|--------|--------|--------|--------|------------|------------|
B|--------|--------|--------|--------|--------|--------|--------|------------|------------|
G|--------|--------|--------|--------|--------|--------|--------|------------|------------|
D|--------|--------|--------|--------|--------|--------|--------|------------|------------|
A|--------|--------|--------|--------|--------|--------|--------|------------|------------|
E|--------|--------|--------|--------|--------|--------|--------|------------|------------|


E|------------|-----19----17----|------------|------------|------------|-----19----17----|
B|------------|-----------------|------------|------------|------------|-----------------|
G|------------|-----16----14----|------------|------------|------------|-----16----14----|
D|------------|-----------------|------------|------------|------------|-----------------|
A|------------|-----------------|------------|------------|------------|-----------------|
E|------------|-----------------|------------|------------|------------|-----------------|


E|-----19----17----|--------|--------|--------|--------|--------|--------|--------|
B|-----------------|--------|--------|--------|--------|--------|--------|--------|
G|-----16----14----|--------|--------|--------|--------|--------|--------|--------|
D|-----------------|--------|--------|--------|--------|--------|--------|--------|
A|-----------------|--------|--------|--------|--------|--------|--------|--------|
E|-----------------|--------|--------|--------|--------|--------|--------|--------|


E|--------|------------|------------|------------|-----19----17----|------------|------------|
B|--------|------------|------------|------------|-----------------|------------|------------|
G|--------|------------|------------|------------|-----16----14----|------------|------------|
D|--------|------------|------------|------------|-----------------|------------|------------|
A|--------|------------|------------|------------|-----------------|------------|------------|
E|--------|------------|------------|------------|-----------------|------------|------------|


E|------------|-----19----17----|--------|--------|--------|--------|--------|--------|
B|------------|-----------------|--------|--------|--------|--------|--------|--------|
G|------------|-----16----14----|--------|--------|--------|--------|--------|--------|
D|------------|-----------------|--------|--------|--------|--------|--------|--------|
A|------------|-----------------|--------|--------|--------|--------|--------|--------|
E|------------|-----------------|--------|--------|--------|--------|--------|--------|


E|--------|--------|--------|--------|--------|--------|--------|--------|--------|
B|--------|--------|--------|--------|--------|--------|--------|--------|--------|
G|--------|--------|--------|--------|--------|--------|--------|--------|--------|
D|--------|--------|--------|--------|--------|--------|--------|--------|--------|
A|--------|--------|--------|--------|--------|--------|--------|--------|--------|
E|--------|--------|--------|--------|--------|--------|--------|--------|--------|


E|--------|
B|--------|
G|--------|
D|--------|
A|--------|
E|--------|





Track 4: Electric Bass

G|---------------------------|-----------------------|------------------------|----------------|
D|---------------------------|-----------------------|------------------------|----------------|
A|---------------------------|-----------------------|------------------------|----------------|
E|-0---8---8---8----8--------|---------------0-------|-0---7---7---7----7-----|----------------|


G|---------------------------|----------------|------------------------|----------------|
D|---------------------------|----------------|------------------------|----------------|
A|---------------------------|----------------|------------------------|----------------|
E|-0---8---8---8----8--------|----------------|-0---7---7---7----7-----|----------------|


G|---------------------------|----------------|------------------------|----------------|
D|---------------------------|----------------|------------------------|----------------|
A|---------------------------|----------------|------------------------|----------------|
E|-0---8---8---8----8--------|----------------|-0---7---7---7----7-----|----------------|


G|---------------------------|----------------|------------------------|----------------|
D|---------------------------|----------------|------------------------|----------------|
A|---------------------------|----------------|------------------------|------------14--|
E|-0---8---8---8----8--------|----------------|-0---7---7---7----7-----|----------------|


G|---------------------------------|---------------------------------|---------------------------------|
D|---------------------------------|---------------------------------|---------------------------------|
A|---------------------------------|---------------------------------|---------------------------------|
E|-----8---8---8---8---8---8---8---|-8---8---8---8---8---8---8---8---|-8---10--10--10--10--10--10--10--|


G|---------------------------------|---------------------------------|---------------------------------|
D|-12----------------------12------|-12------------------------------|---------------------------------|
A|---------------------------------|---------------------------------|---------------------------------|
E|-----10--10--10--10--10------10--|-----8---8---8---8---8---8---8---|-8---8---8---8---8---8---8---8---|


G|---------------------------------|---------------------------------|---------------------------|
D|---------------------------------|-12------------------------------|---------------------------|
A|---------------------------------|---------------------------------|---------------------------|
E|-8---10--10--10--10--10--10--10--|-----10--10--10--10--10--10--10--|-10--8---8---8----8--------|


G|----------------|------------------------|----------------|---------------------------|
D|----------------|------------------------|----------------|---------------------------|
A|----------------|------------------------|----------------|---------------------------|
E|------------2---|-----7---7---7----7-----|----------------|-0---8---8---8----8--------|


G|----------------|------------------------|----------------|---------------------------|
D|----------------|------------------------|----------------|---------------------------|
A|----------------|------------------------|----------------|---------------------------|
E|----------------|-0---7---7---7----7-----|----------------|-0---8---8---8----8--------|


G|----------------|------------------------|----------------|----------------|---------------------------------|
D|----------------|------------------------|----------------|----------------|---------------------------------|
A|----------------|------------------------|----------------|------------14--|---------------------------------|
E|----------------|-0---7---7---7----7-----|----------------|-0--------------|-----8---8---8---8---8---8---8---|


G|---------------------------------|---------------------------------|---------------------------------|
D|---------------------------------|---------------------------------|-12----------------------12------|
A|---------------------------------|---------------------------------|---------------------------------|
E|-8---8---8---8---8---8---8---8---|-8---10--10--10--10--10--10--10--|-----10--10--10--10--10------10--|


G|---------------------------------|---------------------------------|---------------------------------|
D|-12------------------------------|---------------------------------|---------------------------------|
A|---------------------------------|---------------------------------|---------------------------------|
E|-----8---8---8---8---8---8---8---|-8---8---8---8---8---8---8---8---|-8---10--10--10--10--10--10--10--|


G|---------------------------------|---------------------------|----------------|------------------------|
D|-12------------------------------|---------------------------|----------------|------------------------|
A|---------------------------------|---------------------------|----------------|------------------------|
E|-----10--10--10--10--10--10--10--|-10--8---8---8----8--------|------------2---|-----7---7---7----7-----|


G|----------------|---------------------------|----------------|------------------------|
D|----------------|---------------------------|----------------|------------------------|
A|----------------|---------------------------|----------------|------------------------|
E|----------------|-0---8---8---8----8--------|----------------|-0---7---7---7----7-----|


G|----------------|---------------------------|----------------|------------------------|
D|----------------|---------------------------|----------------|------------------------|
A|----------------|---------------------------|----------------|------------------------|
E|----------------|-0---8---8---8----8--------|----------------|-0---7---7---7----7-----|


G|----------------|---------------------------|----------------|------------------------|
D|----------------|---------------------------|----------------|------------------------|
A|----------------|---------------------------|----------------|------------------------|
E|----------------|-0---8---8---8----8--------|----------------|-0---7---7---7----7-----|


G|----------------|---------------------------------|---------------------------------|
D|----------------|---------------------------------|---------------------------------|
A|------------14--|---------------------------------|---------------------------------|
E|----------------|-----8---8---8---8---8---8---8---|-8---8---8---8---8---8---8---8---|


G|---------------------------------|---------------------------------|---------------------------------|
D|---------------------------------|-12----------------------12------|-12------------------------------|
A|---------------------------------|---------------------------------|---------------------------------|
E|-8---10--10--10--10--10--10--10--|-----10--10--10--10--10------10--|-----8---8---8---8---8---8---8---|


G|---------------------------------|---------------------------------|---------------------------------|
D|---------------------------------|---------------------------------|-12------------------------------|
A|---------------------------------|---------------------------------|---------------------------------|
E|-8---8---8---8---8---8---8---8---|-8---10--10--10--10--10--10--10--|-----10--10--10--10--10--10--10--|


G|---------------------------|----------------|------------------------|----------------|
D|---------------------------|----------------|------------------------|----------------|
A|---------------------------|----------------|------------------------|----------------|
E|-10--8---8---8----8--------|----------------|-0---7---7---7----7-----|----------------|


G|---------------------------|----------------|---------------------------|----------------|
D|---------------------------|----------------|---------------------------|----------------|
A|---------------------------|----------------|---------------------------|----------------|
E|-0---8---8---8----8--------|----------------|-0---7---7---7----7--------|----------------|


G|---------------------------|----------------|---------------------------|----------------|
D|---------------------------|----------------|---------------------------|----------------|
A|---------------------------|----------------|---------------------------|----------------|
E|-0---8---8---8----8--------|------------2---|-----7---7---7----7--------|----------------|


G|---------------------------|----------------|---------------------------|----------------|
D|---------------------------|----------------|---------------------------|------------9---|
A|---------------------------|----------------|---------------------------|----------------|
E|-0---8---8---8----8--------|------------2---|-----7---7---7----7--------|----------------|


G|---------------------------------|---------------------------------|---------------------------------|
D|---------------------------------|---------------------------------|---------------------------------|
A|---------------------------------|---------------------------------|---------------------------------|
E|-----8---8---8---8---8---8---8---|-8---8---8---8---8---8---8---8---|-8---10--10--10--10--10--10--10--|


G|---------------------------------|---------------------------------|---------------------------------|
D|-12----------------------12------|-12------------------------------|---------------------------------|
A|---------------------------------|---------------------------------|---------------------------------|
E|-----10--10--10--10--10------10--|-----8---8---8---8---8---8---8---|-8---8---8---8---8---8---8---8---|


G|---------------------------------|---------------------------------|---------------------------|
D|---------------------------------|-12------------------------------|---------------------------|
A|---------------------------------|---------------------------------|---------------------------|
E|-8---10--10--10--10--10--10--10--|-----10--10--10--10--10--10--10--|-10--8---8---8----8--------|


G|----------------|------------------------|----------------|---------------------------|
D|----------------|------------------------|----------------|---------------------------|
A|----------------|------------------------|----------------|---------------------------|
E|----------------|-0---7---7---7----7-----|----------------|-0---8---8---8----8--------|


G|----------------|------------------------|----------------|---------------------------------|
D|----------------|------------------------|----------------|---------------------------------|
A|----------------|------------------------|------------14--|---------------------------------|
E|------------8---|-----7---7---7----7-----|----------------|-----8---8---8---8---8---8---8---|


G|---------------------------------|---------------------------------|---------------------------------|
D|---------------------------------|---------------------------------|-12----------------------12------|
A|---------------------------------|---------------------------------|---------------------------------|
E|-8---8---8---8---8---8---8---8---|-8---10--10--10--10--10--10--10--|-----10--10--10--10--10------10--|


G|---------------------------------|---------------------------------|---------------------------------|
D|-12------------------------------|---------------------------------|---------------------------------|
A|---------------------------------|---------------------------------|---------------------------------|
E|-----8---8---8---8---8---8---8---|-8---8---8---8---8---8---8---8---|-8---10--10--10--10--10--10--10--|


G|---------------------------------|----------------|
D|-12----------------------12------|-12-------------|
A|---------------------------------|----------------|
E|-----10--10--10--10--10------10--|----------------|





Track 5: Synth Pad

E|--------|--------|--------|--------|--------|--------|--------|--------|--------|
B|--------|--------|--------|--------|--------|--------|--------|--------|--------|
G|--------|--------|--------|--------|--------|--------|--------|--------|--------|
D|--------|--------|--------|--------|--------|--------|--------|--------|--------|
A|--------|--------|--------|--------|--------|--------|--------|--------|--------|
E|--------|--------|--------|--------|--------|--------|--------|--------|--------|


E|--------|--------|--------|--------|--------|--------|--------|------------|-----7-----10----|
B|--------|--------|--------|--------|--------|--------|--------|-----8------|-----8-----8-----|
G|--------|--------|--------|--------|--------|--------|--------|-----9------|-----9-----9-----|
D|--------|--------|--------|--------|--------|--------|--------|-----10-----|-----10----10----|
A|--------|--------|--------|--------|--------|--------|--------|------------|-----------------|
E|--------|--------|--------|--------|--------|--------|--------|------------|-----------------|


E|-----10-----|-----8-----7-----|------------|-----7-----10----|-----10-----|-----8-----7-----|
B|-----10-----|-----10----10----|-----8------|-----8-----8-----|-----10-----|-----10----10----|
G|-----11-----|-----11----11----|-----9------|-----9-----9-----|-----11-----|-----11----11----|
D|-----12-----|-----12----12----|-----10-----|-----10----10----|-----12-----|-----12----12----|
A|------------|-----------------|------------|-----------------|------------|-----------------|
E|------------|-----------------|------------|-----------------|------------|-----------------|


E|------------|------------|------------|------------|--------|--------|--------|--------|
B|-----8------|------------|------------|------------|--------|--------|--------|--------|
G|-----9------|------------|------------|------------|--------|--------|--------|--------|
D|-----10-----|------------|------------|------------|--------|--------|--------|--------|
A|------------|------------|------------|------------|--------|--------|--------|--------|
E|------------|------------|------------|------------|--------|--------|--------|--------|


E|--------|--------|--------|--------|--------|------------|-----7-----10----|-----10-----|
B|--------|--------|--------|--------|--------|-----8------|-----8-----8-----|-----10-----|
G|--------|--------|--------|--------|--------|-----9------|-----9-----9-----|-----11-----|
D|--------|--------|--------|--------|--------|-----10-----|-----10----10----|-----12-----|
A|--------|--------|--------|--------|--------|------------|-----------------|------------|
E|--------|--------|--------|--------|--------|------------|-----------------|------------|


E|-----8-----7-----|------------|-----7-----10----|-----10-----|-----8-----7-----|
B|-----10----10----|-----8------|-----8-----8-----|-----10-----|-----10----10----|
G|-----11----11----|-----9------|-----9-----9-----|-----11-----|-----11----11----|
D|-----12----12----|-----10-----|-----10----10----|-----12-----|-----12----12----|
A|-----------------|------------|-----------------|------------|-----------------|
E|-----------------|------------|-----------------|------------|-----------------|


E|------------|------------|------------|------------|------------|------------|------------|
B|-----8------|-----8------|-----10-----|-----10-----|-----8------|-----8------|-----10-----|
G|-----9------|-----9------|-----11-----|-----11-----|-----9------|-----9------|-----11-----|
D|-----10-----|-----10-----|-----9------|-----9------|-----10-----|-----10-----|-----9------|
A|------------|------------|------------|------------|------------|------------|------------|
E|------------|------------|------------|------------|------------|------------|------------|


E|------------|------------|------------|------------|------------|--------|--------|
B|-----10-----|-----8------|------------|------------|------------|--------|--------|
G|-----11-----|-----9------|------------|------------|------------|--------|--------|
D|-----9------|-----10-----|------------|------------|------------|--------|--------|
A|------------|------------|------------|------------|------------|--------|--------|
E|------------|------------|------------|------------|------------|--------|--------|


E|--------|--------|------------|-----7-----10----|-----10-----|-----8-----7-----|
B|--------|--------|-----8------|-----8-----8-----|-----10-----|-----10----10----|
G|--------|--------|-----9------|-----9-----9-----|-----11-----|-----11----11----|
D|--------|--------|-----10-----|-----10----10----|-----12-----|-----12----12----|
A|--------|--------|------------|-----------------|------------|-----------------|
E|--------|--------|------------|-----------------|------------|-----------------|


E|------------|-----7-----10----|-----10-----|-----8-----7-----|----------------|------------|
B|-----8------|-----8-----8-----|-----10-----|-----10----10----|-----8----------|------------|
G|-----9------|-----9-----9-----|-----11-----|-----11----11----|-----9----------|------------|
D|-----10-----|-----10----10----|-----12-----|-----12----12----|-----10---------|------------|
A|------------|-----------------|------------|-----------------|----------------|------------|
E|------------|-----------------|------------|-----------------|----------------|------------|


E|------------|------------|--------|--------|--------|--------|--------|--------|
B|------------|------------|--------|--------|--------|--------|--------|--------|
G|------------|------------|--------|--------|--------|--------|--------|--------|
D|------------|------------|--------|--------|--------|--------|--------|--------|
A|------------|------------|--------|--------|--------|--------|--------|--------|
E|------------|------------|--------|--------|--------|--------|--------|--------|


E|--------|--------|--------|--------|--------|--------|------------|-----7-----10----|
B|--------|--------|--------|--------|--------|--------|-----8------|-----8-----8-----|
G|--------|--------|--------|--------|--------|--------|-----9------|-----9-----9-----|
D|--------|--------|--------|--------|--------|--------|-----10-----|-----10----10----|
A|--------|--------|--------|--------|--------|--------|------------|-----------------|
E|--------|--------|--------|--------|--------|--------|------------|-----------------|


E|-----10-----|-----8-----7-----|------------|-----7-----10----|-----10-----|-----8-----7-----|
B|-----10-----|-----10----10----|-----8------|-----8-----8-----|-----10-----|-----10----10----|
G|-----11-----|-----11----11----|-----9------|-----9-----9-----|-----11-----|-----11----11----|
D|-----12-----|-----12----12----|-----10-----|-----10----10----|-----12-----|-----12----12----|
A|------------|-----------------|------------|-----------------|------------|-----------------|
E|------------|-----------------|------------|-----------------|------------|-----------------|


E|--------|--------|--------|--------|--------|--------|--------|--------|------------|
B|--------|--------|--------|--------|--------|--------|--------|--------|-----8------|
G|--------|--------|--------|--------|--------|--------|--------|--------|-----9------|
D|--------|--------|--------|--------|--------|--------|--------|--------|-----10-----|
A|--------|--------|--------|--------|--------|--------|--------|--------|------------|
E|--------|--------|--------|--------|--------|--------|--------|--------|------------|


E|-----7-----10----|-----10-----|-----8-----7-----|------------|-----7-----10----|
B|-----8-----8-----|-----10-----|-----10----10----|-----8------|-----8-----8-----|
G|-----9-----9-----|-----11-----|-----11----11----|-----9------|-----9-----9-----|
D|-----10----10----|-----12-----|-----12----12----|-----10-----|-----10----10----|
A|-----------------|------------|-----------------|------------|-----------------|
E|-----------------|------------|-----------------|------------|-----------------|


E|-----10-----|-----8-----7-----|--------|
B|-----10-----|-----10----10----|--------|
G|-----11-----|-----11----11----|--------|
D|-----12-----|-----12----12----|--------|
A|------------|-----------------|--------|
E|------------|-----------------|--------|





Track 6: Synth Lead

E|--------|--------|--------|--------|--------|--------|--------|--------|--------|
B|--------|--------|--------|--------|--------|--------|--------|--------|--------|
G|--------|--------|--------|--------|--------|--------|--------|--------|--------|
D|--------|--------|--------|--------|--------|--------|--------|--------|--------|
A|--------|--------|--------|--------|--------|--------|--------|--------|--------|
E|--------|--------|--------|--------|--------|--------|--------|--------|--------|


E|--------|--------|--------|--------|--------|--------|--------|--------|--------|
B|--------|--------|--------|--------|--------|--------|--------|--------|--------|
G|--------|--------|--------|--------|--------|--------|--------|--------|--------|
D|--------|--------|--------|--------|--------|--------|--------|--------|--------|
A|--------|--------|--------|--------|--------|--------|--------|--------|--------|
E|--------|--------|--------|--------|--------|--------|--------|--------|--------|


E|--------|--------|--------|--------|--------|--------|--------|--------|--------|
B|--------|--------|--------|--------|--------|--------|--------|--------|--------|
G|--------|--------|--------|--------|--------|--------|--------|--------|--------|
D|--------|--------|--------|--------|--------|--------|--------|--------|--------|
A|--------|--------|--------|--------|--------|--------|--------|--------|--------|
E|--------|--------|--------|--------|--------|--------|--------|--------|--------|


E|--------|--------|--------|--------|--------|--------|--------|--------|--------|
B|--------|--------|--------|--------|--------|--------|--------|--------|--------|
G|--------|--------|--------|--------|--------|--------|--------|--------|--------|
D|--------|--------|--------|--------|--------|--------|--------|--------|--------|
A|--------|--------|--------|--------|--------|--------|--------|--------|--------|
E|--------|--------|--------|--------|--------|--------|--------|--------|--------|


E|--------|--------|--------|--------|--------|--------|--------|--------|--------|
B|--------|--------|--------|--------|--------|--------|--------|--------|--------|
G|--------|--------|--------|--------|--------|--------|--------|--------|--------|
D|--------|--------|--------|--------|--------|--------|--------|--------|--------|
A|--------|--------|--------|--------|--------|--------|--------|--------|--------|
E|--------|--------|--------|--------|--------|--------|--------|--------|--------|


E|--------|--------|--------|--------|--------|--------|--------|--------|-----19-----|
B|--------|--------|--------|--------|--------|--------|--------|--------|-----20-----|
G|--------|--------|--------|--------|--------|--------|--------|--------|-----16-----|
D|--------|--------|--------|--------|--------|--------|--------|--------|-----17-----|
A|--------|--------|--------|--------|--------|--------|--------|--------|------------|
E|--------|--------|--------|--------|--------|--------|--------|--------|------------|


E|-----17----15----|-----14----14--12--14--|-15--15----17----|-----19-----|-----17----15----|
B|-----19----17----|-----16----16--14--16--|-17--17----19----|-----20-----|-----19----17----|
G|-----14----12----|-----11----11--9---11--|-12--12----14----|-----16-----|-----14----12----|
D|-----16----14----|-----13----13--11--13--|-14--14----16----|-----17-----|-----16----14----|
A|-----------------|-----------------------|-----------------|------------|-----------------|
E|-----------------|-----------------------|-----------------|------------|-----------------|


E|-----14----14--12--14--|-15--15----17----|-----17-----|-----17-----|------------|
B|-----16----16--14--16--|-17--17----19----|-----19-----|-----19-----|------------|
G|-----11----11--9---11--|-12--12----14----|-----14-----|-----14-----|------------|
D|-----13----13--11--13--|-14--14----16----|-----16-----|-----16-----|------------|
A|-----------------------|-----------------|------------|------------|------------|
E|-----------------------|-----------------|------------|------------|------------|


E|------------|-----17-----|-----17-----|------------|------------|--------|--------|
B|------------|-----19-----|-----19-----|------------|------------|--------|--------|
G|------------|-----14-----|-----14-----|------------|------------|--------|--------|
D|------------|-----16-----|-----16-----|------------|------------|--------|--------|
A|------------|------------|------------|------------|------------|--------|--------|
E|------------|------------|------------|------------|------------|--------|--------|


E|--------|--------|--------|--------|--------|--------|--------|--------|--------|
B|--------|--------|--------|--------|--------|--------|--------|--------|--------|
G|--------|--------|--------|--------|--------|--------|--------|--------|--------|
D|--------|--------|--------|--------|--------|--------|--------|--------|--------|
A|--------|--------|--------|--------|--------|--------|--------|--------|--------|
E|--------|--------|--------|--------|--------|--------|--------|--------|--------|


E|--------|--------|--------|--------|--------|--------|--------|--------|--------|
B|--------|--------|--------|--------|--------|--------|--------|--------|--------|
G|--------|--------|--------|--------|--------|--------|--------|--------|--------|
D|--------|--------|--------|--------|--------|--------|--------|--------|--------|
A|--------|--------|--------|--------|--------|--------|--------|--------|--------|
E|--------|--------|--------|--------|--------|--------|--------|--------|--------|


E|--------|--------|--------|--------|------------|-----------------|-----------------------|
B|--------|--------|--------|--------|------------|-----------------|-----------------------|
G|--------|--------|--------|--------|-----16-----|-----14----12----|-----11----11--9---11--|
D|--------|--------|--------|--------|-----17-----|-----16----14----|-----13----13--11--13--|
A|--------|--------|--------|--------|------------|-----------------|-----------------------|
E|--------|--------|--------|--------|------------|-----------------|-----------------------|


E|-----------------|------------|-----------------|-----------------------|-----------------|
B|-----------------|------------|-----------------|-----------------------|-----------------|
G|-12--12----14----|-----16-----|-----14----12----|-----11----11--9---11--|-12--12----14----|
D|-14--14----16----|-----17-----|-----16----14----|-----13----13--11--13--|-14--14----16----|
A|-----------------|------------|-----------------|-----------------------|-----------------|
E|-----------------|------------|-----------------|-----------------------|-----------------|


E|--------|--------|--------|--------|--------|--------|--------|--------|--------|
B|--------|--------|--------|--------|--------|--------|--------|--------|--------|
G|--------|--------|--------|--------|--------|--------|--------|--------|--------|
D|--------|--------|--------|--------|--------|--------|--------|--------|--------|
A|--------|--------|--------|--------|--------|--------|--------|--------|--------|
E|--------|--------|--------|--------|--------|--------|--------|--------|--------|