Menu:

 

Search:

 

the movielife - scary:

 



Title: Scary
Artist: 
Album: Forty Hour Train Back To Penn
Author: The Movielife


Track 1: dist 1

D#|-------------------------------------------------|-------------------------------------------------|
A#|-2---2---2---2---2---2---2---2---2---2---2---2---|-2---2---2---2---2---2---2---2---2---2---2---2---|
F#|-2---2---2---2---2---2---2---2---2---2---2---2---|-2---2---2---2---2---2---2---2---2---2---2---2---|
C#|-4---4---4---4---4---4---4---4---4---4---4---4---|-4---4---4---4---4---4---4---4---4---4---4---4---|
G#|-------------------------------------------------|-------------------------------------------------|
D#|-------------------------------------------------|-------------------------------------------------|


D#|-------------------------------------------------|-------------------------------------------------|
A#|-2---2---2---2---2---2---2---2---2---2---2---2---|-2---2---2---2---2---2---2---2---2---2---2---2---|
F#|-2---2---2---2---2---2---2---2---2---2---2---2---|-2---2---2---2---2---2---2---2---2---2---2---2---|
C#|-4---4---4---4---4---4---4---4---4---4---4---4---|-4---4---4---4---4---4---4---4---4---4---4---4---|
G#|-------------------------------------------------|-------------------------------------------------|
D#|-------------------------------------------------|-------------------------------------------------|


D#|-------------------------------------------------|-------------------------------------------------|
A#|-2---2---2---2---2---2---2---2---2---2---2---2---|-2---2---2---2---2---2---2---2---2---2---2---2---|
F#|-2---2---2---2---2---2---2---2---2---2---2---2---|-2---2---2---2---2---2---2---2---2---2---2---2---|
C#|-4---4---4---4---4---4---4---4---4---4---4---4---|-4---4---4---4---4---4---4---4---4---4---4---4---|
G#|-------------------------------------------------|-------------------------------------------------|
D#|-------------------------------------------------|-------------------------------------------------|


D#|-------------------------------------------------|-------------------------------------------------|
A#|-2---2---2---2---2---2---2---2---2---2---2---2---|-2---2---2---2---2---2---2---2---2---2---2---2---|
F#|-2---2---2---2---2---2---2---2---2---2---2---2---|-2---2---2---2---2---2---2---2---2---2---2---2---|
C#|-4---4---4---4---4---4---4---4---4---4---4---4---|-4---4---4---4---4---4---4---4---4---4---4---4---|
G#|-------------------------------------------------|-------------------------------------------------|
D#|-------------------------------------------------|-------------------------------------------------|


D#|---------------------|---------------------|---------------------|-----------------|
A#|---------------------|---------------------|---------------------|-----------------|
F#|---------------------|---------------------|---------------------|------4----------|
C#|------6----7----6----|-4-------------------|------6----7----6----|-----------6-----|
G#|-4-------------------|------7----6----7----|---------------------|-7---------------|
D#|---------------------|---------------------|-7-------------------|-----------------|


D#|---------------------|---------------------|----------------|----------------|---------------------|
A#|---------------------|---------------------|----------------|----------------|---------------------|
F#|---------------------|---------------------|----------------|----------------|---------------------|
C#|------6----7----6----|-4-------------------|----------------|----------------|------6----7----6----|
G#|-4-------------------|------7----6----7----|-7------7---9---|-6------6---7---|-4-------------------|
D#|---------------------|---------------------|----------------|----------------|---------------------|


D#|---------------------|---------------------|-----------------|---------------------|
A#|---------------------|---------------------|-----------------|---------------------|
F#|---------------------|---------------------|------4----------|---------------------|
C#|-4-------------------|------6----7----6----|-----------6-----|------6----7----6----|
G#|------7----6----7----|---------------------|-7---------------|-4-------------------|
D#|---------------------|-7-------------------|-----------------|---------------------|


D#|---------------------|----------------|----------------|------------------|--------|
A#|---------------------|----------------|----------------|-------5-----7----|-7------|
F#|---------------------|----------------|----------------|-6----------------|--------|
C#|-4-------------------|----------------|----------------|------------------|--------|
G#|------7----6----7----|-7------7---9---|-6------6---7---|------------------|--------|
D#|---------------------|----------------|----------------|------------------|--------|


D#|------------------|--------|---------------------------------|---------------------------------|
A#|-------5-----7----|-7------|---------------------------------|---------------------------------|
F#|-6----------------|--------|-2---2---2---2---2---2---2---2---|-2---2---2---2---2---2---2---2---|
C#|------------------|--------|-2---2---2---2---2---2---2---2---|-2---2---2---2---2---2---2---2---|
G#|------------------|--------|-0---0---0---0---0---0---0---0---|-0---0---0---0---0---0---0---0---|
D#|------------------|--------|---------------------------------|---------------------------------|


D#|---------------------------------|---------------------------------|------------------|
A#|---------------------------------|---------------------------------|-------5-----7----|
F#|-2---2---2---2---2---2---2---2---|-2---2---2---2---2---2---2---2---|-6----------------|
C#|-2---2---2---2---2---2---2---2---|-2---2---2---2---2---2---2---2---|------------------|
G#|-0---0---0---0---0---0---0---0---|-0---0---0---0---0---0---0---0---|------------------|
D#|---------------------------------|---------------------------------|------------------|


D#|--------|------------------|--------|---------------------------------|---------------------------------|
A#|-7------|-------5-----7----|-7------|---------------------------------|---------------------------------|
F#|--------|-6----------------|--------|-2---2---2---2---2---2---2---2---|-2---2---2---2---2---2---2---2---|
C#|--------|------------------|--------|-2---2---2---2---2---2---2---2---|-2---2---2---2---2---2---2---2---|
G#|--------|------------------|--------|-0---0---0---0---0---0---0---0---|-0---0---0---0---0---0---0---0---|
D#|--------|------------------|--------|---------------------------------|---------------------------------|


D#|---------------------------------|---------------------------------|---------------------|
A#|---------------------------------|---------------------------------|---------------------|
F#|-2---2---2---2---2---2---2---2---|-2---2---2---2---2---2---2---2---|---------------------|
C#|-2---2---2---2---2---2---2---2---|-2---2---2---2---2---2---2---2---|------6----7----6----|
G#|-0---0---0---0---0---0---0---0---|-0---0---0---0---0---0---0---0---|-4-------------------|
D#|---------------------------------|---------------------------------|---------------------|


D#|---------------------|---------------------|-----------------|---------------------|
A#|---------------------|---------------------|-----------------|---------------------|
F#|---------------------|---------------------|------4----------|---------------------|
C#|-4-------------------|------6----7----6----|-----------6-----|------6----7----6----|
G#|------7----6----7----|---------------------|-7---------------|-4-------------------|
D#|---------------------|-7-------------------|-----------------|---------------------|


D#|---------------------|----------------|----------------|---------------------|---------------------|
A#|---------------------|----------------|----------------|---------------------|---------------------|
F#|---------------------|----------------|----------------|---------------------|---------------------|
C#|-4-------------------|----------------|----------------|------6----7----6----|-4-------------------|
G#|------7----6----7----|-7------7---9---|-6------6---7---|-4-------------------|------7----6----7----|
D#|---------------------|----------------|----------------|---------------------|---------------------|


D#|---------------------|-----------------|---------------------|---------------------|
A#|---------------------|-----------------|---------------------|---------------------|
F#|---------------------|------4----------|---------------------|---------------------|
C#|------6----7----6----|-----------6-----|------6----7----6----|-4-------------------|
G#|---------------------|-7---------------|-4-------------------|------7----6----7----|
D#|-7-------------------|-----------------|---------------------|---------------------|


D#|----------------|----------------|------------------|--------|------------------|
A#|----------------|----------------|-------5-----7----|-7------|-------5-----7----|
F#|----------------|----------------|-6----------------|--------|-6----------------|
C#|----------------|----------------|------------------|--------|------------------|
G#|-7------7---9---|-6------6---7---|------------------|--------|------------------|
D#|----------------|----------------|------------------|--------|------------------|


D#|--------|---------------------------------|---------------------------------|---------------------------------|
A#|-7------|---------------------------------|---------------------------------|---------------------------------|
F#|--------|-2---2---2---2---2---2---2---2---|-2---2---2---2---2---2---2---2---|-2---2---2---2---2---2---2---2---|
C#|--------|-2---2---2---2---2---2---2---2---|-2---2---2---2---2---2---2---2---|-2---2---2---2---2---2---2---2---|
G#|--------|-0---0---0---0---0---0---0---0---|-0---0---0---0---0---0---0---0---|-0---0---0---0---0---0---0---0---|
D#|--------|---------------------------------|---------------------------------|---------------------------------|


D#|---------------------------------|------------------|--------|------------------|
A#|---------------------------------|-------5-----7----|-7------|-------5-----7----|
F#|-2---2---2---2---2---2---2---2---|-6----------------|--------|-6----------------|
C#|-2---2---2---2---2---2---2---2---|------------------|--------|------------------|
G#|-0---0---0---0---0---0---0---0---|------------------|--------|------------------|
D#|---------------------------------|------------------|--------|------------------|


D#|--------|---------------------------------|---------------------------------|---------------------------------|
A#|-7------|---------------------------------|---------------------------------|---------------------------------|
F#|--------|-2---2---2---2---2---2---2---2---|-2---2---2---2---2---2---2---2---|-2---2---2---2---2---2---2---2---|
C#|--------|-2---2---2---2---2---2---2---2---|-2---2---2---2---2---2---2---2---|-2---2---2---2---2---2---2---2---|
G#|--------|-0---0---0---0---0---0---0---0---|-0---0---0---0---0---0---0---0---|-0---0---0---0---0---0---0---0---|
D#|--------|---------------------------------|---------------------------------|---------------------------------|


D#|---------------------------------|---------------------------------|---------------------------------|
A#|---------------------------------|---------------------------------|---------------------------------|
F#|-2---2---2---2---2---2---2---2---|---------------------------------|---------------------------------|
C#|-2---2---2---2---2---2---2---2---|-9---9---9---9---9---9---9---9---|-9---9---9---9---9---9---9---9---|
G#|-0---0---0---0---0---0---0---0---|-9---9---9---9---9---9---9---9---|-9---9---9---9---9---9---9---9---|
D#|---------------------------------|-7---7---7---7---7---7---7---7---|-7---7---7---7---7---7---7---7---|


D#|---------------------------------|---------------------------------|---------------------|
A#|---------------------------------|---------------------------------|---------------------|
F#|---------------------------------|---------------------------------|---------------------|
C#|-7---7---7---7---7---7---7---7---|-9---9---9---9---9---9---9---9---|------6----7----6----|
G#|-7---7---7---7---7---7---7---7---|-9---9---9---9---9---9---9---9---|-4-------------------|
D#|-5---5---5---5---5---5---5---5---|-7---7---7---7---7---7---7---7---|---------------------|


D#|---------------------|---------------------|-----------------|---------------------|
A#|---------------------|---------------------|-----------------|---------------------|
F#|---------------------|---------------------|------4----------|---------------------|
C#|-4-------------------|------6----7----6----|-----------6-----|------6----7----6----|
G#|------7----6----7----|---------------------|-7---------------|-4-------------------|
D#|---------------------|-7-------------------|-----------------|---------------------|


D#|---------------------|----------------|----------------|---------------------|---------------------|
A#|---------------------|----------------|----------------|---------------------|---------------------|
F#|---------------------|----------------|----------------|---------------------|---------------------|
C#|-4-------------------|----------------|----------------|------6----7----6----|-4-------------------|
G#|------7----6----7----|-7------7---9---|-6------6---7---|-4-------------------|------7----6----7----|
D#|---------------------|----------------|----------------|---------------------|---------------------|


D#|---------------------|-----------------|---------------------|---------------------|
A#|---------------------|-----------------|---------------------|---------------------|
F#|---------------------|------4----------|---------------------|---------------------|
C#|------6----7----6----|-----------6-----|------6----7----6----|-4-------------------|
G#|---------------------|-7---------------|-4-------------------|------7----6----7----|
D#|-7-------------------|-----------------|---------------------|---------------------|


D#|----------------|----------------|---------------------------------|---------------------------------|
A#|----------------|----------------|---------------------------------|---------------------------------|
F#|----------------|----------------|-8---8---8---8---8---8---8---8---|-6---6---6---6---6---6---6---6---|
C#|----------------|----------------|-9---9---9---9---9---9---9---9---|-6---6---6---6---6---6---6---6---|
G#|-7------7---9---|-6------6---7---|-7---7---7---7---7---7---7---7---|-4---4---4---4---4---4---4---4---|
D#|----------------|----------------|---------------------------------|---------------------------------|


D#|---------------------------------|---------------------------------|---------------------------------|
A#|---------------------------------|---------------------------------|---------------------------------|
F#|-4---4---4---4---4---4---4---4---|-4---4---4---4---4---4---4---4---|-8---8---8---8---8---8---8---8---|
C#|-4---4---4---4---4---4---4---4---|-4---4---4---4---4---4---4---4---|-9---9---9---9---9---9---9---9---|
G#|-2---2---2---2---2---2---2---2---|-2---2---2---2---2---2---2---2---|-7---7---7---7---7---7---7---7---|
D#|---------------------------------|---------------------------------|---------------------------------|


D#|---------------------------------|---------------------------------|---------------------------------|
A#|---------------------------------|---------------------------------|---------------------------------|
F#|-6---6---6---6---6---6---6---6---|-4---4---4---4---4---4---4---4---|-4---4---4---4---4---4---4---4---|
C#|-6---6---6---6---6---6---6---6---|-4---4---4---4---4---4---4---4---|-4---4---4---4---4---4---4---4---|
G#|-4---4---4---4---4---4---4---4---|-2---2---2---2---2---2---2---2---|-2---2---2---2---2---2---2---2---|
D#|---------------------------------|---------------------------------|---------------------------------|


D#|---------------------------------|---------------------------------|---------------------------------|
A#|---------------------------------|---------------------------------|---------------------------------|
F#|-8---8---8---8---8---8---8---8---|-6---6---6---6---6---6---6---6---|---------------------------------|
C#|-9---9---9---9---9---9---9---9---|-6---6---6---6---6---6---6---6---|-9---9---9---9---9---9---9---9---|
G#|-7---7---7---7---7---7---7---7---|-4---4---4---4---4---4---4---4---|-9---9---9---9---9---9---9---9---|
D#|---------------------------------|---------------------------------|-7---7---7---7---7---7---7---7---|


D#|---------------------------------|---------------------------------|---------------------------------|
A#|---------------------------------|---------------------------------|---------------------------------|
F#|---------------------------------|---------------------------------|---------------------------------|
C#|-9---9---9---9---9---9---9---9---|-7---7---7---7---7---7---7---7---|-7---7---7---7---7---7---7---7---|
G#|-9---9---9---9---9---9---9---9---|-7---7---7---7---7---7---7---7---|-7---7---7---7---7---7---7---7---|
D#|-7---7---7---7---7---7---7---7---|-5---5---5---5---5---5---5---5---|-5---5---5---5---5---5---5---5---|


D#|---------------------------------|---------------------------------|---------------------------------|
A#|---------------------------------|---------------------------------|---------------------------------|
F#|---------------------------------|---------------------------------|---------------------------------|
C#|-9---9---9---9---9---9---9---9---|-9---9---9---9---9---9---9---9---|-7---7---7---7---7---7---7---7---|
G#|-9---9---9---9---9---9---9---9---|-9---9---9---9---9---9---9---9---|-7---7---7---7---7---7---7---7---|
D#|-7---7---7---7---7---7---7---7---|-7---7---7---7---7---7---7---7---|-5---5---5---5---5---5---5---5---|


D#|---------------------------------|---------------------|---------------------|---------------------|
A#|---------------------------------|---------------------|---------------------|---------------------|
F#|---------------------------------|---------------------|---------------------|---------------------|
C#|-9---9---9---9---9---9---9---9---|------6----7----6----|-4-------------------|------6----7----6----|
G#|-9---9---9---9---9---9---9---9---|-4-------------------|------7----6----7----|---------------------|
D#|-7---7---7---7---7---7---7---7---|---------------------|---------------------|-7-------------------|


D#|-----------------|---------------------|---------------------|----------------|
A#|-----------------|---------------------|---------------------|----------------|
F#|------4----------|---------------------|---------------------|----------------|
C#|-----------6-----|------6----7----6----|-4-------------------|----------------|
G#|-7---------------|-4-------------------|------7----6----7----|-7------7---9---|
D#|-----------------|---------------------|---------------------|----------------|


D#|----------------|---------------------|---------------------|---------------------|
A#|----------------|---------------------|---------------------|---------------------|
F#|----------------|---------------------|---------------------|---------------------|
C#|----------------|------6----7----6----|-4-------------------|------6----7----6----|
G#|-6------6---7---|-4-------------------|------7----6----7----|---------------------|
D#|----------------|---------------------|---------------------|-7-------------------|


D#|-----------------|---------------------|---------------------|----------------|
A#|-----------------|---------------------|---------------------|----------------|
F#|------4----------|---------------------|---------------------|----------------|
C#|-----------6-----|------6----7----6----|-4-------------------|----------------|
G#|-7---------------|-4-------------------|------7----6----7----|-7------7---9---|
D#|-----------------|---------------------|---------------------|----------------|


D#|----------------|---------------------------------|---------------------------------|
A#|----------------|---------------------------------|---------------------------------|
F#|----------------|-8---8---8---8---8---8---8---8---|-6---6---6---6---6---6---6---6---|
C#|----------------|-9---9---9---9---9---9---9---9---|-6---6---6---6---6---6---6---6---|
G#|-6------6---7---|-7---7---7---7---7---7---7---7---|-4---4---4---4---4---4---4---4---|
D#|----------------|---------------------------------|---------------------------------|


D#|--------|--------|
A#|--------|--------|
F#|-4------|-4------|
C#|-4------|-4------|
G#|-2------|-2------|
D#|--------|--------|





Track 2: dist 2

D#|-2------|-2------|-2------|-2-----2-----|-2------|-2------|--------|--------|---------------------------|
A#|-2------|-2------|-2------|-2-----2-----|-2------|-2------|--------|--------|---------------------------|
F#|-2------|-2------|-2------|-2-----2-----|-2------|-2------|--------|--------|---------------------------|
C#|-4------|-4------|-4------|-4-----4-----|-4------|-4------|--------|--------|-4----4----4---4---4---4---|
G#|-4------|-4------|-4------|-4-----4-----|-4------|-4------|--------|--------|-4----4----4---4---4---4---|
D#|-2------|-2------|-2------|-2-----2-----|-2------|-2------|--------|--------|-2----2----2---2---2---2---|


D#|---------------------------|---------------------------|---------------------------|
A#|---------------------------|---------------------------|---------------------------|
F#|-2----2----2---2---2---2---|---------------------------|-4----4----4---4---4---4---|
C#|-2----2----2---2---2---2---|-2----2----2---2---2---2---|-4----4----4---4---4---4---|
G#|-0----0----0---0---0---0---|-2----2----2---2---2---2---|-2----2----2---2---2---2---|
D#|---------------------------|-0----0----0---0---0---0---|---------------------------|


D#|---------------------------|---------------------------|---------------------------|
A#|---------------------------|---------------------------|---------------------------|
F#|---------------------------|-2----2----2---2---2---2---|-4----4----4---4---4---4---|
C#|-4----4----4---4---4---4---|-2----2----2---2---2---2---|-4----4----4---4---4---4---|
G#|-4----4----4---4---4---4---|-0----0----0---0---0---0---|-2----2----2---2---2---2---|
D#|-2----2----2---2---2---2---|---------------------------|---------------------------|


D#|---------------------------|---------------------------|---------------------------|
A#|---------------------------|---------------------------|---------------------------|
F#|-4----4----4---4---4---4---|---------------------------|-2----2----2---2---2---2---|
C#|-4----4----4---4---4---4---|-4----4----4---4---4---4---|-2----2----2---2---2---2---|
G#|-2----2----2---2---2---2---|-4----4----4---4---4---4---|-0----0----0---0---0---0---|
D#|---------------------------|-2----2----2---2---2---2---|---------------------------|


D#|---------------------------|---------------------------|---------------------------|
A#|---------------------------|---------------------------|---------------------------|
F#|---------------------------|-4----4----4---4---4---4---|---------------------------|
C#|-2----2----2---2---2---2---|-4----4----4---4---4---4---|-4----4----4---4---4---4---|
G#|-2----2----2---2---2---2---|-2----2----2---2---2---2---|-4----4----4---4---4---4---|
D#|-0----0----0---0---0---0---|---------------------------|-2----2----2---2---2---2---|


D#|---------------------------|---------------------------|---------------------------|
A#|---------------------------|---------------------------|---------------------------|
F#|-2----2----2---2---2---2---|-4----4----4---4---4---4---|-4----4----4---4---4---4---|
C#|-2----2----2---2---2---2---|-4----4----4---4---4---4---|-4----4----4---4---4---4---|
G#|-0----0----0---0---0---0---|-2----2----2---2---2---2---|-2----2----2---2---2---2---|
D#|---------------------------|---------------------------|---------------------------|


D#|---------------------------------|---------------------------------|---------------------------------|
A#|---------------------------------|---------------------------------|---------------------------------|
F#|-6---6---6---6---6---6---6---6---|-6---6---6---6---6---6---6---6---|-6---6---6---6---6---6---6---6---|
C#|-6---6---6---6---6---6---6---6---|-6---6---6---6---6---6---6---6---|-6---6---6---6---6---6---6---6---|
G#|-4---4---4---4---4---4---4---4---|-4---4---4---4---4---4---4---4---|-4---4---4---4---4---4---4---4---|
D#|---------------------------------|---------------------------------|---------------------------------|


D#|--------|--------|--------|--------|--------|---------------------------------|
A#|--------|--------|--------|--------|--------|---------------------------------|
F#|-13-----|-9------|-9------|-8------|-11-----|-6---6---6---6---6---6---6---6---|
C#|--------|-9------|--------|-8------|-11-----|-6---6---6---6---6---6---6---6---|
G#|-11-----|-7------|-7------|-6------|-9------|-4---4---4---4---4---4---4---4---|
D#|--------|--------|--------|--------|--------|---------------------------------|


D#|---------------------------------|---------------------------------|--------|--------|
A#|---------------------------------|---------------------------------|--------|--------|
F#|-6---6---6---6---6---6---6---6---|-6---6---6---6---6---6---6---6---|-13-----|-9------|
C#|-6---6---6---6---6---6---6---6---|-6---6---6---6---6---6---6---6---|--------|-9------|
G#|-4---4---4---4---4---4---4---4---|-4---4---4---4---4---4---4---4---|-11-----|-7------|
D#|---------------------------------|---------------------------------|--------|--------|


D#|--------|--------|--------|---------------------------|---------------------------|
A#|--------|--------|--------|---------------------------|---------------------------|
F#|-9------|-8------|-11-----|---------------------------|-2----2----2---2---2---2---|
C#|--------|-8------|-11-----|-4----4----4---4---4---4---|-2----2----2---2---2---2---|
G#|-7------|-6------|-9------|-4----4----4---4---4---4---|-0----0----0---0---0---0---|
D#|--------|--------|--------|-2----2----2---2---2---2---|---------------------------|


D#|---------------------------|---------------------------|---------------------------|
A#|---------------------------|---------------------------|---------------------------|
F#|---------------------------|-4----4----4---4---4---4---|---------------------------|
C#|-2----2----2---2---2---2---|-4----4----4---4---4---4---|-4----4----4---4---4---4---|
G#|-2----2----2---2---2---2---|-2----2----2---2---2---2---|-4----4----4---4---4---4---|
D#|-0----0----0---0---0---0---|---------------------------|-2----2----2---2---2---2---|


D#|---------------------------|---------------------------|---------------------------|
A#|---------------------------|---------------------------|---------------------------|
F#|-2----2----2---2---2---2---|-4----4----4---4---4---4---|-4----4----4---4---4---4---|
C#|-2----2----2---2---2---2---|-4----4----4---4---4---4---|-4----4----4---4---4---4---|
G#|-0----0----0---0---0---0---|-2----2----2---2---2---2---|-2----2----2---2---2---2---|
D#|---------------------------|---------------------------|---------------------------|


D#|---------------------------|---------------------------|---------------------------|
A#|---------------------------|---------------------------|---------------------------|
F#|---------------------------|-2----2----2---2---2---2---|---------------------------|
C#|-4----4----4---4---4---4---|-2----2----2---2---2---2---|-2----2----2---2---2---2---|
G#|-4----4----4---4---4---4---|-0----0----0---0---0---0---|-2----2----2---2---2---2---|
D#|-2----2----2---2---2---2---|---------------------------|-0----0----0---0---0---0---|


D#|---------------------------|---------------------------|---------------------------|
A#|---------------------------|---------------------------|---------------------------|
F#|-4----4----4---4---4---4---|---------------------------|-2----2----2---2---2---2---|
C#|-4----4----4---4---4---4---|-4----4----4---4---4---4---|-2----2----2---2---2---2---|
G#|-2----2----2---2---2---2---|-4----4----4---4---4---4---|-0----0----0---0---0---0---|
D#|---------------------------|-2----2----2---2---2---2---|---------------------------|


D#|---------------------------|---------------------------|---------------------------------|
A#|---------------------------|---------------------------|---------------------------------|
F#|-4----4----4---4---4---4---|-4----4----4---4---4---4---|-6---6---6---6---6---6---6---6---|
C#|-4----4----4---4---4---4---|-4----4----4---4---4---4---|-6---6---6---6---6---6---6---6---|
G#|-2----2----2---2---2---2---|-2----2----2---2---2---2---|-4---4---4---4---4---4---4---4---|
D#|---------------------------|---------------------------|---------------------------------|


D#|---------------------------------|---------------------------------|--------|--------|
A#|---------------------------------|---------------------------------|--------|--------|
F#|-6---6---6---6---6---6---6---6---|-6---6---6---6---6---6---6---6---|-13-----|-9------|
C#|-6---6---6---6---6---6---6---6---|-6---6---6---6---6---6---6---6---|--------|-9------|
G#|-4---4---4---4---4---4---4---4---|-4---4---4---4---4---4---4---4---|-11-----|-7------|
D#|---------------------------------|---------------------------------|--------|--------|


D#|--------|--------|--------|---------------------------------|---------------------------------|
A#|--------|--------|--------|---------------------------------|---------------------------------|
F#|-9------|-8------|-11-----|-6---6---6---6---6---6---6---6---|-6---6---6---6---6---6---6---6---|
C#|--------|-8------|-11-----|-6---6---6---6---6---6---6---6---|-6---6---6---6---6---6---6---6---|
G#|-7------|-6------|-9------|-4---4---4---4---4---4---4---4---|-4---4---4---4---4---4---4---4---|
D#|--------|--------|--------|---------------------------------|---------------------------------|


D#|---------------------------------|--------|--------|--------|--------|--------|
A#|---------------------------------|--------|--------|--------|--------|--------|
F#|-6---6---6---6---6---6---6---6---|-13-----|-9------|-9------|-8------|-11-----|
C#|-6---6---6---6---6---6---6---6---|--------|-9------|--------|-8------|-11-----|
G#|-4---4---4---4---4---4---4---4---|-11-----|-7------|-7------|-6------|-9------|
D#|---------------------------------|--------|--------|--------|--------|--------|


D#|--------|--------|--------|--------|---------------------------|---------------------------|
A#|--------|--------|--------|--------|---------------------------|---------------------------|
F#|-13-----|-13-----|-14-----|-16-----|---------------------------|-2----2----2---2---2---2---|
C#|-13-----|--------|-14-----|-16-----|-4----4----4---4---4---4---|-2----2----2---2---2---2---|
G#|-11-----|-11-----|-12-----|-14-----|-4----4----4---4---4---4---|-0----0----0---0---0---0---|
D#|--------|--------|--------|--------|-2----2----2---2---2---2---|---------------------------|


D#|---------------------------|---------------------------|---------------------------|
A#|---------------------------|---------------------------|---------------------------|
F#|---------------------------|-4----4----4---4---4---4---|---------------------------|
C#|-2----2----2---2---2---2---|-4----4----4---4---4---4---|-4----4----4---4---4---4---|
G#|-2----2----2---2---2---2---|-2----2----2---2---2---2---|-4----4----4---4---4---4---|
D#|-0----0----0---0---0---0---|---------------------------|-2----2----2---2---2---2---|


D#|---------------------------|---------------------------|---------------------------|
A#|---------------------------|---------------------------|---------------------------|
F#|-2----2----2---2---2---2---|-4----4----4---4---4---4---|-4----4----4---4---4---4---|
C#|-2----2----2---2---2---2---|-4----4----4---4---4---4---|-4----4----4---4---4---4---|
G#|-0----0----0---0---0---0---|-2----2----2---2---2---2---|-2----2----2---2---2---2---|
D#|---------------------------|---------------------------|---------------------------|


D#|---------------------------|---------------------------|---------------------------|
A#|---------------------------|---------------------------|---------------------------|
F#|---------------------------|-2----2----2---2---2---2---|---------------------------|
C#|-4----4----4---4---4---4---|-2----2----2---2---2---2---|-2----2----2---2---2---2---|
G#|-4----4----4---4---4---4---|-0----0----0---0---0---0---|-2----2----2---2---2---2---|
D#|-2----2----2---2---2---2---|---------------------------|-0----0----0---0---0---0---|


D#|---------------------------|---------------------------|---------------------------|
A#|---------------------------|---------------------------|---------------------------|
F#|-4----4----4---4---4---4---|---------------------------|-2----2----2---2---2---2---|
C#|-4----4----4---4---4---4---|-4----4----4---4---4---4---|-2----2----2---2---2---2---|
G#|-2----2----2---2---2---2---|-4----4----4---4---4---4---|-0----0----0---0---0---0---|
D#|---------------------------|-2----2----2---2---2---2---|---------------------------|


D#|---------------------------|---------------------------|--------|--------|------------------|
A#|---------------------------|---------------------------|--------|--------|-------4-----5----|
F#|-4----4----4---4---4---4---|-4----4----4---4---4---4---|--------|--------|-6----------------|
C#|-4----4----4---4---4---4---|-4----4----4---4---4---4---|--------|--------|------------------|
G#|-2----2----2---2---2---2---|-2----2----2---2---2---2---|--------|--------|------------------|
D#|---------------------------|---------------------------|--------|--------|------------------|


D#|--------|------------------|------------------|------------------|--------|------------------|
A#|-0------|-------4-----5----|-------4-----5----|-------4-----5----|-0------|-------4-----5----|
F#|--------|-6----------------|-6----------------|-6----------------|--------|-6----------------|
C#|--------|------------------|------------------|------------------|--------|------------------|
G#|--------|------------------|------------------|------------------|--------|------------------|
D#|--------|------------------|------------------|------------------|--------|------------------|


D#|------------------|--------|--------|--------|--------|--------|--------|--------|
A#|-------4-----5----|--------|--------|--------|--------|--------|--------|--------|
F#|-6----------------|-13-----|-13-----|-11-----|-11-----|-13-----|-13-----|-14-----|
C#|------------------|-13-----|--------|-11-----|--------|-13-----|--------|-14-----|
G#|------------------|-11-----|-11-----|-9------|-9------|-11-----|-11-----|-12-----|
D#|------------------|--------|--------|--------|--------|--------|--------|--------|


D#|--------|---------------------------|---------------------------|---------------------------|
A#|--------|---------------------------|---------------------------|---------------------------|
F#|-16-----|---------------------------|-2----2----2---2---2---2---|---------------------------|
C#|-16-----|-4----4----4---4---4---4---|-2----2----2---2---2---2---|-2----2----2---2---2---2---|
G#|-14-----|-4----4----4---4---4---4---|-0----0----0---0---0---0---|-2----2----2---2---2---2---|
D#|--------|-2----2----2---2---2---2---|---------------------------|-0----0----0---0---0---0---|


D#|---------------------------|---------------------------|---------------------------|
A#|---------------------------|---------------------------|---------------------------|
F#|-4----4----4---4---4---4---|---------------------------|-2----2----2---2---2---2---|
C#|-4----4----4---4---4---4---|-4----4----4---4---4---4---|-2----2----2---2---2---2---|
G#|-2----2----2---2---2---2---|-4----4----4---4---4---4---|-0----0----0---0---0---0---|
D#|---------------------------|-2----2----2---2---2---2---|---------------------------|


D#|---------------------------|---------------------------|---------------------------|
A#|---------------------------|---------------------------|---------------------------|
F#|-4----4----4---4---4---4---|-4----4----4---4---4---4---|---------------------------|
C#|-4----4----4---4---4---4---|-4----4----4---4---4---4---|-4----4----4---4---4---4---|
G#|-2----2----2---2---2---2---|-2----2----2---2---2---2---|-4----4----4---4---4---4---|
D#|---------------------------|---------------------------|-2----2----2---2---2---2---|


D#|---------------------------|---------------------------|---------------------------|
A#|---------------------------|---------------------------|---------------------------|
F#|-2----2----2---2---2---2---|---------------------------|-4----4----4---4---4---4---|
C#|-2----2----2---2---2---2---|-2----2----2---2---2---2---|-4----4----4---4---4---4---|
G#|-0----0----0---0---0---0---|-2----2----2---2---2---2---|-2----2----2---2---2---2---|
D#|---------------------------|-0----0----0---0---0---0---|---------------------------|


D#|---------------------------|---------------------------|---------------------------|
A#|---------------------------|---------------------------|---------------------------|
F#|---------------------------|-2----2----2---2---2---2---|-4----4----4---4---4---4---|
C#|-4----4----4---4---4---4---|-2----2----2---2---2---2---|-4----4----4---4---4---4---|
G#|-4----4----4---4---4---4---|-0----0----0---0---0---0---|-2----2----2---2---2---2---|
D#|-2----2----2---2---2---2---|---------------------------|---------------------------|


D#|---------------------------|--------|--------|--------|--------|
A#|---------------------------|--------|--------|--------|--------|
F#|-4----4----4---4---4---4---|--------|--------|--------|--------|
C#|-4----4----4---4---4---4---|--------|--------|--------|--------|
G#|-2----2----2---2---2---2---|--------|--------|--------|--------|
D#|---------------------------|--------|--------|--------|--------|





Track 3: Untitled

D#|--------|--------|--------|--------|--------|--------|---------------------|---------------------|
A#|--------|--------|--------|--------|--------|--------|---------------------|---------------------|
F#|--------|--------|--------|--------|--------|--------|---------------------|---------------------|
C#|--------|--------|--------|--------|--------|--------|-10---9----8----7----|-6----5----4----3----|
G#|--------|--------|--------|--------|--------|--------|-10---9----8----7----|-6----5----4----3----|
D#|--------|--------|--------|--------|--------|--------|-8----7----6----5----|-4----3----2----1----|


D#|--------|--------|--------|--------|--------|--------|--------|--------|--------|
A#|--------|--------|--------|--------|--------|--------|--------|--------|--------|
F#|--------|--------|--------|--------|--------|--------|--------|--------|--------|
C#|--------|--------|--------|--------|--------|--------|--------|--------|--------|
G#|--------|--------|--------|--------|--------|--------|--------|--------|--------|
D#|--------|--------|--------|--------|--------|--------|--------|--------|--------|


D#|--------|--------|--------|--------|--------|--------|--------|--------|--------|
A#|--------|--------|--------|--------|--------|--------|--------|--------|--------|
F#|--------|--------|--------|--------|--------|--------|--------|--------|--------|
C#|--------|--------|--------|--------|--------|--------|--------|--------|--------|
G#|--------|--------|--------|--------|--------|--------|--------|--------|--------|
D#|--------|--------|--------|--------|--------|--------|--------|--------|--------|


D#|--------|--------|--------|--------|--------|--------|--------|--------|--------|
A#|--------|--------|--------|--------|--------|--------|--------|--------|--------|
F#|--------|--------|--------|--------|--------|--------|--------|--------|--------|
C#|--------|--------|--------|--------|--------|--------|--------|--------|--------|
G#|--------|--------|--------|--------|--------|--------|--------|--------|--------|
D#|--------|--------|--------|--------|--------|--------|--------|--------|--------|


D#|--------|--------|--------|--------|--------|--------|--------|--------|--------|
A#|--------|--------|--------|--------|--------|--------|--------|--------|--------|
F#|--------|--------|--------|--------|--------|--------|--------|--------|--------|
C#|--------|--------|--------|--------|--------|--------|--------|--------|--------|
G#|--------|--------|--------|--------|--------|--------|--------|--------|--------|
D#|--------|--------|--------|--------|--------|--------|--------|--------|--------|


D#|--------|--------|--------|--------|--------|--------|--------|--------|--------|
A#|--------|--------|--------|--------|--------|--------|--------|--------|--------|
F#|--------|--------|--------|--------|--------|--------|--------|--------|--------|
C#|--------|--------|--------|--------|--------|--------|--------|--------|--------|
G#|--------|--------|--------|--------|--------|--------|--------|--------|--------|
D#|--------|--------|--------|--------|--------|--------|--------|--------|--------|


D#|--------|--------|--------|--------|--------|--------|--------|--------|--------|
A#|--------|--------|--------|--------|--------|--------|--------|--------|--------|
F#|--------|--------|--------|--------|--------|--------|--------|--------|--------|
C#|--------|--------|--------|--------|--------|--------|--------|--------|--------|
G#|--------|--------|--------|--------|--------|--------|--------|--------|--------|
D#|--------|--------|--------|--------|--------|--------|--------|--------|--------|


D#|--------|--------|--------|--------|--------|--------|--------|--------|--------|
A#|--------|--------|--------|--------|--------|--------|--------|--------|--------|
F#|--------|--------|--------|--------|--------|--------|--------|--------|--------|
C#|--------|--------|--------|--------|--------|--------|--------|--------|--------|
G#|--------|--------|--------|--------|--------|--------|--------|--------|--------|
D#|--------|--------|--------|--------|--------|--------|--------|--------|--------|


D#|--------|--------|--------|--------|--------|--------|--------|--------|--------|
A#|--------|--------|--------|--------|--------|--------|--------|--------|--------|
F#|--------|--------|--------|--------|--------|--------|--------|--------|--------|
C#|--------|--------|--------|--------|--------|--------|--------|--------|--------|
G#|--------|--------|--------|--------|--------|--------|--------|--------|--------|
D#|--------|--------|--------|--------|--------|--------|--------|--------|--------|


D#|--------|--------|--------|--------|--------|--------|--------|--------|--------|
A#|--------|--------|--------|--------|--------|--------|--------|--------|--------|
F#|--------|--------|--------|--------|--------|--------|--------|--------|--------|
C#|--------|--------|--------|--------|--------|--------|--------|--------|--------|
G#|--------|--------|--------|--------|--------|--------|--------|--------|--------|
D#|--------|--------|--------|--------|--------|--------|--------|--------|--------|


D#|--------|--------|--------|--------|--------|--------|--------|--------|--------|
A#|--------|--------|--------|--------|--------|--------|--------|--------|--------|
F#|--------|--------|--------|--------|--------|--------|--------|--------|--------|
C#|--------|--------|--------|--------|--------|--------|--------|--------|--------|
G#|--------|--------|--------|--------|--------|--------|--------|--------|--------|
D#|--------|--------|--------|--------|--------|--------|--------|--------|--------|


D#|--------|--------|--------|--------|--------|--------|--------|--------|--------|
A#|--------|--------|--------|--------|--------|--------|--------|--------|--------|
F#|--------|--------|--------|--------|--------|--------|--------|--------|--------|
C#|--------|--------|--------|--------|--------|--------|--------|--------|--------|
G#|--------|--------|--------|--------|--------|--------|--------|--------|--------|
D#|--------|--------|--------|--------|--------|--------|--------|--------|--------|


D#|--------|--------|--------|--------|--------|--------|--------|--------|--------|
A#|--------|--------|--------|--------|--------|--------|--------|--------|--------|
F#|--------|--------|--------|--------|--------|--------|--------|--------|--------|
C#|--------|--------|--------|--------|--------|--------|--------|--------|--------|
G#|--------|--------|--------|--------|--------|--------|--------|--------|--------|
D#|--------|--------|--------|--------|--------|--------|--------|--------|--------|


D#|--------|--------|--------|--------|--------|--------|--------|--------|--------|
A#|--------|--------|--------|--------|--------|--------|--------|--------|--------|
F#|--------|--------|--------|--------|--------|--------|--------|--------|--------|
C#|--------|--------|--------|--------|--------|--------|--------|--------|--------|
G#|--------|--------|--------|--------|--------|--------|--------|--------|--------|
D#|--------|--------|--------|--------|--------|--------|--------|--------|--------|


D#|--------|--------|--------|--------|--------|
A#|--------|--------|--------|--------|--------|
F#|--------|--------|--------|--------|--------|
C#|--------|--------|--------|--------|--------|
G#|--------|--------|--------|--------|--------|
D#|--------|--------|--------|--------|--------|





Track 4: bass

F#|---------------------|---------------------|---------------------|---------------------|
C#|---------------------|---------------------|---------------------|---------------------|
G#|---------------------|-0----0----0----0----|---------------------|-2----2----2----2----|
D#|-2----2----2----2----|---------------------|-0----0----0----0----|---------------------|


F#|---------------------|---------------------|---------------------|---------------------|
C#|---------------------|---------------------|---------------------|---------------------|
G#|---------------------|-0----0----0----0----|---------------------|-2----2----2----2----|
D#|-2----2----2----2----|---------------------|-0----0----0----0----|---------------------|


F#|---------------------------|---------------------------|---------------------------|
C#|---------------------------|---------------------------|---------------------------|
G#|---------------------------|-0----0----0---0---0---0---|---------------------------|
D#|-2----2----2---2---2---2---|---------------------------|-0----0----0---0---0---0---|


F#|---------------------------|---------------------------|---------------------------|
C#|---------------------------|---------------------------|---------------------------|
G#|-2----2----2---2---2---2---|---------------------------|-0----0----0---0---0---0---|
D#|---------------------------|-2----2----2---2---2---2---|---------------------------|


F#|---------------------------|---------------------------|---------------------------|
C#|---------------------------|---------------------------|---------------------------|
G#|-2----2----2---2---2---2---|-2----2----2---2---2---2---|---------------------------|
D#|---------------------------|---------------------------|-2----2----2---2---2---2---|


F#|---------------------------|---------------------------|---------------------------|
C#|---------------------------|---------------------------|---------------------------|
G#|-0----0----0---0---0---0---|---------------------------|-2----2----2---2---2---2---|
D#|---------------------------|-0----0----0---0---0---0---|---------------------------|


F#|---------------------------|---------------------------|---------------------------|
C#|---------------------------|---------------------------|---------------------------|
G#|---------------------------|-0----0----0---0---0---0---|-2----2----2---2---2---2---|
D#|-2----2----2---2---2---2---|---------------------------|---------------------------|


F#|---------------------------|--------------------|------------------|--------------------|
C#|---------------------------|--------------------|------------------|--------------------|
G#|-2----2----2---2---2---2---|-4---4---------4----|-11----9-----7----|-4---4---------4----|
D#|---------------------------|--------------------|------------------|--------------------|


F#|------------------|---------------------------------|---------------------------------|
C#|------------------|---------------------------------|---------------------------------|
G#|-11----9-----7----|---------------------------------|---------------------------------|
D#|------------------|-5---5---5---5---9---9---9---9---|-0---0---0---0---4---4---4---4---|


F#|---------------------------------|---------------------------------|--------------------|
C#|---------------------------------|---------------------------------|--------------------|
G#|---------------------------------|---------------------------------|-4---4---------4----|
D#|-0---0---0---0---4---4---4---4---|-0---0---0---0---4---4---4---4---|--------------------|


F#|------------------|--------------------|------------------|---------------------------------|
C#|------------------|--------------------|------------------|---------------------------------|
G#|-11----9-----7----|-4---4---------4----|-11----9-----7----|---------------------------------|
D#|------------------|--------------------|------------------|-5---5---5---5---9---9---9---9---|


F#|---------------------------------|---------------------------------|---------------------------------|
C#|---------------------------------|---------------------------------|---------------------------------|
G#|---------------------------------|---------------------------------|---------------------------------|
D#|-0---0---0---0---4---4---4---4---|-0---0---0---0---4---4---4---4---|-0---0---0---0---4---4---4---4---|


F#|---------------------------|---------------------------|---------------------------|
C#|---------------------------|---------------------------|---------------------------|
G#|---------------------------|-0----0----0---0---0---0---|---------------------------|
D#|-2----2----2---2---2---2---|---------------------------|-0----0----0---0---0---0---|


F#|---------------------------|---------------------------|---------------------------|
C#|---------------------------|---------------------------|---------------------------|
G#|-2----2----2---2---2---2---|---------------------------|-0----0----0---0---0---0---|
D#|---------------------------|-2----2----2---2---2---2---|---------------------------|


F#|---------------------------|---------------------------|---------------------------|
C#|---------------------------|---------------------------|---------------------------|
G#|-2----2----2---2---2---2---|-2----2----2---2---2---2---|---------------------------|
D#|---------------------------|---------------------------|-2----2----2---2---2---2---|


F#|---------------------------|---------------------------|---------------------------|
C#|---------------------------|---------------------------|---------------------------|
G#|-0----0----0---0---0---0---|---------------------------|-2----2----2---2---2---2---|
D#|---------------------------|-0----0----0---0---0---0---|---------------------------|


F#|---------------------------|---------------------------|---------------------------|
C#|---------------------------|---------------------------|---------------------------|
G#|---------------------------|-0----0----0---0---0---0---|-2----2----2---2---2---2---|
D#|-2----2----2---2---2---2---|---------------------------|---------------------------|


F#|---------------------------|--------------------|------------------|--------------------|
C#|---------------------------|--------------------|------------------|--------------------|
G#|-2----2----2---2---2---2---|-4---4---------4----|-11----9-----7----|-4---4---------4----|
D#|---------------------------|--------------------|------------------|--------------------|


F#|------------------|---------------------------------|---------------------------------|
C#|------------------|---------------------------------|---------------------------------|
G#|-11----9-----7----|---------------------------------|---------------------------------|
D#|------------------|-5---5---5---5---9---9---9---9---|-0---0---0---0---4---4---4---4---|


F#|---------------------------------|---------------------------------|--------------------|
C#|---------------------------------|---------------------------------|--------------------|
G#|---------------------------------|---------------------------------|-4---4---------4----|
D#|-0---0---0---0---4---4---4---4---|-0---0---0---0---4---4---4---4---|--------------------|


F#|------------------|--------------------|------------------|---------------------------------|
C#|------------------|--------------------|------------------|---------------------------------|
G#|-11----9-----7----|-4---4---------4----|-11----9-----7----|---------------------------------|
D#|------------------|--------------------|------------------|-5---5---5---5---9---9---9---9---|


F#|---------------------------------|---------------------------------|---------------------------------|
C#|---------------------------------|---------------------------------|---------------------------------|
G#|---------------------------------|---------------------------------|---------------------------------|
D#|-0---0---0---0---4---4---4---4---|-0---0---0---0---4---4---4---4---|-0---0---0---0---4---4---4---4---|


F#|---------------------------------|---------------------------------|---------------------------------|
C#|---------------------------------|---------------------------------|---------------------------------|
G#|---------------------------------|---------------------------------|---------------------------------|
D#|-7---7---7---7---7---7---7---7---|-7---7---7---7---7---7---7---7---|-5---5---5---5---5---5---5---5---|


F#|---------------------------------|---------------------------|---------------------------|
C#|---------------------------------|---------------------------|---------------------------|
G#|---------------------------------|---------------------------|-0----0----0---0---0---0---|
D#|-7---7---7---7---7---7---7---7---|-2----2----2---2---2---2---|---------------------------|


F#|---------------------------|---------------------------|---------------------------|
C#|---------------------------|---------------------------|---------------------------|
G#|---------------------------|-2----2----2---2---2---2---|---------------------------|
D#|-0----0----0---0---0---0---|---------------------------|-2----2----2---2---2---2---|


F#|---------------------------|---------------------------|---------------------------|
C#|---------------------------|---------------------------|---------------------------|
G#|-0----0----0---0---0---0---|-2----2----2---2---2---2---|-2----2----2---2---2---2---|
D#|---------------------------|---------------------------|---------------------------|


F#|---------------------------|---------------------------|---------------------------|
C#|---------------------------|---------------------------|---------------------------|
G#|---------------------------|-0----0----0---0---0---0---|---------------------------|
D#|-2----2----2---2---2---2---|---------------------------|-0----0----0---0---0---0---|


F#|---------------------------|---------------------------|---------------------------|
C#|---------------------------|---------------------------|---------------------------|
G#|-2----2----2---2---2---2---|---------------------------|-0----0----0---0---0---0---|
D#|---------------------------|-2----2----2---2---2---2---|---------------------------|


F#|---------------------------|---------------------------|--------|--------|---------------------------------|
C#|---------------------------|---------------------------|--------|--------|---------------------------------|
G#|-2----2----2---2---2---2---|-2----2----2---2---2---2---|--------|--------|-2---2---2---2---2---2---2---2---|
D#|---------------------------|---------------------------|--------|--------|---------------------------------|


F#|---------------------------------|---------------------------------|---------------------------------|
C#|---------------------------------|---------------------------------|---------------------------------|
G#|-2---2---2---2---2---2---2---2---|-7---7---7---7---7---7---7---7---|-4---4---4---4---4---4---4---4---|
D#|---------------------------------|---------------------------------|---------------------------------|


F#|---------------------------------|---------------------------------|---------------------------------|
C#|---------------------------------|---------------------------------|---------------------------------|
G#|-2---2---2---2---2---2---2---2---|-2---2---2---2---2---2---2---2---|-7---7---7---7---7---7---7---7---|
D#|---------------------------------|---------------------------------|---------------------------------|


F#|---------------------------------|---------------------------------|---------------------------------|
C#|---------------------------------|---------------------------------|---------------------------------|
G#|-4---4---4---4---4---4---4---4---|-2---2---2---2---2---2---2---2---|-2---2---2---2---2---2---2---2---|
D#|---------------------------------|---------------------------------|---------------------------------|


F#|---------------------------------|---------------------------------|---------------------------------|
C#|---------------------------------|---------------------------------|---------------------------------|
G#|---------------------------------|---------------------------------|---------------------------------|
D#|-5---5---5---5---5---5---5---5---|-5---5---5---5---5---5---5---5---|-7---7---7---7---7---7---7---7---|


F#|---------------------------------|---------------------------------|---------------------------------|
C#|---------------------------------|---------------------------------|---------------------------------|
G#|---------------------------------|---------------------------------|---------------------------------|
D#|-7---7---7---7---7---7---7---7---|-5---5---5---5---5---5---5---5---|-7---7---7---7---7---7---7---7---|


F#|---------------------------|---------------------------|---------------------------|
C#|---------------------------|---------------------------|---------------------------|
G#|---------------------------|-0----0----0---0---0---0---|---------------------------|
D#|-2----2----2---2---2---2---|---------------------------|-0----0----0---0---0---0---|


F#|---------------------------|---------------------------|---------------------------|
C#|---------------------------|---------------------------|---------------------------|
G#|-2----2----2---2---2---2---|---------------------------|-0----0----0---0---0---0---|
D#|---------------------------|-2----2----2---2---2---2---|---------------------------|


F#|---------------------------|---------------------------|---------------------------|
C#|---------------------------|---------------------------|---------------------------|
G#|-2----2----2---2---2---2---|-2----2----2---2---2---2---|---------------------------|
D#|---------------------------|---------------------------|-2----2----2---2---2---2---|


F#|---------------------------|---------------------------|---------------------------|
C#|---------------------------|---------------------------|---------------------------|
G#|-0----0----0---0---0---0---|---------------------------|-2----2----2---2---2---2---|
D#|---------------------------|-0----0----0---0---0---0---|---------------------------|


F#|---------------------------|---------------------------|---------------------------|
C#|---------------------------|---------------------------|---------------------------|
G#|---------------------------|-0----0----0---0---0---0---|-2----2----2---2---2---2---|
D#|-2----2----2---2---2---2---|---------------------------|---------------------------|


F#|---------------------------|--------|--------|--------|--------|
C#|---------------------------|--------|--------|--------|--------|
G#|-2----2----2---2---2---2---|--------|--------|-2------|-2------|
D#|---------------------------|--------|--------|--------|--------|