Menu:

 

Search:

 

the killers - the ballad of michael valentine:

 



Title: The Ballad Of Michael Valentine
Artist: 
Album: Somebody Told Me
Author: The Killers


Track 1: clean w/ chorus

E|---------------------------------|---------------------------------|---------------------------------|
B|-----5---5---5---5---5---5---5---|-5---3---3---3---3---3---3---3---|-3---3---3---3---3---3---3---3---|
G|-----5---5---5---5---5---5---5---|-5---4---4---4---4---4---4---4---|-4---3---3---3---3---3---3---3---|
D|-----5---5---5---5---5---5---5---|-5---5---5---5---5---5---5---5---|-5---3---3---3---3---3---3---3---|
A|---------------------------------|---------------------------------|---------------------------------|
E|---------------------------------|---------------------------------|---------------------------------|


E|---------------------------------|---------------------------------|---------------------------------|
B|-3---1---1---1---1---1---1---1---|-1---6---6---6---6---6---6---6---|-6---5---5---5---5---5---5---5---|
G|-3---2---2---2---2---2---2---2---|-2---7---7---7---7---7---7---7---|-7---6---6---6---6---6---6---6---|
D|-3---3---3---3---3---3---3---3---|-3---7---7---7---7---7---7---7---|-7---7---7---7---7---7---7---7---|
A|---------------------------------|---------------------------------|---------------------------------|
E|---------------------------------|---------------------------------|---------------------------------|


E|---------------------------------|---------------------------------|---------------------------------|
B|-5---5---5---5---5---5---5---5---|-5---3---3---3---3---3---3---3---|-5---5---5---5---5---5---5---5---|
G|-6---5---5---5---5---5---5---5---|-5---4---4---4---4---4---4---4---|-5---5---5---5---5---5---5---5---|
D|-7---5---5---5---5---5---5---5---|-5---5---5---5---5---5---5---5---|-5---5---5---5---5---5---5---5---|
A|---------------------------------|---------------------------------|---------------------------------|
E|---------------------------------|---------------------------------|---------------------------------|


E|---------------------------------|---------------------------------|---------------------------------|
B|-3---3---3---3---3---3---3---3---|-3---3---3---3---3---3---3---3---|-1---1---1---1---1---1---1---1---|
G|-4---4---4---4---4---4---4---4---|-4---3---3---3---3---3---3---3---|-2---2---2---2---2---2---2---2---|
D|-5---5---5---5---5---5---5---5---|-5---3---3---3---3---3---3---3---|-3---3---3---3---3---3---3---3---|
A|---------------------------------|---------------------------------|---------------------------------|
E|---------------------------------|---------------------------------|---------------------------------|


E|---------------------------------|---------------------------------|---------------------------------|
B|-1---6---6---6---6---6---6---6---|-5---5---5---5---5---5---5---5---|-5---5---5---5---5---5---5---5---|
G|-2---7---7---7---7---7---7---7---|-6---6---6---6---6---6---6---6---|-5---5---5---5---5---5---5---5---|
D|-3---7---7---7---7---7---7---7---|-7---7---7---7---7---7---7---7---|-5---5---5---5---5---5---5---5---|
A|---------------------------------|---------------------------------|---------------------------------|
E|---------------------------------|---------------------------------|---------------------------------|


E|---------------------------------|--------|--------|--------|--------|--------|--------|
B|-3---3---3---3---3---3---3---3---|--------|--------|--------|--------|--------|--------|
G|-4---4---4---4---4---4---4---4---|--------|--------|--------|--------|--------|--------|
D|-5---5---5---5---5---5---5---5---|--------|--------|--------|--------|--------|--------|
A|---------------------------------|--------|--------|--------|--------|--------|--------|
E|---------------------------------|--------|--------|--------|--------|--------|--------|


E|--------|--------|--------|--------|--------|--------|--------|--------|--------|
B|--------|--------|--------|--------|--------|--------|--------|--------|--------|
G|--------|--------|--------|--------|--------|--------|--------|--------|--------|
D|--------|--------|--------|--------|--------|--------|--------|--------|--------|
A|--------|--------|--------|--------|--------|--------|--------|--------|--------|
E|--------|--------|--------|--------|--------|--------|--------|--------|--------|


E|--------|--------|--------|--------|--------|--------|--------|--------|--------|
B|--------|--------|--------|--------|--------|--------|--------|--------|--------|
G|--------|--------|--------|--------|--------|--------|--------|--------|--------|
D|--------|--------|--------|--------|--------|--------|--------|--------|--------|
A|--------|--------|--------|--------|--------|--------|--------|--------|--------|
E|--------|--------|--------|--------|--------|--------|--------|--------|--------|


E|--------|--------|--------|--------|--------|--------|--------|--------|--------|
B|--------|--------|--------|--------|--------|--------|--------|--------|--------|
G|--------|--------|--------|--------|--------|--------|--------|--------|--------|
D|--------|--------|--------|--------|--------|--------|--------|--------|--------|
A|--------|--------|--------|--------|--------|--------|--------|--------|--------|
E|--------|--------|--------|--------|--------|--------|--------|--------|--------|


E|--------|--------|--------|--------|--------|--------|--------|--------|--------|
B|--------|--------|--------|--------|--------|--------|--------|--------|--------|
G|--------|--------|--------|--------|--------|--------|--------|--------|--------|
D|--------|--------|--------|--------|--------|--------|--------|--------|--------|
A|--------|--------|--------|--------|--------|--------|--------|--------|--------|
E|--------|--------|--------|--------|--------|--------|--------|--------|--------|


E|--------|--------|--------|--------|--------|--------|--------|--------|--------|
B|--------|--------|--------|--------|--------|--------|--------|--------|--------|
G|--------|--------|--------|--------|--------|--------|--------|--------|--------|
D|--------|--------|--------|--------|--------|--------|--------|--------|--------|
A|--------|--------|--------|--------|--------|--------|--------|--------|--------|
E|--------|--------|--------|--------|--------|--------|--------|--------|--------|


E|--------|--------|--------|--------|--------|--------|--------|--------|--------|
B|--------|--------|--------|--------|--------|--------|--------|--------|--------|
G|--------|--------|--------|--------|--------|--------|--------|--------|--------|
D|--------|--------|--------|--------|--------|--------|--------|--------|--------|
A|--------|--------|--------|--------|--------|--------|--------|--------|--------|
E|--------|--------|--------|--------|--------|--------|--------|--------|--------|


E|--------|--------|--------|--------|--------|--------|--------|--------|--------|
B|--------|--------|--------|--------|--------|--------|--------|--------|--------|
G|--------|--------|--------|--------|--------|--------|--------|--------|--------|
D|--------|--------|--------|--------|--------|--------|--------|--------|--------|
A|--------|--------|--------|--------|--------|--------|--------|--------|--------|
E|--------|--------|--------|--------|--------|--------|--------|--------|--------|


E|--------|--------|--------|--------|--------|--------|--------|--------|--------|
B|--------|--------|--------|--------|--------|--------|--------|--------|--------|
G|--------|--------|--------|--------|--------|--------|--------|--------|--------|
D|--------|--------|--------|--------|--------|--------|--------|--------|--------|
A|--------|--------|--------|--------|--------|--------|--------|--------|--------|
E|--------|--------|--------|--------|--------|--------|--------|--------|--------|


E|--------|
B|--------|
G|--------|
D|--------|
A|--------|
E|--------|





Track 2: lead guitar (L)

E|--------|--------|--------|--------|--------|--------|--------|--------|--------|
B|--------|--------|--------|--------|--------|--------|--------|--------|--------|
G|--------|--------|--------|--------|--------|--------|--------|--------|--------|
D|--------|--------|--------|--------|--------|--------|--------|--------|--------|
A|--------|--------|--------|--------|--------|--------|--------|--------|--------|
E|--------|--------|--------|--------|--------|--------|--------|--------|--------|


E|--------|--------|--------|--------|--------|--------|--------|---------------------------|
B|--------|--------|--------|--------|--------|--------|--------|------5-------5------------|
G|--------|--------|--------|--------|--------|--------|--------|------5-------5--------5---|
D|--------|--------|--------|--------|--------|--------|--------|-----------------------5---|
A|--------|--------|--------|--------|--------|--------|--------|---------------------------|
E|--------|--------|--------|--------|--------|--------|--------|---------------------------|


E|---------------------------------|---------------------------|---------------------------------|
B|-----5---------------5-------5---|------5-------5------------|-----5---------------5-------5---|
G|-----5-------5-------5-------5---|------5-------5--------5---|-----5-------5-------5-------5---|
D|-7-----------5---7---------------|-----------------------5---|-7-----------5---7---------------|
A|---------------------------------|---------------------------|---------------------------------|
E|---------------------------------|---------------------------|---------------------------------|


E|--------|--------|--------|--------|--------|--------|--------|--------|---------------------------|
B|--------|--------|--------|--------|--------|--------|--------|--------|------5-------5------------|
G|--------|--------|--------|--------|--------|--------|--------|--------|------5-------5--------5---|
D|--------|--------|--------|--------|--------|--------|--------|--------|-----------------------5---|
A|--------|--------|--------|--------|--------|--------|--------|--------|---------------------------|
E|--------|--------|--------|--------|--------|--------|--------|--------|---------------------------|


E|---------------------------------|---------------------------|---------------------------------|
B|-----5---------------5-------5---|------5-------5------------|-----5---------------5-------5---|
G|-----5-------5-------5-------5---|------5-------5--------5---|-----5-------5-------5-------5---|
D|-7-----------5---7---------------|-----------------------5---|-7-----------5---7---------------|
A|---------------------------------|---------------------------|---------------------------------|
E|---------------------------------|---------------------------|---------------------------------|


E|---------------------------|---------------------------------|---------------------------|
B|------5-------5------------|-----5---------------5-------5---|------5-------5------------|
G|------5-------5--------5---|-----5-------5-------5-------5---|------5-------5--------5---|
D|-----------------------5---|-7-----------5---7---------------|-----------------------5---|
A|---------------------------|---------------------------------|---------------------------|
E|---------------------------|---------------------------------|---------------------------|


E|---------------------------------|--------|--------|--------|--------|--------|--------|
B|-----5---------------5-------5---|--------|--------|--------|--------|--------|--------|
G|-----5-------5-------5-------5---|--------|--------|--------|--------|--------|--------|
D|-7-----------5---7---------------|--------|--------|--------|--------|--------|--------|
A|---------------------------------|--------|--------|--------|--------|--------|--------|
E|---------------------------------|--------|--------|--------|--------|--------|--------|


E|--------|--------|--------|--------|---------------------------|---------------------------------|
B|--------|--------|--------|--------|------5-------5------------|-----5---------------5-------5---|
G|--------|--------|--------|--------|------5-------5--------5---|-----5-------5-------5-------5---|
D|--------|--------|--------|--------|-----------------------5---|-7-----------5---7---------------|
A|--------|--------|--------|--------|---------------------------|---------------------------------|
E|--------|--------|--------|--------|---------------------------|---------------------------------|


E|---------------------------|---------------------------------|---------------------------|
B|------5-------5------------|-----5---------------5-------5---|------5-------5------------|
G|------5-------5--------5---|-----5-------5-------5-------5---|------5-------5--------5---|
D|-----------------------5---|-7-----------5---7---------------|-----------------------5---|
A|---------------------------|---------------------------------|---------------------------|
E|---------------------------|---------------------------------|---------------------------|


E|---------------------------------|---------------------------|---------------------------------|
B|-----5---------------5-------5---|------5-------5------------|-----5---------------5-------5---|
G|-----5-------5-------5-------5---|------5-------5--------5---|-----5-------5-------5-------5---|
D|-7-----------5---7---------------|-----------------------5---|-7-----------5---7---------------|
A|---------------------------------|---------------------------|---------------------------------|
E|---------------------------------|---------------------------|---------------------------------|


E|--------|--------|--------|--------|--------|--------|--------|--------|--------|
B|--------|--------|--------|--------|--------|--------|--------|--------|--------|
G|--------|--------|--------|--------|--------|--------|--------|--------|--------|
D|--------|--------|--------|--------|--------|--------|--------|--------|--------|
A|--------|--------|--------|--------|--------|--------|--------|--------|--------|
E|--------|--------|--------|--------|--------|--------|--------|--------|--------|


E|--------|--------|--------|--------|--------|--------|--------|--------|--------|
B|--------|--------|--------|--------|--------|--------|--------|--------|--------|
G|--------|--------|--------|--------|--------|--------|--------|--------|--------|
D|--------|--------|--------|--------|--------|--------|--------|--------|--------|
A|--------|--------|--------|--------|--------|--------|--------|--------|--------|
E|--------|--------|--------|--------|--------|--------|--------|--------|--------|


E|--------|--------|--------|--------|--------|--------|--------|--------|--------|
B|--------|--------|--------|--------|--------|--------|--------|--------|--------|
G|--------|--------|--------|--------|--------|--------|--------|--------|--------|
D|--------|--------|--------|--------|--------|--------|--------|--------|--------|
A|--------|--------|--------|--------|--------|--------|--------|--------|--------|
E|--------|--------|--------|--------|--------|--------|--------|--------|--------|


E|--------|--------|--------|--------|--------|---------------------|--------------------------|
B|--------|--------|--------|--------|--------|-5----5----5----5----|-5----5----5----5--5------|
G|--------|--------|--------|--------|--------|-7----7----7----7----|-7----7----7----7--7--5---|
D|--------|--------|--------|--------|--------|---------------------|--------------------------|
A|--------|--------|--------|--------|--------|---------------------|--------------------------|
E|--------|--------|--------|--------|--------|---------------------|--------------------------|


E|---------------------|------------|---------------------------|---------------------------------|
B|-8----8----8----8----|-8----------|------5-------5------------|-----5---------------5-------5---|
G|-10---10---10---10---|-10---------|------5-------5--------5---|-----5-------5-------5-------5---|
D|---------------------|------------|-----------------------5---|-7-----------5---7---------------|
A|---------------------|------------|---------------------------|---------------------------------|
E|---------------------|------------|---------------------------|---------------------------------|


E|---------------------------|---------------------------------|--------|
B|------5-------5------------|-----5---------------5-------5---|--------|
G|------5-------5--------5---|-----5-------5-------5-------5---|--------|
D|-----------------------5---|-7-----------5---7---------------|--------|
A|---------------------------|---------------------------------|--------|
E|---------------------------|---------------------------------|--------|





Track 3: rhythm 1 (R)

E|--------|--------|--------|--------|--------|--------|--------|--------|--------|
B|--------|--------|--------|--------|--------|--------|--------|--------|--------|
G|--------|--------|--------|--------|--------|--------|--------|--------|--------|
D|--------|--------|--------|--------|--------|--------|--------|--------|--------|
A|--------|--------|--------|--------|--------|--------|--------|--------|--------|
E|--------|--------|--------|--------|--------|--------|--------|--------|--------|


E|--------|--------|--------|--------|--------|--------|--------|--------|--------|
B|--------|--------|--------|--------|--------|--------|--------|--------|--------|
G|--------|--------|--------|--------|--------|--------|--------|--------|--------|
D|--------|--------|--------|--------|--------|--------|--------|--------|--------|
A|--------|--------|--------|--------|--------|--------|--------|--------|--------|
E|--------|--------|--------|--------|--------|--------|--------|--------|--------|


E|--------|--------|--------|--------|--------|--------|--------|--------|--------|
B|--------|--------|--------|--------|--------|--------|--------|--------|--------|
G|--------|--------|--------|--------|--------|--------|--------|--------|--------|
D|--------|--------|--------|--------|--------|--------|--------|--------|--------|
A|--------|--------|--------|--------|--------|--------|--------|--------|--------|
E|--------|--------|--------|--------|--------|--------|--------|--------|--------|


E|--------|--------|--------|--------|--------|--------|--------|--------|--------|
B|--------|--------|--------|--------|--------|--------|--------|--------|--------|
G|--------|--------|--------|--------|--------|--------|--------|--------|--------|
D|--------|--------|--------|--------|--------|--------|--------|--------|--------|
A|--------|--------|--------|--------|--------|--------|--------|--------|--------|
E|--------|--------|--------|--------|--------|--------|--------|--------|--------|


E|---------------------------------|---------------------------------|---------------------------------|
B|---------------------------------|---------------------------------|---------------------------------|
G|-5---5---5---5---5---5---5---5---|-5---5---5---5---5---5---5---5---|-5---------------5-----------5---|
D|-5---5---5---5---5---5---5---5---|-5---5---5---5---5---5---5---5---|-5---5---5---5---5---5---5---5---|
A|-3---3---3---3---3---3---3---3---|-3---3---3---3---3---3---3---3---|-5---5---5---5---5---5---5---5---|
E|---------------------------------|---------------------------------|-3---3---3---3---3---3---3---3---|


E|---------------------------------|-4---4---4---4---4---4---4---4---|-5---5---5---5---5---5---5---5---|
B|---------------------------------|-5---5---5---5---5---5---5---5---|-5---5---5---5---5---5---5---5---|
G|---------9---9---7---7---5---5---|-4---4---4---4---4---4---4---4---|-5---5---5---5---5---5---5---5---|
D|-7---7---9---9---7---7---5---5---|-6---6---6---6---6---6---6---6---|-7---7---7---7---7---7---7---7---|
A|-7---7---7---7---5---5---3---3---|---------------------------------|---------------------------------|
E|-5---5---------------------------|---------------------------------|---------------------------------|


E|---------------------------------|---------------------------------|---------------------------------|
B|---------------------------------|---------------------------------|---------------------------------|
G|-5---5---5---5---5---5---5---5---|-2---2---2---2---2---2---2---2---|-2---2---2---2---2---2---2---2---|
D|-5---5---5---5---5---5---5---5---|-3---3---3---3---3---3---3---3---|-3---3---3---3---3---3---3---3---|
A|-3---3---3---3---3---3---3---3---|-3---3---3---3---3---3---3---3---|-3---3---3---3---3---3---3---3---|
E|---------------------------------|-1---1---1---1---1---1---1---1---|-1---1---1---1---1---1---1---1---|


E|---------------------------------|--------|--------|--------|--------|--------|--------|
B|---------------------------------|--------|--------|--------|--------|--------|--------|
G|-4---4---4---4---4---4---4---4---|--------|--------|--------|--------|--------|--------|
D|-5---5---5---5---5---5---5---5---|--------|--------|--------|--------|--------|--------|
A|-5---5---5---5---5---5---5---5---|--------|--------|--------|--------|--------|--------|
E|-3---3---3---3---3---3---3---3---|--------|--------|--------|--------|--------|--------|


E|--------|--------|--------|--------|--------|--------|--------|--------|--------|
B|--------|--------|--------|--------|--------|--------|--------|--------|--------|
G|--------|--------|--------|--------|--------|--------|--------|--------|--------|
D|--------|--------|--------|--------|--------|--------|--------|--------|--------|
A|--------|--------|--------|--------|--------|--------|--------|--------|--------|
E|--------|--------|--------|--------|--------|--------|--------|--------|--------|


E|--------|--------|--------|--------|--------|---------------------------------|---------------------------------|
B|--------|--------|--------|--------|--------|---------------------------------|---------------------------------|
G|--------|--------|--------|--------|--------|-5---5---5---5---5---5---5---5---|-5---5---5---5---5---5---5---5---|
D|--------|--------|--------|--------|--------|-5---5---5---5---5---5---5---5---|-5---5---5---5---5---5---5---5---|
A|--------|--------|--------|--------|--------|-3---3---3---3---3---3---3---3---|-3---3---3---3---3---3---3---3---|
E|--------|--------|--------|--------|--------|---------------------------------|---------------------------------|


E|---------------------------------|---------------------------------|-4---4---4---4---4---4---4---4---|
B|---------------------------------|---------------------------------|-5---5---5---5---5---5---5---5---|
G|-5---------------5---------------|---------9---9---7---7---5---5---|-4---4---4---4---4---4---4---4---|
D|-5---5---5---5---5---5---5---5---|-7---7---9---9---7---7---5---5---|-6---6---6---6---6---6---6---6---|
A|-5---5---5---5---5---5---5---5---|-7---7---7---7---5---5---3---3---|---------------------------------|
E|-3---3---3---3---3---3---3---3---|-5---5---------------------------|---------------------------------|


E|-5---5---5---5---5---5---5---5---|---------------------------------|---------------------------------|
B|-5---5---5---5---5---5---5---5---|-5-------------------------------|---------------------------------|
G|-5---5---5---5---5---5---5---5---|-5---5---5---5---5---5---5---5---|-2---2---2---2---2---2---2---2---|
D|-7---7---7---7---7---7---7---7---|-5---5---5---5---5---5---5---5---|-3---3---3---3---3---3---3---3---|
A|---------------------------------|-3---3---3---3---3---3---3---3---|-3---3---3---3---3---3---3---3---|
E|---------------------------------|---------------------------------|-1---1---1---1---1---1---1---1---|


E|---------------------------------|---------------------------------|---------------------------------|
B|---------------------------------|---------------------------------|---------------------------------|
G|-2---2---2---2---2---2---2---2---|-4---4---4---4---4---4---4---4---|-5---5---5---5---5---5---5---5---|
D|-3---3---3---3---3---3---3---3---|-5---5---5---5---5---5---5---5---|-5---5---5---5---5---5---5---5---|
A|-3---3---3---3---3---3---3---3---|-5---5---5---5---5---5---5---5---|-3---3---3---3---3---3---3---3---|
E|-1---1---1---1---1---1---1---1---|-3---3---3---3---3---3---3---3---|---------------------------------|


E|---------------------------------|---------------------------------|---------------------------------|
B|---------------------------------|---------------------------------|---------------------------------|
G|-5---5---5---5---5---5---5---5---|-5---------------5---------------|---------9---9---7---7---5---5---|
D|-5---5---5---5---5---5---5---5---|-5---5---5---5---5---5---5---5---|-7---7---9---9---7---7---5---5---|
A|-3---3---3---3---3---3---3---3---|-5---5---5---5---5---5---5---5---|-7---7---7---7---5---5---3---3---|
E|---------------------------------|-3---3---3---3---3---3---3---3---|-5---5---------------------------|


E|-4---4---4---4---4---4---4---4---|-5---5---5---5---5---5---5---5---|---------------------------------|
B|-5---5---5---5---5---5---5---5---|-5---5---5---5---5---5---5---5---|-5-------------------------------|
G|-4---4---4---4---4---4---4---4---|-5---5---5---5---5---5---5---5---|-5---5---5---5---5---5---5---5---|
D|-6---6---6---6---6---6---6---6---|-7---7---7---7---7---7---7---7---|-5---5---5---5---5---5---5---5---|
A|---------------------------------|---------------------------------|-3---3---3---3---3---3---3---3---|
E|---------------------------------|---------------------------------|---------------------------------|


E|---------------------------------|---------------------------------|---------------------------------|
B|---------------------------------|---------------------------------|---------------------------------|
G|-2---2---2---2---2---2---2---2---|-2---2---2---2---2---2---2---2---|-4---4---4---4---4---4---4---4---|
D|-3---3---3---3---3---3---3---3---|-3---3---3---3---3---3---3---3---|-5---5---5---5---5---5---5---5---|
A|-3---3---3---3---3---3---3---3---|-3---3---3---3---3---3---3---3---|-5---5---5---5---5---5---5---5---|
E|-1---1---1---1---1---1---1---1---|-1---1---1---1---1---1---1---1---|-3---3---3---3---3---3---3---3---|


E|--------|--------|--------|--------|--------|--------|--------|--------|--------|
B|--------|--------|--------|--------|--------|--------|--------|--------|--------|
G|--------|--------|--------|--------|--------|--------|--------|--------|--------|
D|--------|--------|--------|--------|--------|--------|--------|--------|--------|
A|--------|--------|--------|--------|--------|--------|--------|--------|--------|
E|--------|--------|--------|--------|--------|--------|--------|--------|--------|





Track 4: Untitled

G|--------|--------|--------|--------|--------|--------|--------|------------|----------------|
D|--------|--------|--------|--------|--------|--------|--------|------------|----------------|
A|--------|--------|--------|--------|--------|--------|--------|------------|----------------|
E|--------|--------|--------|--------|--------|--------|--------|--------3---|-8----------3---|


G|---------4-------------|------------3---|-2---------------------|----------------|
D|-----5-----------------|----------------|-----3-----------------|----------------|
A|-3---------------------|-1--------------|---------3-------------|----------------|
E|-------------------3---|----------------|-------------------3---|-10---------5---|


G|-----------------------|--------|-4-------------------------------|---------------------------------|
D|-----------------------|--------|-----5---5---5---5---5---5-------|---------------------------------|
A|-4---5---7-------------|--------|---------------------------------|-3---3---3---3---3---3---3---3---|
E|-------------------3---|-8------|---------------------------------|---------------------------------|


G|---------------------------------|---------------------------------|---------------------------------|
D|---------------------------------|---------------------------------|---------------------------------|
A|-3---3---3---3---3---3---3---3---|-3---3---3---3---3---3---3---3---|-3---3---3---3---3---3---3---3---|
E|---------------------------------|---------------------------------|---------------------------------|


G|---------------------------------|---------------------------------|---------------------------------|
D|---------------------------------|-----------------------------2---|---------------------------------|
A|-3---3---3---3---3---3---3---3---|-3---3---3---3---3---3---5-------|---------------------------------|
E|---------------------------------|---------------------------------|-0---0---0---0---0---0---0---0---|


G|---------------------------------|---------------------------------|---------------------------------|
D|---------------------------------|---------------------------------|---------------------------------|
A|---------------------------------|---------------------------------|---------------------------------|
E|-0---0---0---0---0---0---0---0---|-5---5---5---5---5---5---5---5---|-5---5---5---5---5---5---5---5---|


G|---------------------------------|---------------------------------|---------------------------------|
D|---------------------------------|---------------------------------|---------------------------------|
A|---------------------------------|---------------------------------|-3---3---3---3---3---3---3---3---|
E|-1---1---1---1---1---1---1---1---|-3---3---3---3---3---3---3---3---|---------------------------------|


G|---------------------------------|---------------------------------|---------------------------------|
D|-----------------------------2---|---------------------------------|---------------------------------|
A|-3---3---3---3---3---3---5-------|---------------------------------|---------------------------------|
E|---------------------------------|-0---0---0---0---0---0---0---0---|-0---0---0---0---0---0---0---0---|


G|---------------------------------|---------------------------------|---------------------------------|
D|---------------------------------|---------------------------------|---------------------------------|
A|---------------------------------|---------------------------------|---------------------------------|
E|-5---5---5---5---5---5---5---5---|-5---5---5---5---5---5---5---5---|-1---1---1---1---1---1---1---1---|


G|---------------------------------|---------------------------------|---------------------------------|
D|---------------------------------|---------------------------------|---------------------------------|
A|---------------------------------|-3---3---3---3---3---3---3---3---|-3---3---3---3---3---3---3---3---|
E|-3---3---3---3---3---3---3---3---|---------------------------------|---------------------------------|


G|---------------------------------|---------------------------------|---------------------------------|
D|---------------------------------|---------------------------------|---------------------------------|
A|---------------------------------|---------7---7---5---5---3---3---|---------------------------------|
E|-3---3---3---3---3---3---3---3---|-5---5---------------------------|-4---4---4---4---4---4---4---4---|


G|---------------------------------|---------------------------------|---------------------------------|
D|---------------------------------|---------------------------------|---------------------------------|
A|---------------------------------|-3---3---3---3---3---3---3---3---|---------------------------------|
E|-5---5---5---5---5---5---5---5---|---------------------------------|-1---1---1---1---1---1---1---1---|


G|---------------------------------|---------------------------------|---------------------------------|
D|---------------------------------|---------------------------------|---------------------------------|
A|---------------------------------|---------------------------------|-3---3---3---3---3---3---3---3---|
E|-1---1---1---1---1---0---1---2---|-3---3---3---3---3---3---3---3---|---------------------------------|


G|---------------------------------|---------------------------------|---------------------------------|
D|-----------------------------2---|---------------------------------|---------------------------------|
A|-3---3---3---3---3---3---5-------|---------------------------------|---------------------------------|
E|---------------------------------|-0---0---0---0---0---0---0---0---|-0---0---0---0---0---0---0---0---|


G|---------------------------------|---------------------------------|---------------------------------|
D|---------------------------------|---------------------------------|---------------------------------|
A|---------------------------------|---------------------------------|---------------------------------|
E|-5---5---5---5---5---5---5---5---|-5---5---5---5---5---5---5---5---|-1---1---1---1---1---1---1---1---|


G|---------------------------------|---------------------------------|---------------------------------|
D|---------------------------------|---------------------------------|---------------------------------|
A|---------------------------------|-3---3---3---3---3---3---3---3---|---------------------------------|
E|-3---3---3---3---3---3---3---3---|---------------------------------|-0---0---0---0---0---0---0---0---|


G|---------------------------------|---------------------------------|---------------------------------|
D|---------------------------------|---------------------------------|---------------------------------|
A|-0---0---0---0---0---0---0---0---|---------------------------------|-5-------5-------5-------5-------|
E|---------------------------------|-1---1---1---1---3---3---3---3---|---------------------------------|


G|---------------------------------|---------------------------------|---------------------------------|
D|---------------------------------|---------------------------------|---------------------------------|
A|-2-------2-------2-------2-------|-3-------3-------3-------3---3---|-0-------0-------0-------0-------|
E|---------------------------------|---------------------------------|---------------------------------|


G|---------------------------------|---------------------------------|---------------------------------|
D|---------------------------------|---------------------------------|---------------------------------|
A|---------------------------------|---------------------------------|---------------------------------|
E|-1---1---1---1---1---1---1---1---|-1---1---1---1---1---0---1---2---|-3---3---3---3---3---3---3---3---|


G|---------------------------------|---------------------------------|---------------------------------|
D|---------------------------------|---------------------------------|-----------------------------2---|
A|---------------------------------|-3---3---3---3---3---3---3---3---|-3---3---3---3---3---3---5-------|
E|-15--15--15--15--15--15--15--15--|---------------------------------|---------------------------------|


G|---------------------------------|---------------------------------|---------------------------------|
D|---------------------------------|---------------------------------|---------------------------------|
A|---------------------------------|---------7---7---5---5---3---3---|---------------------------------|
E|-3---3---3---3---3---3---3---3---|-5---5---------------------------|-4---4---4---4---4---4---4---4---|


G|---------------------------------|---------------------------------|---------------------------------|
D|---------------------------------|---------------------------------|---------------------------------|
A|---------------------------------|-3---3---3---3---3---3---3---3---|---------------------------------|
E|-5---5---5---5---5---5---5---5---|---------------------------------|-1---1---1---1---1---1---1---1---|


G|---------------------------------|---------------------------------|---------------------------------|
D|---------------------------------|---------------------------------|---------------------------------|
A|---------------------------------|---------------------------------|-3---3---3---3---3---3---3---3---|
E|-1---1---1---1---1---0---1---2---|-3---3---3---3---3---3---3---3---|---------------------------------|


G|---------------------------------|---------------------------------|---------------------------------|
D|-----------------------------2---|---------------------------------|---------------------------------|
A|-3---3---3---3---3---3---5-------|---------------------------------|---------7---7---5---5---3---3---|
E|---------------------------------|-3---3---3---3---3---3---3---3---|-5---5---------------------------|


G|---------------------------------|---------------------------------|---------------------------------|
D|---------------------------------|---------------------------------|---------------------------------|
A|---------------------------------|---------------------------------|-3---3---3---3---3---3---3---3---|
E|-4---4---4---4---4---4---4---4---|-5---5---5---5---5---5---5---5---|---------------------------------|


G|---------------------------------|---------------------------------|---------------------------------|
D|---------------------------------|---------------------------------|---------------------------------|
A|---------------------------------|---------------------------------|---------------------------------|
E|-1---1---1---1---1---1---1---1---|-1---1---1---1---1---0---1---2---|-3---3---3---3---3---3---3---3---|


G|---------------------------------|---------------------------------|---------------------------------|
D|---------------------------------|---------------------------------|---------------------------------|
A|---------------------------------|---------------------------------|---------------------------------|
E|-5---5---5---5---5---5---5---5---|-5---5---5---5---5---5---5---5---|-1---1---1---1---1---1---1---1---|


G|------------|---------------------------------|---------------------------------|
D|------------|---------------------------------|---------------------------------|
A|------------|-3---3---3---3---3---3---3---3---|-3---3---3---3---3---3---3---3---|
E|-3----------|---------------------------------|---------------------------------|


G|---------------------------------|------------|--------|
D|---------------------------------|------------|--------|
A|-3---3---3---3---3---3---3---3---|-3----------|--------|
E|---------------------------------|------------|--------|