Menu:

 

Search:

 

the killers - somebody told me:

 



Title: Somebody Told Me
Artist: 
Album: Hot Fuss
Author: Flowers, Keuning, Stoermer, and Vanucci


Track 1: Gtr. 1

D#|---------------------------------|---------------------------------|---------------------------------|
A#|-15--15--15--15--15--15--15--15--|-17--17--17--17--17--17--17--17--|-19--19--19--19--19--19--19--19--|
F#|-15--15--15--15--15--15--15--15--|-17--17--17--17--17--17--17--17--|-19--19--19--19--19--19--19--19--|
C#|-12--12--12--12--12--12--12--12--|-14--14--14--14--14--14--14--14--|-16--16--16--16--16--16--16--16--|
G#|---------------------------------|---------------------------------|---------------------------------|
D#|---------------------------------|---------------------------------|---------------------------------|


D#|---------------------------------|---------------------------------|---------------------------------|
A#|-20--20--20--20--20--20--20--20--|-15--15--15--15--15--15--15--15--|-17--17--17--17--17--17--17--17--|
F#|-20--20--20--20--20--20--20--20--|-15--15--15--15--15--15--15--15--|-17--17--17--17--17--17--17--17--|
C#|-17--17--17--17--17--17--17--17--|-12--12--12--12--12--12--12--12--|-14--14--14--14--14--14--14--14--|
G#|---------------------------------|---------------------------------|---------------------------------|
D#|---------------------------------|---------------------------------|---------------------------------|


D#|---------------------------------|---------------------------------|---------------------------------|
A#|-19--19--19--19--19--19--19--19--|-20--20--20--20--20--20--20--20--|-19--19--19--19--20--20--20--20--|
F#|-19--19--19--19--19--19--19--19--|-20--20--20--20--20--20--20--20--|-19--19--19--19--20--20--20--20--|
C#|-16--16--16--16--16--16--16--16--|-17--17--17--17--17--17--17--17--|-16--16--16--16--17--17--17--17--|
G#|---------------------------------|---------------------------------|---------------------------------|
D#|---------------------------------|---------------------------------|---------------------------------|


D#|---------------------------------|---------------------------------|---------------------------------|
A#|-22--22--22--22--20--20--20--20--|-19--19--19--19--20--20--20--20--|-19--19--19--19--19--19--19--19--|
F#|-22--22--22--22--20--20--20--20--|-19--19--19--19--20--20--20--20--|-19--19--19--19--19--19--19--19--|
C#|-19--19--19--19--17--17--17--17--|-16--16--16--16--17--17--17--17--|-16--16--16--16--16--16--16--16--|
G#|---------------------------------|---------------------------------|---------------------------------|
D#|---------------------------------|---------------------------------|---------------------------------|


D#|--------|--------|--------|--------|---------------------------------|---------------------------------|
A#|--------|--------|--------|--------|-19--19--19--19--20--20--20--20--|-22--22--22--22--20--20--20--20--|
F#|--------|--------|--------|--------|-19--19--19--19--20--20--20--20--|-22--22--22--22--20--20--20--20--|
C#|--------|--------|--------|--------|-16--16--16--16--17--17--17--17--|-19--19--19--19--17--17--17--17--|
G#|--------|--------|--------|--------|---------------------------------|---------------------------------|
D#|--------|--------|--------|--------|---------------------------------|---------------------------------|


D#|--------|--------|--------|--------|--------|--------|---------------------------------|
A#|--------|--------|--------|--------|--------|--------|-19--19--19--19--20--20--20--20--|
F#|--------|--------|--------|--------|--------|--------|-19--19--19--19--20--20--20--20--|
C#|--------|--------|--------|--------|--------|--------|-16--16--16--16--17--17--17--17--|
G#|--------|--------|--------|--------|--------|--------|---------------------------------|
D#|--------|--------|--------|--------|--------|--------|---------------------------------|


D#|---------------------------------|--------|--------|--------|--------|---------------------------------|
A#|-22--22--22--22--20--20--20--20--|--------|--------|--------|--------|---------------------------------|
F#|-22--22--22--22--20--20--20--20--|--------|--------|--------|--------|-12--12--12--12--12--12--12--12--|
C#|-19--19--19--19--17--17--17--17--|--------|--------|--------|--------|-12--12--12--12--12--12--12--12--|
G#|---------------------------------|--------|--------|--------|--------|---------------------------------|
D#|---------------------------------|--------|--------|--------|--------|---------------------------------|


D#|---------------------------------|-12--12--12--12--12--12--12--12--|-12--12--12--12--12--12--12--12--|
A#|-15--15--15--15--15--15--15--15--|-12--12--12--12--12--12--12--12--|-12--12--12--12--12--12--12--12--|
F#|-14--14--14--14--14--14--14--14--|---------------------------------|---------------------------------|
C#|---------------------------------|---------------------------------|---------------------------------|
G#|---------------------------------|---------------------------------|---------------------------------|
D#|---------------------------------|---------------------------------|---------------------------------|


D#|---------------------------------|---------------------------------|---------------------------------|
A#|---------------------------------|---------------------------------|-15--15--15--15--15--15--15--15--|
F#|-12--12--12--12--12--12--12--12--|-12--12--12--12--12--12--12--12--|-14--14--14--14--14--14--14--14--|
C#|-12--12--12--12--12--12--12--12--|-12--12--12--12--12--12--12--12--|---------------------------------|
G#|---------------------------------|---------------------------------|---------------------------------|
D#|---------------------------------|---------------------------------|---------------------------------|


D#|---------------------------|---------------------------------|---------------------------------|
A#|-15--15--15--15--15--------|-7---7---7---7---7---7---7---7---|-8---8---8---8---8---8---8---8---|
F#|-14--14--14--14--14--------|-7---7---7---7---7---7---7---7---|-7---7---7---7---7---7---7---7---|
C#|---------------------------|-0---0---0---0---0---0---0---0---|-0---0---0---0---0---0---0---0---|
G#|---------------------------|-0---0---0---0---0---0---0---0---|-0---0---0---0---0---0---0---0---|
D#|---------------------------|-7---7---7---7---7---7---7---7---|-7---7---7---7---7---7---7---7---|


D#|---------------------------------|-2---2---2---2---2---2---2---2---|---------------------------------|
A#|-5---5---5---5---5---5---5---5---|-2---2---2---2---2---2---2---2---|-7---7---7---7---7---7---7---7---|
F#|-6---6---6---6---6---6---6---6---|-3---3---3---3---3---3---3---3---|-7---7---7---7---7---7---7---7---|
C#|-0---0---0---0---0---0---0---0---|-4---4---4---4---4---4---4---4---|-0---0---0---0---0---0---0---0---|
G#|-5---5---5---5---5---5---5---5---|-4---4---4---4---4---4---4---4---|-0---0---0---0---0---0---0---0---|
D#|-5---5---5---5---5---5---5---5---|-2---2---2---2---2---2---2---2---|-7---7---7---7---7---7---7---7---|


D#|---------------------------------|---------------------------------|--------|--------|
A#|-8---8---8---8---8---8---8---8---|-5---5---5---5---5---5---5---5---|--------|--------|
F#|-7---7---7---7---7---7---7---7---|-6---6---6---6---6---6---6---6---|--------|--------|
C#|-0---0---0---0---0---0---0---0---|-0---0---0---0---0---0---0---0---|--------|--------|
G#|-0---0---0---0---0---0---0---0---|-5---5---5---5---5---5---5---5---|--------|--------|
D#|-7---7---7---7---7---7---7---7---|-5---5---5---5---5---5---5---5---|--------|--------|


D#|--------|--------|--------|---------------------------------|---------------------------------|
A#|--------|--------|--------|-19--19--19--19--20--20--20--20--|-22--22--22--22--20--20--20--20--|
F#|--------|--------|--------|-19--19--19--19--20--20--20--20--|-22--22--22--22--20--20--20--20--|
C#|--------|--------|--------|-16--16--16--16--17--17--17--17--|-19--19--19--19--17--17--17--17--|
G#|--------|--------|--------|---------------------------------|---------------------------------|
D#|--------|--------|--------|---------------------------------|---------------------------------|


D#|--------|--------|--------|--------|---------------------------------|---------------------------------|
A#|--------|--------|--------|--------|---------------------------------|-15--15--15--15--15--15--15--15--|
F#|--------|--------|--------|--------|-12--12--12--12--12--12--12--12--|-14--14--14--14--14--14--14--14--|
C#|--------|--------|--------|--------|-12--12--12--12--12--12--12--12--|---------------------------------|
G#|--------|--------|--------|--------|---------------------------------|---------------------------------|
D#|--------|--------|--------|--------|---------------------------------|---------------------------------|


D#|-12--12--12--12--12--12--12--12--|-12--12--12--12--12--12--12--12--|---------------------------------|
A#|-12--12--12--12--12--12--12--12--|-12--12--12--12--12--12--12--12--|---------------------------------|
F#|---------------------------------|---------------------------------|-12--12--12--12--12--12--12--12--|
C#|---------------------------------|---------------------------------|-12--12--12--12--12--12--12--12--|
G#|---------------------------------|---------------------------------|---------------------------------|
D#|---------------------------------|---------------------------------|---------------------------------|


D#|---------------------------------|---------------------------------|-------------|
A#|---------------------------------|-15--15--15--15--15--15--15--15--|-15----------|
F#|-12--12--12--12--12--12--12--12--|-14--14--14--14--14--14--14--14--|-14----------|
C#|-12--12--12--12--12--12--12--12--|---------------------------------|-------------|
G#|---------------------------------|---------------------------------|-------------|
D#|---------------------------------|---------------------------------|-------------|


D#|---------------------------------|---------------------------------|---------------------------------|
A#|-7---7---7---7---7---7---7---7---|-8---8---8---8---8---8---8---8---|-5---5---5---5---5---5---5---5---|
F#|-7---7---7---7---7---7---7---7---|-7---7---7---7---7---7---7---7---|-6---6---6---6---6---6---6---6---|
C#|-0---0---0---0---0---0---0---0---|-0---0---0---0---0---0---0---0---|-0---0---0---0---0---0---0---0---|
G#|-0---0---0---0---0---0---0---0---|-0---0---0---0---0---0---0---0---|-5---5---5---5---5---5---5---5---|
D#|-7---7---7---7---7---7---7---7---|-7---7---7---7---7---7---7---7---|-5---5---5---5---5---5---5---5---|


D#|-2---2---2---2---2---2---2---2---|---------------------------------|---------------------------------|
A#|-2---2---2---2---2---2---2---2---|-7---7---7---7---7---7---7---7---|-8---8---8---8---8---8---8---8---|
F#|-3---3---3---3---3---3---3---3---|-7---7---7---7---7---7---7---7---|-7---7---7---7---7---7---7---7---|
C#|-4---4---4---4---4---4---4---4---|-0---0---0---0---0---0---0---0---|-0---0---0---0---0---0---0---0---|
G#|-4---4---4---4---4---4---4---4---|-0---0---0---0---0---0---0---0---|-0---0---0---0---0---0---0---0---|
D#|-2---2---2---2---2---2---2---2---|-7---7---7---7---7---7---7---7---|-7---7---7---7---7---7---7---7---|


D#|---------------------------------|-2---2---2---2---2---2---2---2---|-12--------------|
A#|-5---5---5---5---5---5---5---5---|-2---2---2---2---2---2---2---2---|-------15--15----|
F#|-6---6---6---6---6---6---6---6---|-3---3---3---3---3---3---3---3---|-----------------|
C#|-0---0---0---0---0---0---0---0---|-4---4---4---4---4---4---4---4---|-----------------|
G#|-5---5---5---5---5---5---5---5---|-4---4---4---4---4---4---4---4---|-----------------|
D#|-5---5---5---5---5---5---5---5---|-2---2---2---2---2---2---2---2---|-----------------|


D#|-12--------------|-12---12----------------------|-12---12----------------------|
A#|-------15--15----|----------15--15--12------12--|----------15--15--12------12--|
F#|-----------------|----------------------14------|----------------------14------|
C#|-----------------|------------------------------|------------------------------|
G#|-----------------|------------------------------|------------------------------|
D#|-----------------|------------------------------|------------------------------|


D#|-12--------------|-12--------------|-12---12----------------------|-12--------------|
A#|-------15--15----|-------15--15----|----------15--15--12------12--|-------15--15----|
F#|-----------------|-----------------|----------------------14------|-----------------|
C#|-----------------|-----------------|------------------------------|-----------------|
G#|-----------------|-----------------|------------------------------|-----------------|
D#|-----------------|-----------------|------------------------------|-----------------|


D#|-12---12----------------------|-12---12----------------------|-12---12----------------------|
A#|----------15--15--12------12--|----------15--15--12------12--|----------15--15--12------12--|
F#|----------------------14------|----------------------14------|----------------------14------|
C#|------------------------------|------------------------------|------------------------------|
G#|------------------------------|------------------------------|------------------------------|
D#|------------------------------|------------------------------|------------------------------|


D#|-12---12----------------------|-12---12----------------------|-12---12----------------------|
A#|----------15--15--12------12--|----------15--15--12------12--|----------15--15--12------12--|
F#|----------------------14------|----------------------14------|----------------------14------|
C#|------------------------------|------------------------------|------------------------------|
G#|------------------------------|------------------------------|------------------------------|
D#|------------------------------|------------------------------|------------------------------|


D#|------------------------------|---------------------------------|---------------------------------|
A#|------------------------------|-7---7---7---7---7---7---7---7---|-8---8---8---8---8---8---8---8---|
F#|-14---14--14--14--14--14--14--|-7---7---7---7---7---7---7---7---|-7---7---7---7---7---7---7---7---|
C#|-14---14--14--14--14--14--14--|-0---0---0---0---0---0---0---0---|-0---0---0---0---0---0---0---0---|
G#|------------------------------|-0---0---0---0---0---0---0---0---|-0---0---0---0---0---0---0---0---|
D#|------------------------------|-7---7---7---7---7---7---7---7---|-7---7---7---7---7---7---7---7---|


D#|---------------------------------|-2---2---2---2---2---2---2---2---|---------------------------------|
A#|-5---5---5---5---5---5---5---5---|-2---2---2---2---2---2---2---2---|-7---7---7---7---7---7---7---7---|
F#|-6---6---6---6---6---6---6---6---|-3---3---3---3---3---3---3---3---|-7---7---7---7---7---7---7---7---|
C#|-0---0---0---0---0---0---0---0---|-4---4---4---4---4---4---4---4---|-0---0---0---0---0---0---0---0---|
G#|-5---5---5---5---5---5---5---5---|-4---4---4---4---4---4---4---4---|-0---0---0---0---0---0---0---0---|
D#|-5---5---5---5---5---5---5---5---|-2---2---2---2---2---2---2---2---|-7---7---7---7---7---7---7---7---|


D#|---------------------------------|---------------------------------|-2---2---2---2---2---2---2---2---|
A#|-8---8---8---8---8---8---8---8---|-5---5---5---5---5---5---5---5---|-2---2---2---2---2---2---2---2---|
F#|-7---7---7---7---7---7---7---7---|-6---6---6---6---6---6---6---6---|-3---3---3---3---3---3---3---3---|
C#|-0---0---0---0---0---0---0---0---|-0---0---0---0---0---0---0---0---|-4---4---4---4---4---4---4---4---|
G#|-0---0---0---0---0---0---0---0---|-5---5---5---5---5---5---5---5---|-4---4---4---4---4---4---4---4---|
D#|-7---7---7---7---7---7---7---7---|-5---5---5---5---5---5---5---5---|-2---2---2---2---2---2---2---2---|


D#|---------------------------------|---------------------------------|---------------------------------|
A#|-7---7---7---7---7---7---7---7---|-8---8---8---8---8---8---8---8---|-5---5---5---5---5---5---5---5---|
F#|-7---7---7---7---7---7---7---7---|-7---7---7---7---7---7---7---7---|-6---6---6---6---6---6---6---6---|
C#|-0---0---0---0---0---0---0---0---|-0---0---0---0---0---0---0---0---|-0---0---0---0---0---0---0---0---|
G#|-0---0---0---0---0---0---0---0---|-0---0---0---0---0---0---0---0---|-5---5---5---5---5---5---5---5---|
D#|-7---7---7---7---7---7---7---7---|-7---7---7---7---7---7---7---7---|-5---5---5---5---5---5---5---5---|


D#|-2---2---2---2---2---2---2---2---|---------------------------------|---------------------------------|
A#|-2---2---2---2---2---2---2---2---|-7---7---7---7---7---7---7---7---|-8---8---8---8---8---8---8---8---|
F#|-3---3---3---3---3---3---3---3---|-7---7---7---7---7---7---7---7---|-7---7---7---7---7---7---7---7---|
C#|-4---4---4---4---4---4---4---4---|-0---0---0---0---0---0---0---0---|-0---0---0---0---0---0---0---0---|
G#|-4---4---4---4---4---4---4---4---|-0---0---0---0---0---0---0---0---|-0---0---0---0---0---0---0---0---|
D#|-2---2---2---2---2---2---2---2---|-7---7---7---7---7---7---7---7---|-7---7---7---7---7---7---7---7---|


D#|---------------------------------|-2---2---2---2---2---2---2---2---|---------------------------------|
A#|-5---5---5---5---5---5---5---5---|-2---2---2---2---2---2---2---2---|-7---7---7---7---7---7---7---7---|
F#|-6---6---6---6---6---6---6---6---|-3---3---3---3---3---3---3---3---|-7---7---7---7---7---7---7---7---|
C#|-0---0---0---0---0---0---0---0---|-4---4---4---4---4---4---4---4---|-0---0---0---0---0---0---0---0---|
G#|-5---5---5---5---5---5---5---5---|-4---4---4---4---4---4---4---4---|-0---0---0---0---0---0---0---0---|
D#|-5---5---5---5---5---5---5---5---|-2---2---2---2---2---2---2---2---|-7---7---7---7---7---7---7---7---|


D#|---------------------------------|---------------------------------|-2---2---2---2---2---2---2---2---|
A#|-8---8---8---8---8---8---8---8---|-5---5---5---5---5---5---5---5---|-2---2---2---2---2---2---2---2---|
F#|-7---7---7---7---7---7---7---7---|-6---6---6---6---6---6---6---6---|-3---3---3---3---3---3---3---3---|
C#|-0---0---0---0---0---0---0---0---|-0---0---0---0---0---0---0---0---|-4---4---4---4---4---4---4---4---|
G#|-0---0---0---0---0---0---0---0---|-5---5---5---5---5---5---5---5---|-4---4---4---4---4---4---4---4---|
D#|-7---7---7---7---7---7---7---7---|-5---5---5---5---5---5---5---5---|-2---2---2---2---2---2---2---2---|


D#|---------------------------------|---------------------------------|---------------------------------|
A#|-7---7---7---7---7---7---7---7---|-8---8---8---8---8---8---8---8---|-5---5---5---5---5---5---5---5---|
F#|-7---7---7---7---7---7---7---7---|-7---7---7---7---7---7---7---7---|-6---6---6---6---6---6---6---6---|
C#|-0---0---0---0---0---0---0---0---|-0---0---0---0---0---0---0---0---|-0---0---0---0---0---0---0---0---|
G#|-0---0---0---0---0---0---0---0---|-0---0---0---0---0---0---0---0---|-5---5---5---5---5---5---5---5---|
D#|-7---7---7---7---7---7---7---7---|-7---7---7---7---7---7---7---7---|-5---5---5---5---5---5---5---5---|


D#|-2---2---2---2---2---2---2---2---|--------------------|
A#|-2---2---2---2---2---2---2---2---|-7---7--------------|
F#|-3---3---3---3---3---3---3---3---|-7---7--------------|
C#|-4---4---4---4---4---4---4---4---|-0---0--------------|
G#|-4---4---4---4---4---4---4---4---|-7---7--------------|
D#|-2---2---2---2---2---2---2---2---|-7---7--------------|





Track 2: Gtr. 2

D#|---------------------------------|---------------------------------|---------------------------------|
A#|---------------------------------|---------------------------------|---------------------------------|
F#|---------------------------------|---------------------------------|---------------------------------|
C#|-9---9---9---9---9---9---9---9---|-9---9---9---9---9---9---9---9---|-9---9---9---9---9---9---9---9---|
G#|-9---9---9---9---9---9---9---9---|-9---9---9---9---9---9---9---9---|-9---9---9---9---9---9---9---9---|
D#|-7---7---7---7---7---7---7---7---|-7---7---7---7---7---7---7---7---|-7---7---7---7---7---7---7---7---|


D#|---------------------------------|---------------------------------|---------------------------------|
A#|---------------------------------|---------------------------------|---------------------------------|
F#|---------------------------------|---------------------------------|---------------------------------|
C#|-9---9---9---9---9---9---9---9---|-9---9---9---9---9---9---9---9---|-9---9---9---9---9---9---9---9---|
G#|-9---9---9---9---9---9---9---9---|-9---9---9---9---9---9---9---9---|-9---9---9---9---9---9---9---9---|
D#|-7---7---7---7---7---7---7---7---|-7---7---7---7---7---7---7---7---|-7---7---7---7---7---7---7---7---|


D#|---------------------------------|---------------------------------|---------------------------------|
A#|---------------------------------|---------------------------------|---------------------------------|
F#|---------------------------------|---------------------------------|---------------------------------|
C#|-9---9---9---9---9---9---9---9---|-9---9---9---9---9---9---9---9---|-9---9---9---9---9---9---9---9---|
G#|-9---9---9---9---9---9---9---9---|-9---9---9---9---9---9---9---9---|-9---9---9---9---9---9---9---9---|
D#|-7---7---7---7---7---7---7---7---|-7---7---7---7---7---7---7---7---|-7---7---7---7---7---7---7---7---|


D#|---------------------------------|---------------------------------|---------------------------------|
A#|---------------------------------|---------------------------------|---------------------------------|
F#|---------------------------------|---------------------------------|---------------------------------|
C#|-9---9---9---9---9---9---9---9---|-9---9---9---9---9---9---9---9---|-9---9---9---9---9---9---9---9---|
G#|-9---9---9---9---9---9---9---9---|-9---9---9---9---9---9---9---9---|-9---9---9---9---9---9---9---9---|
D#|-7---7---7---7---7---7---7---7---|-7---7---7---7---7---7---7---7---|-7---7---7---7---7---7---7---7---|


D#|-------------------------------------------------|-------------------------------------------------|
A#|-0--0--0--0--0--0--0--0--0--0--0--0--0--0--0--0--|-0--0--0--0--0--0--0--0--0--0--0--0--0--0--0--0--|
F#|-0--0--0--0--0--0--0--0--0--0--0--0--0--0--0--0--|-0--0--0--0--0--0--0--0--0--0--0--0--0--0--0--0--|
C#|-0--0--0--0--0--0--0--0--0--0--0--0--0--0--0--0--|-0--0--0--0--0--0--0--0--0--0--0--0--0--0--0--0--|
G#|-0--0--0--0--0--0--0--0--0--0--0--0--0--0--0--0--|-0--0--0--0--0--0--0--0--0--0--0--0--0--0--0--0--|
D#|-------------------------------------------------|-------------------------------------------------|


D#|-------------------------------------------------|-------------------------------------------------|
A#|-0--0--0--0--0--0--0--0--0--0--0--0--0--0--0--0--|-0--0--0--0--0--0--0--0--0--0--0--0--0--0--0--0--|
F#|-0--0--0--0--0--0--0--0--0--0--0--0--0--0--0--0--|-0--0--0--0--0--0--0--0--0--0--0--0--0--0--0--0--|
C#|-0--0--0--0--0--0--0--0--0--0--0--0--0--0--0--0--|-0--0--0--0--0--0--0--0--0--0--0--0--0--0--0--0--|
G#|-0--0--0--0--0--0--0--0--0--0--0--0--0--0--0--0--|-0--0--0--0--0--0--0--0--0--0--0--0--0--0--0--0--|
D#|-------------------------------------------------|-------------------------------------------------|


D#|---------------------------------|---------------------------------|-------------------------------------------------|
A#|---------------------------------|---------------------------------|-0--0--0--0--0--0--0--0--0--0--0--0--0--0--0--0--|
F#|-0---0---0---0---0---0---0---4---|-4---4---4---4---4---4---4---0---|-0--0--0--0--0--0--0--0--0--0--0--0--0--0--0--0--|
C#|-2---2---2---2---2---2---2---0---|-0---0---0---0---0---0---0---0---|-0--0--0--0--0--0--0--0--0--0--0--0--0--0--0--0--|
G#|-2---2---2---2---2---2---2---0---|-0---0---0---0---0---0---0-------|-0--0--0--0--0--0--0--0--0--0--0--0--0--0--0--0--|
D#|-0---0---0---0---0---0---0---3---|-3---3---3---3---3---3---3-------|-------------------------------------------------|


D#|-------------------------------------------------|-------------------------------------------------|
A#|-0--0--0--0--0--0--0--0--0--0--0--0--0--0--0--0--|-0--0--0--0--0--0--0--0--0--0--0--0--0--0--0--0--|
F#|-0--0--0--0--0--0--0--0--0--0--0--0--0--0--0--0--|-0--0--0--0--0--0--0--0--0--0--0--0--0--0--0--0--|
C#|-0--0--0--0--0--0--0--0--0--0--0--0--0--0--0--0--|-0--0--0--0--0--0--0--0--0--0--0--0--0--0--0--0--|
G#|-0--0--0--0--0--0--0--0--0--0--0--0--0--0--0--0--|-0--0--0--0--0--0--0--0--0--0--0--0--0--0--0--0--|
D#|-------------------------------------------------|-------------------------------------------------|


D#|-------------------------------------------------|-------------------------------------------------|
A#|-0--0--0--0--0--0--0--0--0--0--0--0--0--0--0--0--|-0--0--0--0--0--0--0--0--0--0--0--0--0--0--0--0--|
F#|-0--0--0--0--0--0--0--0--0--0--0--0--0--0--0--0--|-0--0--0--0--0--0--0--0--0--0--0--0--0--0--0--0--|
C#|-0--0--0--0--0--0--0--0--0--0--0--0--0--0--0--0--|-0--0--0--0--0--0--0--0--0--0--0--0--0--0--0--0--|
G#|-0--0--0--0--0--0--0--0--0--0--0--0--0--0--0--0--|-0--0--0--0--0--0--0--0--0--0--0--0--0--0--0--0--|
D#|-------------------------------------------------|-------------------------------------------------|


D#|-------------------------------------------------|---------------------------------|
A#|-0--0--0--0--0--0--0--0--0--0--0--0--0--0--0--0--|---------------------------------|
F#|-0--0--0--0--0--0--0--0--0--0--0--0--0--0--0--0--|-0---0---0---0---0---0---0---4---|
C#|-0--0--0--0--0--0--0--0--0--0--0--0--0--0--0--0--|-2---2---2---2---2---2---2---0---|
G#|-0--0--0--0--0--0--0--0--0--0--0--0--0--0--0--0--|-2---2---2---2---2---2---2---0---|
D#|-------------------------------------------------|-0---0---0---0---0---0---0---3---|


D#|---------------------------------|-------------------------------------------------|
A#|---------------------------------|-0--0--0--0--0--0--0--0--0--0--0--0--0--0--0--0--|
F#|-4---4---4---4---4---4---4---0---|-0--0--0--0--0--0--0--0--0--0--0--0--0--0--0--0--|
C#|-0---0---0---0---0---0---0---0---|-0--0--0--0--0--0--0--0--0--0--0--0--0--0--0--0--|
G#|-0---0---0---0---0---0---0-------|-0--0--0--0--0--0--0--0--0--0--0--0--0--0--0--0--|
D#|-3---3---3---3---3---3---3-------|-------------------------------------------------|


D#|-------------------------------------------------|-------------------------------------------------|
A#|-0--0--0--0--0--0--0--0--0--0--0--0--0--0--0--0--|-0--0--0--0--0--0--0--0--0--0--0--0--0--0--0--0--|
F#|-0--0--0--0--0--0--0--0--0--0--0--0--0--0--0--0--|-0--0--0--0--0--0--0--0--0--0--0--0--0--0--0--0--|
C#|-0--0--0--0--0--0--0--0--0--0--0--0--0--0--0--0--|-0--0--0--0--0--0--0--0--0--0--0--0--0--0--0--0--|
G#|-0--0--0--0--0--0--0--0--0--0--0--0--0--0--0--0--|-0--0--0--0--0--0--0--0--0--0--0--0--0--0--0--0--|
D#|-------------------------------------------------|-------------------------------------------------|


D#|-------------------------------------------------|--------|--------|--------|--------|
A#|-0--0--0--0--0--0--0--0--0--0--0--0--0--0--0--0--|--------|--------|--------|--------|
F#|-0--0--0--0--0--0--0--0--0--0--0--0--0--0--0--0--|--------|--------|--------|--------|
C#|-0--0--0--0--0--0--0--0--0--0--0--0--0--0--0--0--|--------|--------|--------|--------|
G#|-0--0--0--0--0--0--0--0--0--0--0--0--0--0--0--0--|--------|--------|--------|--------|
D#|-------------------------------------------------|--------|--------|--------|--------|


D#|--------|--------|--------|--------|--------|--------|--------|--------|--------|
A#|--------|--------|--------|--------|--------|--------|--------|--------|--------|
F#|--------|--------|--------|--------|--------|--------|--------|--------|--------|
C#|--------|--------|--------|--------|--------|--------|--------|--------|--------|
G#|--------|--------|--------|--------|--------|--------|--------|--------|--------|
D#|--------|--------|--------|--------|--------|--------|--------|--------|--------|


D#|--------|--------|--------|-------------------------------------------------|-------------------------------------------------|
A#|--------|--------|--------|-0--0--0--0--0--0--0--0--0--0--0--0--0--0--0--0--|-0--0--0--0--0--0--0--0--0--0--0--0--0--0--0--0--|
F#|--------|--------|--------|-0--0--0--0--0--0--0--0--0--0--0--0--0--0--0--0--|-0--0--0--0--0--0--0--0--0--0--0--0--0--0--0--0--|
C#|--------|--------|--------|-0--0--0--0--0--0--0--0--0--0--0--0--0--0--0--0--|-0--0--0--0--0--0--0--0--0--0--0--0--0--0--0--0--|
G#|--------|--------|--------|-0--0--0--0--0--0--0--0--0--0--0--0--0--0--0--0--|-0--0--0--0--0--0--0--0--0--0--0--0--0--0--0--0--|
D#|--------|--------|--------|-------------------------------------------------|-------------------------------------------------|


D#|-------------------------------------------------|-------------------------------------------------|
A#|-0--0--0--0--0--0--0--0--0--0--0--0--0--0--0--0--|-0--0--0--0--0--0--0--0--0--0--0--0--0--0--0--0--|
F#|-0--0--0--0--0--0--0--0--0--0--0--0--0--0--0--0--|-0--0--0--0--0--0--0--0--0--0--0--0--0--0--0--0--|
C#|-0--0--0--0--0--0--0--0--0--0--0--0--0--0--0--0--|-0--0--0--0--0--0--0--0--0--0--0--0--0--0--0--0--|
G#|-0--0--0--0--0--0--0--0--0--0--0--0--0--0--0--0--|-0--0--0--0--0--0--0--0--0--0--0--0--0--0--0--0--|
D#|-------------------------------------------------|-------------------------------------------------|


D#|---------------------------------|---------------------------------|-------------------------------------------------|
A#|---------------------------------|---------------------------------|-0--0--0--0--0--0--0--0--0--0--0--0--0--0--0--0--|
F#|-0---0---0---0---0---0---0---4---|-4---4---4---4---4---4---4---0---|-0--0--0--0--0--0--0--0--0--0--0--0--0--0--0--0--|
C#|-2---2---2---2---2---2---2---0---|-0---0---0---0---0---0---0---0---|-0--0--0--0--0--0--0--0--0--0--0--0--0--0--0--0--|
G#|-2---2---2---2---2---2---2---0---|-0---0---0---0---0---0---0-------|-0--0--0--0--0--0--0--0--0--0--0--0--0--0--0--0--|
D#|-0---0---0---0---0---0---0---3---|-3---3---3---3---3---3---3-------|-------------------------------------------------|


D#|-------------------------------------------------|-------------------------------------------------|
A#|-0--0--0--0--0--0--0--0--0--0--0--0--0--0--0--0--|-0--0--0--0--0--0--0--0--0--0--0--0--0--0--0--0--|
F#|-0--0--0--0--0--0--0--0--0--0--0--0--0--0--0--0--|-0--0--0--0--0--0--0--0--0--0--0--0--0--0--0--0--|
C#|-0--0--0--0--0--0--0--0--0--0--0--0--0--0--0--0--|-0--0--0--0--0--0--0--0--0--0--0--0--0--0--0--0--|
G#|-0--0--0--0--0--0--0--0--0--0--0--0--0--0--0--0--|-0--0--0--0--0--0--0--0--0--0--0--0--0--0--0--0--|
D#|-------------------------------------------------|-------------------------------------------------|


D#|-------------------------------------------------|--------|--------|--------|--------|
A#|-0--0--0--0--0--0--0--0--0--0--0--0--0--0--0--0--|--------|--------|--------|--------|
F#|-0--0--0--0--0--0--0--0--0--0--0--0--0--0--0--0--|--------|--------|--------|--------|
C#|-0--0--0--0--0--0--0--0--0--0--0--0--0--0--0--0--|--------|--------|--------|--------|
G#|-0--0--0--0--0--0--0--0--0--0--0--0--0--0--0--0--|--------|--------|--------|--------|
D#|-------------------------------------------------|--------|--------|--------|--------|


D#|--------|--------|--------|--------|--------|--------|--------|--------|--------|
A#|--------|--------|--------|--------|--------|--------|--------|--------|--------|
F#|--------|--------|--------|--------|--------|--------|--------|--------|--------|
C#|--------|--------|--------|--------|--------|--------|--------|--------|--------|
G#|--------|--------|--------|--------|--------|--------|--------|--------|--------|
D#|--------|--------|--------|--------|--------|--------|--------|--------|--------|


D#|--------|--------|--------|--------|--------|--------|--------|--------|--------|
A#|--------|--------|--------|--------|--------|--------|--------|--------|--------|
F#|--------|--------|--------|--------|--------|--------|--------|--------|--------|
C#|--------|--------|--------|--------|--------|--------|--------|--------|--------|
G#|--------|--------|--------|--------|--------|--------|--------|--------|--------|
D#|--------|--------|--------|--------|--------|--------|--------|--------|--------|


D#|--------|--------|--------|--------|--------|--------|--------|--------|--------|
A#|--------|--------|--------|--------|--------|--------|--------|--------|--------|
F#|--------|--------|--------|--------|--------|--------|--------|--------|--------|
C#|--------|--------|--------|--------|--------|--------|--------|--------|--------|
G#|--------|--------|--------|--------|--------|--------|--------|--------|--------|
D#|--------|--------|--------|--------|--------|--------|--------|--------|--------|


D#|--------|--------|--------|--------|--------|--------|--------|--------|--------|
A#|--------|--------|--------|--------|--------|--------|--------|--------|--------|
F#|--------|--------|--------|--------|--------|--------|--------|--------|--------|
C#|--------|--------|--------|--------|--------|--------|--------|--------|--------|
G#|--------|--------|--------|--------|--------|--------|--------|--------|--------|
D#|--------|--------|--------|--------|--------|--------|--------|--------|--------|


D#|--------|--------|--------|--------|--------|--------|--------|--------|--------|
A#|--------|--------|--------|--------|--------|--------|--------|--------|--------|
F#|--------|--------|--------|--------|--------|--------|--------|--------|--------|
C#|--------|--------|--------|--------|--------|--------|--------|--------|--------|
G#|--------|--------|--------|--------|--------|--------|--------|--------|--------|
D#|--------|--------|--------|--------|--------|--------|--------|--------|--------|


D#|--------|--------|--------|--------|--------|--------|--------|
A#|--------|--------|--------|--------|--------|--------|--------|
F#|--------|--------|--------|--------|--------|--------|--------|
C#|--------|--------|--------|--------|--------|--------|--------|
G#|--------|--------|--------|--------|--------|--------|--------|
D#|--------|--------|--------|--------|--------|--------|--------|





Track 3: Gtr. 1

D#|--------|--------|--------|--------|--------|--------|--------|--------|--------|
A#|--------|--------|--------|--------|--------|--------|--------|--------|--------|
F#|--------|--------|--------|--------|--------|--------|--------|--------|--------|
C#|--------|--------|--------|--------|--------|--------|--------|--------|--------|
G#|--------|--------|--------|--------|--------|--------|--------|--------|--------|
D#|--------|--------|--------|--------|--------|--------|--------|--------|--------|


D#|--------|--------|--------|--------|--------|--------|--------|--------|--------|
A#|--------|--------|--------|--------|--------|--------|--------|--------|--------|
F#|--------|--------|--------|--------|--------|--------|--------|--------|--------|
C#|--------|--------|--------|--------|--------|--------|--------|--------|--------|
G#|--------|--------|--------|--------|--------|--------|--------|--------|--------|
D#|--------|--------|--------|--------|--------|--------|--------|--------|--------|


D#|--------|--------|--------|--------|--------|--------|--------|--------|--------|
A#|--------|--------|--------|--------|--------|--------|--------|--------|--------|
F#|--------|--------|--------|--------|--------|--------|--------|--------|--------|
C#|--------|--------|--------|--------|--------|--------|--------|--------|--------|
G#|--------|--------|--------|--------|--------|--------|--------|--------|--------|
D#|--------|--------|--------|--------|--------|--------|--------|--------|--------|


D#|--------|--------|--------|--------|--------|--------|--------|--------|--------|
A#|--------|--------|--------|--------|--------|--------|--------|--------|--------|
F#|--------|--------|--------|--------|--------|--------|--------|--------|--------|
C#|--------|--------|--------|--------|--------|--------|--------|--------|--------|
G#|--------|--------|--------|--------|--------|--------|--------|--------|--------|
D#|--------|--------|--------|--------|--------|--------|--------|--------|--------|


D#|--------|--------|--------|--------|--------|--------|--------|--------|--------|
A#|--------|--------|--------|--------|--------|--------|--------|--------|--------|
F#|--------|--------|--------|--------|--------|--------|--------|--------|--------|
C#|--------|--------|--------|--------|--------|--------|--------|--------|--------|
G#|--------|--------|--------|--------|--------|--------|--------|--------|--------|
D#|--------|--------|--------|--------|--------|--------|--------|--------|--------|


D#|--------|--------|--------|--------|--------|--------|--------|--------|--------|
A#|--------|--------|--------|--------|--------|--------|--------|--------|--------|
F#|--------|--------|--------|--------|--------|--------|--------|--------|--------|
C#|--------|--------|--------|--------|--------|--------|--------|--------|--------|
G#|--------|--------|--------|--------|--------|--------|--------|--------|--------|
D#|--------|--------|--------|--------|--------|--------|--------|--------|--------|


D#|--------|--------|--------|--------|--------|--------|--------|--------|--------|
A#|--------|--------|--------|--------|--------|--------|--------|--------|--------|
F#|--------|--------|--------|--------|--------|--------|--------|--------|--------|
C#|--------|--------|--------|--------|--------|--------|--------|--------|--------|
G#|--------|--------|--------|--------|--------|--------|--------|--------|--------|
D#|--------|--------|--------|--------|--------|--------|--------|--------|--------|


D#|--------|--------|--------|--------|--------|--------|--------|--------|--------|
A#|--------|--------|--------|--------|--------|--------|--------|--------|--------|
F#|--------|--------|--------|--------|--------|--------|--------|--------|--------|
C#|--------|--------|--------|--------|--------|--------|--------|--------|--------|
G#|--------|--------|--------|--------|--------|--------|--------|--------|--------|
D#|--------|--------|--------|--------|--------|--------|--------|--------|--------|


D#|--------|--------|--------|--------|--------|--------|--------|--------|--------|
A#|--------|--------|--------|--------|--------|--------|--------|--------|--------|
F#|--------|--------|--------|--------|--------|--------|--------|--------|--------|
C#|--------|--------|--------|--------|--------|--------|--------|--------|--------|
G#|--------|--------|--------|--------|--------|--------|--------|--------|--------|
D#|--------|--------|--------|--------|--------|--------|--------|--------|--------|


D#|--------|--------|--------|--------|--------|--------|--------|--------|--------|
A#|--------|--------|--------|--------|--------|--------|--------|--------|--------|
F#|--------|--------|--------|--------|--------|--------|--------|--------|--------|
C#|--------|--------|--------|--------|--------|--------|--------|--------|--------|
G#|--------|--------|--------|--------|--------|--------|--------|--------|--------|
D#|--------|--------|--------|--------|--------|--------|--------|--------|--------|


D#|--------|--------|--------|--------|--------|--------|--------|--------|--------|
A#|--------|--------|--------|--------|--------|--------|--------|--------|--------|
F#|--------|--------|--------|--------|--------|--------|--------|--------|--------|
C#|--------|--------|--------|--------|--------|--------|--------|--------|--------|
G#|--------|--------|--------|--------|--------|--------|--------|--------|--------|
D#|--------|--------|--------|--------|--------|--------|--------|--------|--------|


D#|--------|--------|--------|--------|--------|--------|--------|--------|--------|
A#|--------|--------|--------|--------|--------|--------|--------|--------|--------|
F#|--------|--------|--------|--------|--------|--------|--------|--------|--------|
C#|--------|--------|--------|--------|--------|--------|--------|--------|--------|
G#|--------|--------|--------|--------|--------|--------|--------|--------|--------|
D#|--------|--------|--------|--------|--------|--------|--------|--------|--------|


D#|--------|--------|--------|--------|
A#|--------|--------|--------|--------|
F#|--------|--------|--------|--------|
C#|--------|--------|--------|--------|
G#|--------|--------|--------|--------|
D#|--------|--------|--------|--------|





Track 4: Synth

D#|--------|--------|--------|--------|--------|--------|--------|--------|--------|
A#|--------|--------|--------|--------|--------|--------|--------|--------|--------|
F#|--------|--------|--------|--------|--------|--------|--------|--------|--------|
C#|--------|--------|--------|--------|--------|--------|--------|--------|--------|
G#|--------|--------|--------|--------|--------|--------|--------|--------|--------|
D#|--------|--------|--------|--------|--------|--------|--------|--------|--------|


D#|--------|--------|--------|--------|--------|--------|--------|--------|--------|
A#|--------|--------|--------|--------|--------|--------|--------|--------|--------|
F#|--------|--------|--------|--------|--------|--------|--------|--------|--------|
C#|--------|--------|--------|--------|--------|--------|--------|--------|--------|
G#|--------|--------|--------|--------|--------|--------|--------|--------|--------|
D#|--------|--------|--------|--------|--------|--------|--------|--------|--------|


D#|--------|--------|--------|--------|--------|--------|--------|--------|--------|
A#|--------|--------|--------|--------|--------|--------|--------|--------|--------|
F#|--------|--------|--------|--------|--------|--------|--------|--------|--------|
C#|--------|--------|--------|--------|--------|--------|--------|--------|--------|
G#|--------|--------|--------|--------|--------|--------|--------|--------|--------|
D#|--------|--------|--------|--------|--------|--------|--------|--------|--------|


D#|--------|--------|--------|--------|--------|--------|--------|--------|--------|
A#|--------|--------|--------|--------|--------|--------|--------|--------|--------|
F#|--------|--------|--------|--------|--------|--------|--------|--------|--------|
C#|--------|--------|--------|--------|--------|--------|--------|--------|--------|
G#|--------|--------|--------|--------|--------|--------|--------|--------|--------|
D#|--------|--------|--------|--------|--------|--------|--------|--------|--------|


D#|--------|--------|--------|--------|--------|--------|--------|--------|--------|
A#|--------|--------|--------|--------|--------|--------|--------|--------|--------|
F#|--------|--------|--------|--------|--------|--------|--------|--------|--------|
C#|--------|--------|--------|--------|--------|--------|--------|--------|--------|
G#|--------|--------|--------|--------|--------|--------|--------|--------|--------|
D#|--------|--------|--------|--------|--------|--------|--------|--------|--------|


D#|------------------------------|-10-----|-12-----|-14-----|-15-----|-15-----|-12-----|
A#|-----12--12------10--10-------|-12-----|-14-----|-15-----|-17-----|-17-----|-14-----|
F#|-------------------------9----|-7------|-9------|-11-----|-12-----|-12-----|-9------|
C#|-9-----------9----------------|-9------|-11-----|-12-----|-14-----|-14-----|-11-----|
G#|------------------------------|--------|--------|--------|--------|--------|--------|
D#|------------------------------|--------|--------|--------|--------|--------|--------|


D#|-14-----|-14-----|-10-----|-10-----|-15-----|-12-----|-14-----|-10----------|-------------|
A#|-15-----|-15-----|-12-----|-12-----|-17-----|-14-----|-15-----|-12-----10---|-12----14----|
F#|-11-----|-11-----|-7------|-7------|-12-----|-9------|-11-----|-7------11---|-12----14----|
C#|-12-----|-12-----|-9------|-9------|-14-----|-11-----|-12-----|-9------7----|-9-----11----|
G#|--------|--------|--------|--------|--------|--------|--------|--------9----|-10----12----|
D#|--------|--------|--------|--------|--------|--------|--------|-------------|-------------|


D#|-10----12----|-14----12----|-12-----|--------|--------|--------|--------|--------|
A#|-12----14----|-15----14----|-14-----|--------|--------|--------|--------|--------|
F#|-7-----9-----|-11----9-----|-9------|--------|--------|--------|--------|--------|
C#|-9-----11----|-12----11----|-11-----|--------|--------|--------|--------|--------|
G#|-------------|-------------|--------|--------|--------|--------|--------|--------|
D#|-------------|-------------|--------|--------|--------|--------|--------|--------|


D#|--------|--------|--------|--------|--------|--------|--------|--------|--------|
A#|--------|--------|--------|--------|--------|--------|--------|--------|--------|
F#|--------|--------|--------|--------|--------|--------|--------|--------|--------|
C#|--------|--------|--------|--------|--------|--------|--------|--------|--------|
G#|--------|--------|--------|--------|--------|--------|--------|--------|--------|
D#|--------|--------|--------|--------|--------|--------|--------|--------|--------|


D#|--------|--------|--------|--------|--------|--------|--------|--------|--------|
A#|--------|--------|--------|--------|--------|--------|--------|--------|--------|
F#|--------|--------|--------|--------|--------|--------|--------|--------|--------|
C#|--------|--------|--------|--------|--------|--------|--------|--------|--------|
G#|--------|--------|--------|--------|--------|--------|--------|--------|--------|
D#|--------|--------|--------|--------|--------|--------|--------|--------|--------|


D#|--------|--------|--------|--------|--------|--------|--------|--------|--------|
A#|--------|--------|--------|--------|--------|--------|--------|--------|--------|
F#|--------|--------|--------|--------|--------|--------|--------|--------|--------|
C#|--------|--------|--------|--------|--------|--------|--------|--------|--------|
G#|--------|--------|--------|--------|--------|--------|--------|--------|--------|
D#|--------|--------|--------|--------|--------|--------|--------|--------|--------|


D#|--------|--------|--------|--------|--------|--------|--------|--------|--------|
A#|--------|--------|--------|--------|--------|--------|--------|--------|--------|
F#|--------|--------|--------|--------|--------|--------|--------|--------|--------|
C#|--------|--------|--------|--------|--------|--------|--------|--------|--------|
G#|--------|--------|--------|--------|--------|--------|--------|--------|--------|
D#|--------|--------|--------|--------|--------|--------|--------|--------|--------|


D#|--------|--------|--------|--------|--------|--------|--------|
A#|--------|--------|--------|--------|--------|--------|--------|
F#|--------|--------|--------|--------|--------|--------|--------|
C#|--------|--------|--------|--------|--------|--------|--------|
G#|--------|--------|--------|--------|--------|--------|--------|
D#|--------|--------|--------|--------|--------|--------|--------|





Track 5: Synth Bass

F#|--------|--------|--------|--------|-----16--16------14--14------12--|-12--12--12----------------------|
C#|--------|--------|--------|--------|---------------------------------|-----------------16--16--16--12--|
G#|--------|--------|--------|--------|-14----------14----------14------|-------------14------------------|
D#|-7------|-7------|-7------|-7------|---------------------------------|---------------------------------|


F#|-----16--16-----|--------|-----------------------------12--|-12--12--12--11--12--12--12--11--|
C#|----------------|--------|-14--14--14--14--12--12--12------|---------------------------------|
G#|-14-------------|--------|---------------------------------|---------------------------------|
D#|----------------|--------|---------------------------------|---------------------------------|


F#|----------------|-----------------------|---------------------------------|---------------------------------|
C#|----------------|-----------------------|---------------------------------|---------------------------------|
G#|-14--14--14-----|-----------7---7---9---|---------------------------------|---------------------------------|
D#|----------------|-----------------------|-7---7---7---7---7---7---7---7---|-7---7---7---7---7---7---7---7---|


F#|---------------------------------|---------------------------------|---------------------------------|
C#|---------------------------------|---------------------------------|---------------------------------|
G#|---------------------------------|---------------------------------|-7---7---7---7---7---7---7---7---|
D#|-7---7---7---7---7---7---7---7---|-7---7---7---7---7---7---10--10--|---------------------------------|


F#|---------------------------------|---------------------------------|------------------------------|
C#|---------------------------------|---------------------------------|-----------------9---7---9----|
G#|-10--10--10--9---10--10--10--9---|---------------------------------|------------------------------|
D#|---------------------------------|-7---7---7---7---7---7---7---7---|-7---7---7---7----------------|


F#|---------------------------------|-------------------------------------|---------------------------------|
C#|---------------------------------|-------------------------------------|---------------------------------|
G#|---------------------------------|-------------------------------------|---------------------------------|
D#|-7---7---7---7---7---7---7---7---|-7---7---7---7---7---5--6--7---5--6--|-7---7---7---7---7---7---7---7---|


F#|---------------------------------|---------------------------------|---------------------------------|
C#|---------------------------------|---------------------------------|---------------------------------|
G#|-------------------------9---9---|-7---7-----------7---7-------9---|-10--10--10--9---10--10--10--9---|
D#|-7---7---9---9---10--10----------|---------0---0-----------0-------|---------------------------------|


F#|---------------------------------|------------------------------|---------------------------------|
C#|---------------------------------|---------------------7---9----|---------------------------------|
G#|---------------------------------|------------------------------|---------------------------------|
D#|-7---7---7---7---7---7---7---7---|-7---7---7---7---7------------|-7---7---7---7---7---7---7---7---|


F#|---------------------------------|---------------------------------|---------------------------------|
C#|---------------------------------|---------------------------------|---------------------------------|
G#|---------------------------------|---------------------------------|---------------------------------|
D#|-7---7---9---9---10--10--9---9---|-3---3---3---3---3---3---3---3---|-5---5---5---5---5---5---5---5---|


F#|-------------------------------------|------------------------------------|---------------------------------|
C#|-------------------------------------|-----7--8--9---7--8--9---7--8--9----|---------------------------------|
G#|-------------------------------------|------------------------------------|---------------------------------|
D#|-7---7---7---5--6--7---7---7---5--6--|-7----------------------------------|-3---3---3---3---3---3---3---3---|


F#|---------------------------------|---------------------------------|------------------------|
C#|---------------------------------|---------------------------------|------------------------|
G#|---------------------------------|---------------------------------|------------------------|
D#|-3---3---3---3---3---3---3---3---|-5---5---5---5---5---5---5---5---|-5----5-------------5---|


F#|------------------------------|------------------------------|------------------------------|
C#|-------------2-------4--------|------------------------------|------------------------------|
G#|-2---2---2----------------2---|-------------5-------7--------|-------------5-------7--------|
D#|------------------------------|-3---3---3----------------3---|-5---5---5----------------5---|


F#|------------------------------|------------------------------|------------------------------|
C#|------------------------------|-------------2-------4--------|------------------------------|
G#|-------------5-------4----0---|-2---2---2----------------2---|-------------5-------7--------|
D#|-2---2---2--------------------|------------------------------|-3---3---3----------------3---|


F#|------------------------------|-----------------|---------------------------------|
C#|------------------------------|-----------------|---------------------------------|
G#|-------------5-------7--------|-----------------|---------------------------------|
D#|-5---5---5----------------5---|-2---------------|-7---7---7---7---7---7---7---7---|


F#|--------------------------------|---------------------------------|---------------------------------|
C#|---------------------7--8--9----|---------------------------------|---------------------------------|
G#|--------------------------------|---------------------------------|-------------------------9---9---|
D#|-7---7---7---7---7--------------|-7---7---7---7---7---7---7---7---|-7---7---9---9---10--10----------|


F#|---------------------------------|---------------------------------|---------------------------------|
C#|---------------------------------|---------------------------------|---------------------------------|
G#|-7---7-----------7---7-------9---|-10--10--10--9---10--10--10--9---|---------------------------------|
D#|---------0---0-----------0-------|---------------------------------|-7---7---7---7---7---7---7---7---|


F#|-------------------------------------|---------------------------------|---------------------------------|
C#|-------------------------------------|---------------------------------|---------------------------------|
G#|-------------------------------------|---------------------------------|---------------------------------|
D#|-7---7---7---7---7---5--6--7---5--6--|-7---7---7---7---7---7---7---7---|-7---7---9---9---10--10--9---9---|


F#|---------------------------------|---------------------------------|-------------------------------------|
C#|---------------------------------|---------------------------------|-------------------------------------|
G#|---------------------------------|---------------------------------|-------------------------------------|
D#|-3---3---3---3---3---3---3---3---|-5---5---5---5---5---5---5---5---|-7---7---7---5--6--7---7---7---5--6--|


F#|------------------------------------|---------------------------------|---------------------------------|
C#|-----7--8--9---7--8--9---7--8--9----|---------------------------------|---------------------------------|
G#|------------------------------------|---------------------------------|---------------------------------|
D#|-7----------------------------------|-3---3---3---3---3---3---3---3---|-3---3---3---3---3---3---3---3---|


F#|---------------------------------|------------------------|------------------------------|
C#|---------------------------------|------------------------|-------------2-------4--------|
G#|---------------------------------|------------------------|-2---2---2----------------2---|
D#|-5---5---5---5---5---5---5---5---|-5----5-------------5---|------------------------------|


F#|------------------------------|------------------------------|------------------------------|
C#|------------------------------|------------------------------|------------------------------|
G#|-------------5-------7--------|-------------5-------7--------|-------------5-------4----0---|
D#|-3---3---3----------------3---|-5---5---5----------------5---|-2---2---2--------------------|


F#|------------------------------|------------------------------|------------------------------|
C#|-------------2-------4--------|------------------------------|------------------------------|
G#|-2---2---2----------------2---|-------------5-------7--------|-------------5-------7--------|
D#|------------------------------|-3---3---3----------------3---|-5---5---5----------------5---|


F#|------------------------------|------------------------------|------------------------------|
C#|-------------2-------4--------|------------------------------|------------------------------|
G#|-2---2---2----------------2---|-------------5-------7--------|-------------5-------7--------|
D#|------------------------------|-3---3---3----------------3---|-5---5---5----------------5---|


F#|------------------------------|------------------------------|------------------------------|
C#|------------------------------|-------------2-------4--------|------------------------------|
G#|-------------5-------4----0---|-2---2---2----------------2---|-------------5-------7--------|
D#|-2---2---2--------------------|------------------------------|-3---3---3----------------3---|


F#|------------------------------|------------------------------|---------------------------------|
C#|------------------------------|------------------------------|---------------------------------|
G#|-------------5-------7--------|-------------5-------4----0---|-2---2---2---2---2---2---2---2---|
D#|-5---5---5----------------5---|-2---2---2--------------------|---------------------------------|


F#|---------------------------------|---------------------------------|---------------------------------|
C#|---------------------------------|---------------------------------|---------------------------------|
G#|---------------------------------|---------------------------------|---------------------------------|
D#|-3---3---3---3---3---3---3---3---|-5---5---5---5---5---5---5---5---|-2---2---2---2---2---2---2---2---|


F#|---------------------------------|---------------------------------|---------------------------------|
C#|---------------------------------|---------------------------------|---------------------------------|
G#|-2---2---2---2---2---2---2---2---|---------------------------------|---------------------------------|
D#|---------------------------------|-3---3---3---3---3---3---3---3---|-5---5---5---5---5---5---5---5---|


F#|---------------------------------|----------------|--------|--------|--------|--------|
C#|---------------------------------|----------------|--------|--------|--------|--------|
G#|---------------------------------|-2---2----------|--------|--------|--------|--------|
D#|-2---2---2---2---2---2---2---2---|----------------|--------|--------|--------|--------|


F#|--------|--------|--------|--------|--------|--------|--------|--------|--------|
C#|--------|--------|--------|--------|--------|--------|--------|--------|--------|
G#|--------|--------|--------|--------|--------|--------|--------|--------|--------|
D#|--------|--------|--------|--------|--------|--------|--------|--------|--------|


F#|--------|--------|--------|--------|--------|--------|--------|--------|--------|
C#|--------|--------|--------|--------|--------|--------|--------|--------|--------|
G#|--------|--------|--------|--------|--------|--------|--------|--------|--------|
D#|--------|--------|--------|--------|--------|--------|--------|--------|--------|


F#|--------|--------|
C#|--------|--------|
G#|--------|--------|
D#|--------|--------|