Menu:

 

Search:

 

the killers - smile like you mean it:

 



Title: Smile Like You Mean It
Artist: 
Album: Hot Fuss
Author: Brandon Flowers and Mark Stoermer


Track 1: Guitar R

D#|---------------------------------|---------------------------------|---------------------------------|
A#|---------------------------------|---------------------------------|---------------------------------|
F#|---------------------------------|---------------------------------|---------------------------------|
C#|---------------------------------|---------------------------------|---------------------------------|
G#|---------------------14--14------|---------------------------------|---------------------14--14------|
D#|-15--15--15--15--15----------12--|-12--12--12--12--12--12--12--12--|-15--15--15--15--15----------12--|


D#|---------------------------------|---------------------------------|---------------------------------|
A#|---------------------------------|---------------------------------|---------------------------------|
F#|---------------------------------|---------------------------------|---------------------------------|
C#|---------------------------------|---------------------------------|---------------------------------|
G#|---------------------------------|---------------------14--14------|---------------------------------|
D#|-12--12--12--12--12--12--12--12--|-15--15--15--15--15----------12--|-12--12--12--12--12--12--12--12--|


D#|---------------------------------|------------------------------|--------|--------|
A#|---------------------------------|------------------------------|--------|--------|
F#|---------------------------------|------------------------------|--------|--------|
C#|---------------------------------|------------------------------|--------|--------|
G#|---------------------14--14------|------------------------------|--------|--------|
D#|-15--15--15--15--15----------12--|-12--12--12--12--12--12--12---|--------|--------|


D#|--------|--------|--------|--------|--------|--------|--------|--------|--------|
A#|--------|--------|--------|--------|--------|--------|--------|--------|--------|
F#|--------|--------|--------|--------|--------|--------|--------|--------|--------|
C#|--------|--------|--------|--------|--------|--------|--------|--------|--------|
G#|--------|--------|--------|--------|--------|--------|--------|--------|--------|
D#|--------|--------|--------|--------|--------|--------|--------|--------|--------|


D#|--------|--------|--------|--------|-----------------------|--------|--------|--------|
A#|--------|--------|--------|--------|-----------0-------0---|--------|--------|--------|
F#|--------|--------|--------|--------|-----------0-------0---|--------|--------|--------|
C#|--------|--------|--------|--------|-----------0-------0---|--------|--------|--------|
G#|--------|--------|--------|--------|-----------0-------0---|--------|--------|--------|
D#|--------|--------|--------|--------|-----------0-------0---|--------|--------|--------|


D#|--------|--------|--------|--------|--------|--------|--------|--------|--------|
A#|--------|--------|--------|--------|--------|--------|--------|--------|--------|
F#|--------|--------|--------|--------|--------|--------|--------|--------|--------|
C#|--------|--------|--------|--------|--------|--------|--------|--------|--------|
G#|--------|--------|--------|--------|--------|--------|--------|--------|--------|
D#|--------|--------|--------|--------|--------|--------|--------|--------|--------|


D#|--------|--------|--------|--------|--------|--------|--------|--------|--------|
A#|--------|--------|--------|--------|--------|--------|--------|--------|--------|
F#|--------|--------|--------|--------|--------|--------|--------|--------|--------|
C#|--------|--------|--------|--------|--------|--------|--------|--------|--------|
G#|--------|--------|--------|--------|--------|--------|--------|--------|--------|
D#|--------|--------|--------|--------|--------|--------|--------|--------|--------|


D#|--------|--------|-----------------------|--------|--------|--------|--------|--------|
A#|--------|--------|-----------0-------0---|--------|--------|--------|--------|--------|
F#|--------|--------|-----------0-------0---|--------|--------|--------|--------|--------|
C#|--------|--------|-----------0-------0---|--------|--------|--------|--------|--------|
G#|--------|--------|-----------0-------0---|--------|--------|--------|--------|--------|
D#|--------|--------|-----------0-------0---|--------|--------|--------|--------|--------|


D#|--------|--------|--------|--------|--------|--------|--------|--------|--------|
A#|--------|--------|--------|--------|--------|--------|--------|--------|--------|
F#|--------|--------|--------|--------|--------|--------|--------|--------|--------|
C#|--------|--------|--------|--------|--------|--------|--------|--------|--------|
G#|--------|--------|--------|--------|--------|--------|--------|--------|--------|
D#|--------|--------|--------|--------|--------|--------|--------|--------|--------|


D#|--------|--------|--------|--------|--------|--------|--------|--------|--------|
A#|--------|--------|--------|--------|--------|--------|--------|--------|--------|
F#|--------|--------|--------|--------|--------|--------|--------|--------|--------|
C#|--------|--------|--------|--------|--------|--------|--------|--------|--------|
G#|--------|--------|--------|--------|--------|--------|--------|--------|--------|
D#|--------|--------|--------|--------|--------|--------|--------|--------|--------|


D#|--------|--------|--------|--------|--------|--------|--------|--------|--------|
A#|--------|--------|--------|--------|--------|--------|--------|--------|--------|
F#|--------|--------|--------|--------|--------|--------|--------|--------|--------|
C#|--------|--------|--------|--------|--------|--------|--------|--------|--------|
G#|--------|--------|--------|--------|--------|--------|--------|--------|--------|
D#|--------|--------|--------|--------|--------|--------|--------|--------|--------|


D#|--------|--------|--------|--------|--------|--------|--------|--------|--------|
A#|--------|--------|--------|--------|--------|--------|--------|--------|--------|
F#|--------|--------|--------|--------|--------|--------|--------|--------|--------|
C#|--------|--------|--------|--------|--------|--------|--------|--------|--------|
G#|--------|--------|--------|--------|--------|--------|--------|--------|--------|
D#|--------|--------|--------|--------|--------|--------|--------|--------|--------|


D#|--------|--------|--------|--------|--------|--------|--------|--------|--------|
A#|--------|--------|--------|--------|--------|--------|--------|--------|--------|
F#|--------|--------|--------|--------|--------|--------|--------|--------|--------|
C#|--------|--------|--------|--------|--------|--------|--------|--------|--------|
G#|--------|--------|--------|--------|--------|--------|--------|--------|--------|
D#|--------|--------|--------|--------|--------|--------|--------|--------|--------|


D#|--------|--------|--------|--------|--------|--------|--------|--------|--------|
A#|--------|--------|--------|--------|--------|--------|--------|--------|--------|
F#|--------|--------|--------|--------|--------|--------|--------|--------|--------|
C#|--------|--------|--------|--------|--------|--------|--------|--------|--------|
G#|--------|--------|--------|--------|--------|--------|--------|--------|--------|
D#|--------|--------|--------|--------|--------|--------|--------|--------|--------|


D#|--------|--------|--------|--------|--------|--------|--------|--------|--------|
A#|--------|--------|--------|--------|--------|--------|--------|--------|--------|
F#|--------|--------|--------|--------|--------|--------|--------|--------|--------|
C#|--------|--------|--------|--------|--------|--------|--------|--------|--------|
G#|--------|--------|--------|--------|--------|--------|--------|--------|--------|
D#|--------|--------|--------|--------|--------|--------|--------|--------|--------|


D#|--------|--------|--------|--------|--------|--------|
A#|--------|--------|--------|--------|--------|--------|
F#|--------|--------|--------|--------|--------|--------|
C#|--------|--------|--------|--------|--------|--------|
G#|--------|--------|--------|--------|--------|--------|
D#|--------|--------|--------|--------|--------|--------|





Track 2: Synth 1

D#|--------|-----------8----7----|-7---------8----7----|-7----5------|-5-----------|
A#|--------|------5--------------|------5--------------|-------------|------8------|
F#|--------|---------------------|---------------------|-------------|-------------|
C#|--------|---------------------|---------------------|-------------|-------------|
G#|-7------|-7-------------------|---------------------|-------------|-------------|
D#|--------|---------------------|-5-------------------|-5-----------|-8-----------|


D#|-----------8----7----|-7---------8----7----|-7---------8----7----|--------|--------|
A#|-8----5--------------|------5--------------|------5--------------|-8------|-8------|
F#|---------------------|---------------------|---------------------|--------|--------|
C#|---------------------|---------------------|---------------------|-5------|-5------|
G#|---------------------|-5-------------------|-5-------------------|--------|--------|
D#|-8-------------------|---------------------|---------------------|--------|--------|


D#|-----------------------|--------|--------|--------|-----------------------|--------|
A#|-10----10--8---10--12--|-12-----|-8------|-8------|-10----10--8---10--12--|-12-----|
F#|-----------------------|--------|--------|--------|-----------------------|--------|
C#|-7-----7---5---7---9---|-9------|-5------|-5------|-7-----7---5---7---9---|-9------|
G#|-----------------------|--------|--------|--------|-----------------------|--------|
D#|-----------------------|--------|--------|--------|-----------------------|--------|


D#|--------|--------|--------|--------|--------|--------|--------|--------|--------|
A#|--------|--------|--------|--------|--------|--------|--------|--------|--------|
F#|--------|--------|--------|--------|--------|--------|--------|--------|--------|
C#|--------|--------|--------|--------|--------|--------|--------|--------|--------|
G#|--------|--------|--------|--------|--------|--------|--------|--------|--------|
D#|--------|--------|--------|--------|--------|--------|--------|--------|--------|


D#|--------|--------|--------|--------|--------|--------|--------|--------|--------|
A#|--------|--------|--------|--------|--------|--------|--------|-8------|-8------|
F#|--------|--------|--------|--------|--------|--------|--------|--------|--------|
C#|--------|--------|--------|--------|--------|--------|--------|-5------|-5------|
G#|--------|--------|--------|--------|--------|--------|--------|--------|--------|
D#|--------|--------|--------|--------|--------|--------|--------|--------|--------|


D#|-----------------------|--------|--------|--------|-----------------------|--------|
A#|-10----10--8---10--12--|-12-----|-8------|-8------|-10----10--8---10--12--|-12-----|
F#|-----------------------|--------|--------|--------|-----------------------|--------|
C#|-7-----7---5---7---9---|-9------|-5------|-5------|-7-----7---5---7---9---|-9------|
G#|-----------------------|--------|--------|--------|-----------------------|--------|
D#|-----------------------|--------|--------|--------|-----------------------|--------|


D#|--------|--------|--------|--------|--------|--------|--------|-----------------|
A#|--------|--------|--------|--------|--------|--------|--------|-------0---------|
F#|--------|--------|--------|--------|--------|--------|--------|-------0---------|
C#|--------|--------|--------|--------|--------|--------|--------|-------0---------|
G#|--------|--------|--------|--------|--------|--------|--------|-------0---------|
D#|--------|--------|--------|--------|--------|--------|--------|-------0---------|


D#|--------|--------|-----------------------|--------|--------|--------|-----------------------|
A#|-8------|-8------|-10----10--8---10--12--|-12-----|-8------|-8------|-10----10--8---10--12--|
F#|--------|--------|-----------------------|--------|--------|--------|-----------------------|
C#|-5------|-5------|-7-----7---5---7---9---|-9------|-5------|-5------|-7-----7---5---7---9---|
G#|--------|--------|-----------------------|--------|--------|--------|-----------------------|
D#|--------|--------|-----------------------|--------|--------|--------|-----------------------|


D#|--------|--------|--------|-----------------------|--------|--------|--------|-----------------------|
A#|-12-----|-8------|-8------|-10----10--8---10--12--|-12-----|-8------|-8------|-10----10--8---10--12--|
F#|--------|--------|--------|-----------------------|--------|--------|--------|-----------------------|
C#|-9------|-5------|-5------|-7-----7---5---7---9---|-9------|-5------|-5------|-7-----7---5---7---9---|
G#|--------|--------|--------|-----------------------|--------|--------|--------|-----------------------|
D#|--------|--------|--------|-----------------------|--------|--------|--------|-----------------------|


D#|--------|--------|--------|--------|--------|--------|--------|--------|--------|
A#|-12-----|-10-----|-12-----|--------|--------|-10-----|-12-----|--------|--------|
F#|--------|--------|--------|-5------|-5------|--------|--------|-5------|-5------|
C#|-9------|-7------|-9------|--------|--------|-7------|-9------|--------|--------|
G#|--------|--------|--------|-3------|-3------|--------|--------|-3------|-3------|
D#|--------|--------|--------|--------|--------|--------|--------|--------|--------|


D#|--------|--------|--------|--------|--------|--------|--------|--------|--------|
A#|-10-----|-10-----|-8------|-8------|-10-----|-10-----|--------|--------|-10-----|
F#|--------|--------|--------|--------|--------|--------|-9------|-9------|--------|
C#|-7------|-7------|-5------|-5------|-7------|-7------|--------|--------|-7------|
G#|--------|--------|--------|--------|--------|--------|-7------|-7------|--------|
D#|--------|--------|--------|--------|--------|--------|--------|--------|--------|


D#|--------|--------|--------|--------|--------|--------|--------|--------|--------|
A#|-10-----|--------|--------|--------|--------|--------|--------|-8------|-8------|
F#|--------|-4------|-4------|-5------|-5------|-7------|-7------|--------|--------|
C#|-7------|--------|--------|--------|--------|--------|--------|-5------|-5------|
G#|--------|-2------|-2------|-3------|-3------|-5------|-5------|--------|--------|
D#|--------|--------|--------|--------|--------|--------|--------|--------|--------|


D#|-----------------------|--------|--------|--------|-----------------------|--------|
A#|-10----10--8---10--12--|-12-----|-8------|-8------|-10----10--8---10--12--|-12-----|
F#|-----------------------|--------|--------|--------|-----------------------|--------|
C#|-7-----7---5---7---9---|-9------|-5------|-5------|-7-----7---5---7---9---|-9------|
G#|-----------------------|--------|--------|--------|-----------------------|--------|
D#|-----------------------|--------|--------|--------|-----------------------|--------|


D#|--------|--------|-----------------------|--------|--------|--------|-----------------------|
A#|-8------|-8------|-10----10--8---10--12--|-12-----|-8------|-8------|-10----10--8---10--12--|
F#|--------|--------|-----------------------|--------|--------|--------|-----------------------|
C#|-5------|-5------|-7-----7---5---7---9---|-9------|-5------|-5------|-7-----7---5---7---9---|
G#|--------|--------|-----------------------|--------|--------|--------|-----------------------|
D#|--------|--------|-----------------------|--------|--------|--------|-----------------------|


D#|--------|-15-----|-15-----|-17----17--15--17--19--|-19-----|-15-----|-15-----|-17----17--15--17--19--|
A#|-12-----|--------|--------|-----------------------|--------|--------|--------|-----------------------|
F#|--------|-12-----|-12-----|-14----14--12--14--16--|-16-----|-12-----|-12-----|-14----14--12--14--16--|
C#|-9------|--------|--------|-----------------------|--------|--------|--------|-----------------------|
G#|--------|--------|--------|-----------------------|--------|--------|--------|-----------------------|
D#|--------|--------|--------|-----------------------|--------|--------|--------|-----------------------|


D#|-19-----|--------|--------|--------|--------|-15-----14--|-14------------------|
A#|--------|--------|--------|--------|--------|------------|-------15--15----12--|
F#|-16-----|--------|--------|--------|--------|-12-----11--|-11------------------|
C#|--------|--------|--------|--------|--------|------------|-------12--12----9---|
G#|--------|--------|--------|--------|--------|------------|---------------------|
D#|--------|--------|--------|--------|--------|------------|---------------------|


D#|--------|--------|--------|--------|
A#|-12-----|-12-----|-12-----|--------|
F#|--------|--------|--------|--------|
C#|-9------|-9------|-9------|--------|
G#|--------|--------|--------|--------|
D#|--------|--------|--------|--------|





Track 3: Guitar R

D#|--------|--------|--------|--------|--------|--------|--------|--------|--------|
A#|--------|--------|--------|--------|--------|--------|--------|--------|--------|
F#|--------|--------|--------|--------|--------|--------|--------|--------|--------|
C#|--------|--------|--------|--------|--------|--------|--------|--------|--------|
G#|--------|--------|--------|--------|--------|--------|--------|--------|--------|
D#|--------|--------|--------|--------|--------|--------|--------|--------|--------|


D#|--------|--------|--------|--------|--------|--------|--------|--------|--------|
A#|--------|--------|--------|--------|--------|--------|--------|--------|--------|
F#|--------|--------|--------|--------|--------|--------|--------|--------|--------|
C#|--------|--------|--------|--------|--------|--------|--------|--------|--------|
G#|--------|--------|--------|--------|--------|--------|--------|--------|--------|
D#|--------|--------|--------|--------|--------|--------|--------|--------|--------|


D#|--------|--------|--------|--------|--------|--------|--------|--------|--------|
A#|--------|--------|--------|--------|--------|--------|--------|--------|--------|
F#|--------|--------|--------|--------|--------|--------|--------|--------|--------|
C#|--------|--------|--------|--------|--------|--------|--------|--------|--------|
G#|--------|--------|--------|--------|--------|--------|--------|--------|--------|
D#|--------|--------|--------|--------|--------|--------|--------|--------|--------|


D#|--------|--------|--------|--------|--------|--------|--------|--------|--------|
A#|--------|--------|--------|--------|--------|--------|--------|--------|--------|
F#|--------|--------|--------|--------|--------|--------|--------|--------|--------|
C#|--------|--------|--------|--------|--------|--------|--------|--------|--------|
G#|--------|--------|--------|--------|--------|--------|--------|--------|--------|
D#|--------|--------|--------|--------|--------|--------|--------|--------|--------|


D#|--------|--------|--------|--------|--------|--------|--------|--------|--------|
A#|--------|--------|--------|--------|--------|--------|--------|--------|--------|
F#|--------|--------|--------|--------|--------|--------|--------|--------|--------|
C#|--------|--------|--------|--------|--------|--------|--------|--------|--------|
G#|--------|--------|--------|--------|--------|--------|--------|--------|--------|
D#|--------|--------|--------|--------|--------|--------|--------|--------|--------|


D#|--------|--------|--------|--------|--------|--------|--------|--------|--------|
A#|--------|--------|--------|--------|--------|--------|--------|--------|--------|
F#|--------|--------|--------|--------|--------|--------|--------|--------|--------|
C#|--------|--------|--------|--------|--------|--------|--------|--------|--------|
G#|--------|--------|--------|--------|--------|--------|--------|--------|--------|
D#|--------|--------|--------|--------|--------|--------|--------|--------|--------|


D#|--------|--------|--------|--------|--------|--------|--------|--------|--------|
A#|--------|--------|--------|--------|--------|--------|--------|--------|--------|
F#|--------|--------|--------|--------|--------|--------|--------|--------|--------|
C#|--------|--------|--------|--------|--------|--------|--------|--------|--------|
G#|--------|--------|--------|--------|--------|--------|--------|--------|--------|
D#|--------|--------|--------|--------|--------|--------|--------|--------|--------|


D#|--------|--------|--------|--------|--------|--------|--------|--------|--------|
A#|--------|--------|--------|--------|--------|--------|--------|--------|--------|
F#|--------|--------|--------|--------|--------|--------|--------|--------|--------|
C#|--------|--------|--------|--------|--------|--------|--------|--------|--------|
G#|--------|--------|--------|--------|--------|--------|--------|--------|--------|
D#|--------|--------|--------|--------|--------|--------|--------|--------|--------|


D#|--------|--------|--------|--------|--------|--------|--------|--------|--------|
A#|--------|--------|--------|--------|--------|--------|--------|--------|--------|
F#|--------|--------|--------|--------|--------|--------|--------|--------|--------|
C#|--------|--------|--------|--------|--------|--------|--------|--------|--------|
G#|--------|--------|--------|--------|--------|--------|--------|--------|--------|
D#|--------|--------|--------|--------|--------|--------|--------|--------|--------|


D#|--------|--------|--------|--------|--------|--------|--------|--------|--------|
A#|--------|--------|--------|--------|--------|--------|--------|--------|--------|
F#|--------|--------|--------|--------|--------|--------|--------|--------|--------|
C#|--------|--------|--------|--------|--------|--------|--------|--------|--------|
G#|--------|--------|--------|--------|--------|--------|--------|--------|--------|
D#|--------|--------|--------|--------|--------|--------|--------|--------|--------|


D#|--------|--------|--------|--------|--------|--------|--------|--------|--------|
A#|--------|--------|--------|--------|--------|--------|--------|--------|--------|
F#|--------|--------|--------|--------|--------|--------|--------|--------|--------|
C#|--------|--------|--------|--------|--------|--------|--------|--------|--------|
G#|--------|--------|--------|--------|--------|--------|--------|--------|--------|
D#|--------|--------|--------|--------|--------|--------|--------|--------|--------|


D#|--------|--------|--------|--------|--------|--------|--------|--------|--------|
A#|--------|--------|--------|--------|--------|--------|--------|--------|--------|
F#|--------|--------|--------|--------|--------|--------|--------|--------|--------|
C#|--------|--------|--------|--------|--------|--------|--------|--------|--------|
G#|--------|--------|--------|--------|--------|--------|--------|--------|--------|
D#|--------|--------|--------|--------|--------|--------|--------|--------|--------|


D#|--------|--------|--------|--------|--------|--------|--------|--------|--------|
A#|--------|--------|--------|--------|--------|--------|--------|--------|--------|
F#|--------|--------|--------|--------|--------|--------|--------|--------|--------|
C#|--------|--------|--------|--------|--------|--------|--------|--------|--------|
G#|--------|--------|--------|--------|--------|--------|--------|--------|--------|
D#|--------|--------|--------|--------|--------|--------|--------|--------|--------|


D#|--------|--------|--------|--------|--------|
A#|--------|--------|--------|--------|--------|
F#|--------|--------|--------|--------|--------|
C#|--------|--------|--------|--------|--------|
G#|--------|--------|--------|--------|--------|
D#|--------|--------|--------|--------|--------|





Track 4: Synth 2

D#|--------|--------|--------|--------|--------|--------|--------|---------------------|
A#|--------|--------|--------|--------|--------|--------|--------|-----------13---12---|
F#|--------|--------|--------|--------|--------|--------|--------|---------------------|
C#|--------|--------|--------|--------|--------|--------|--------|------14-------------|
G#|--------|--------|--------|--------|--------|--------|--------|---------------------|
D#|--------|--------|--------|--------|--------|--------|--------|---------------------|


D#|--------|---------------------|---------------------|----------------|--------|
A#|--------|-----------13---12---|-12--------13---12---|-12---12-10-----|--------|
F#|-12-----|-12------------------|---------------------|----------------|-12-----|
C#|--------|------14-------------|------14-------------|----------------|--------|
G#|--------|---------------------|---------------------|----------------|--------|
D#|--------|---------------------|---------------------|----------------|--------|


D#|---------------------|---------------------|----------------|--------|--------|
A#|-----------13---12---|-12--------13---12---|-12---12-10-----|--------|--------|
F#|-12------------------|---------------------|----------------|--------|--------|
C#|------14-------------|------14-------------|----------------|--------|--------|
G#|---------------------|---------------------|----------------|--------|--------|
D#|---------------------|---------------------|----------------|--------|--------|


D#|--------|--------|--------|--------|--------|--------|--------|--------|--------|
A#|--------|--------|--------|--------|--------|--------|--------|--------|--------|
F#|--------|--------|--------|--------|--------|--------|--------|--------|--------|
C#|--------|--------|--------|--------|--------|--------|--------|--------|--------|
G#|--------|--------|--------|--------|--------|--------|--------|--------|--------|
D#|--------|--------|--------|--------|--------|--------|--------|--------|--------|


D#|--------|--------|--------|--------|--------|--------|---------------------|---------------------|
A#|--------|--------|--------|--------|--------|--------|-----------13---12---|-12--------13---12---|
F#|--------|--------|--------|--------|--------|--------|---------------------|---------------------|
C#|--------|--------|--------|--------|--------|--------|------14-------------|------14-------------|
G#|--------|--------|--------|--------|--------|--------|---------------------|---------------------|
D#|--------|--------|--------|--------|--------|--------|---------------------|---------------------|


D#|----------------|--------|---------------------|---------------------|----------------|
A#|-12---12-10-----|--------|-----------13---12---|-12--------13---12---|-12---12-10-----|
F#|----------------|-12-----|-12------------------|---------------------|----------------|
C#|----------------|--------|------14-------------|------14-------------|----------------|
G#|----------------|--------|---------------------|---------------------|----------------|
D#|----------------|--------|---------------------|---------------------|----------------|


D#|--------|--------|--------|--------|--------|--------|--------|--------|--------|
A#|--------|--------|--------|--------|--------|--------|--------|--------|--------|
F#|--------|--------|--------|--------|--------|--------|--------|--------|--------|
C#|--------|--------|--------|--------|--------|--------|--------|--------|--------|
G#|--------|--------|--------|--------|--------|--------|--------|--------|--------|
D#|--------|--------|--------|--------|--------|--------|--------|--------|--------|


D#|--------|--------|--------|--------|--------|--------|--------|--------|---------------------|
A#|--------|--------|--------|--------|--------|--------|--------|--------|-----------13---12---|
F#|--------|--------|--------|--------|--------|--------|--------|--------|---------------------|
C#|--------|--------|--------|--------|--------|--------|--------|--------|------14-------------|
G#|--------|--------|--------|--------|--------|--------|--------|--------|---------------------|
D#|--------|--------|--------|--------|--------|--------|--------|--------|---------------------|


D#|---------------------|----------------|--------|---------------------|---------------------|
A#|-12--------13---12---|-12---12-10-----|--------|-----------13---12---|-12--------13---12---|
F#|---------------------|----------------|-12-----|-12------------------|---------------------|
C#|------14-------------|----------------|--------|------14-------------|------14-------------|
G#|---------------------|----------------|--------|---------------------|---------------------|
D#|---------------------|----------------|--------|---------------------|---------------------|


D#|----------------|--------|--------|--------|--------|--------|--------|--------|
A#|-12---12-10-----|--------|--------|--------|--------|--------|--------|--------|
F#|----------------|--------|--------|--------|--------|--------|--------|--------|
C#|----------------|--------|--------|--------|--------|--------|--------|--------|
G#|----------------|--------|--------|--------|--------|--------|--------|--------|
D#|----------------|--------|--------|--------|--------|--------|--------|--------|


D#|--------|--------|--------|--------|--------|--------|--------|--------|--------|
A#|--------|--------|--------|--------|--------|--------|--------|--------|--------|
F#|--------|--------|--------|--------|--------|--------|--------|--------|--------|
C#|--------|--------|--------|--------|--------|--------|--------|--------|--------|
G#|--------|--------|--------|--------|--------|--------|--------|--------|--------|
D#|--------|--------|--------|--------|--------|--------|--------|--------|--------|


D#|--------|--------|--------|--------|--------|---------------------|---------------------|
A#|--------|--------|--------|--------|--------|-----------13---12---|-12--------13---12---|
F#|--------|--------|--------|--------|--------|---------------------|---------------------|
C#|--------|--------|--------|--------|--------|------14-------------|------14-------------|
G#|--------|--------|--------|--------|--------|---------------------|---------------------|
D#|--------|--------|--------|--------|--------|---------------------|---------------------|


D#|---------------------|--------|---------------------|---------------------|----------------|
A#|-12--------13---12---|--------|-----------13---12---|-12--------13---12---|-12---12-10-----|
F#|---------------------|-12-----|-12------------------|---------------------|----------------|
C#|------14-------------|--------|------14-------------|------14-------------|----------------|
G#|---------------------|--------|---------------------|---------------------|----------------|
D#|---------------------|--------|---------------------|---------------------|----------------|


D#|--------|---------------------|---------------------|----------------|--------|
A#|--------|-----------13---12---|-12--------13---12---|-12---12-10-----|--------|
F#|-12-----|-12------------------|---------------------|----------------|-12-----|
C#|--------|------14-------------|------14-------------|----------------|--------|
G#|--------|---------------------|---------------------|----------------|--------|
D#|--------|---------------------|---------------------|----------------|--------|


D#|---------------------|---------------------|----------------|--------|---------------------|
A#|-----------13---12---|-12--------13---12---|-12---12-10-----|--------|-----------13---12---|
F#|-12------------------|---------------------|----------------|-12-----|-12------------------|
C#|------14-------------|------14-------------|----------------|--------|------14-------------|
G#|---------------------|---------------------|----------------|--------|---------------------|
D#|---------------------|---------------------|----------------|--------|---------------------|


D#|---------------------|---------------------|---------------------|---------------------|
A#|-12--------13---12---|-12--------13---12---|-12--------13---12---|-12--------13---12---|
F#|---------------------|---------------------|---------------------|---------------------|
C#|------14-------------|------14-------------|------14-------------|------14-------------|
G#|---------------------|---------------------|---------------------|---------------------|
D#|---------------------|---------------------|---------------------|---------------------|


D#|---------------------|----------------|---------------------|---------------------|
A#|-12--------13---12---|-12---12-10-----|-10--------13---12---|-12--------13---12---|
F#|---------------------|----------------|---------------------|---------------------|
C#|------14-------------|----------------|------14-------------|------14-------------|
G#|---------------------|----------------|---------------------|---------------------|
D#|---------------------|----------------|---------------------|---------------------|


D#|---------------------|---------------------|--------|--------|--------|--------|
A#|-12--------13---12---|-12--------13---12---|-12-----|-12-----|-12-----|-12-----|
F#|---------------------|---------------------|--------|--------|--------|--------|
C#|------14-------------|------14-------------|--------|--------|--------|--------|
G#|---------------------|---------------------|--------|--------|--------|--------|
D#|---------------------|---------------------|--------|--------|--------|--------|


D#|--------|--------|--------|--------|--------|--------|
A#|-12-----|-12-----|-12-----|-12-----|-12-----|--------|
F#|--------|--------|--------|--------|--------|--------|
C#|--------|--------|--------|--------|--------|--------|
G#|--------|--------|--------|--------|--------|--------|
D#|--------|--------|--------|--------|--------|--------|





Track 5: Guitar L

D#|--------|--------|--------|--------|--------|--------|--------|--------|--------|
A#|--------|--------|--------|--------|--------|--------|--------|--------|--------|
F#|--------|--------|--------|--------|--------|--------|--------|--------|--------|
C#|--------|--------|--------|--------|--------|--------|--------|--------|--------|
G#|--------|--------|--------|--------|--------|--------|--------|--------|--------|
D#|--------|--------|--------|--------|--------|--------|--------|--------|--------|


D#|--------|--------|--------|--------|--------|--------|--------|-0---0---0---0---0---0---0---0---|
A#|--------|--------|--------|--------|--------|--------|--------|-5---5---5---5---8---5---5---8---|
F#|--------|--------|--------|--------|--------|--------|--------|---------------------------------|
C#|--------|--------|--------|--------|--------|--------|--------|---------------------------------|
G#|--------|--------|--------|--------|--------|--------|--------|---------------------------------|
D#|--------|--------|--------|--------|--------|--------|--------|---------------------------------|


D#|-0---0---0---0---0-------0---0---|-0---0---0---0---0---0---0---0---|-0---0---0---0---0-------0---0---|
A#|-5---5---8---5---8-------10--12--|-5---5---5---5---8---5---5---8---|-5---5---8---5---8-------10--12--|
F#|---------------------9-----------|---------------------------------|---------------------9-----------|
C#|---------------------------------|---------------------------------|---------------------------------|
G#|---------------------------------|---------------------------------|---------------------------------|
D#|---------------------------------|---------------------------------|---------------------------------|


D#|-0---0---0---0---0---0---0---0---|-0---0---0---0---0-------0---0---|-0---0---0---0---0---0---0---0---|
A#|-5---5---5---5---8---5---5---8---|-5---5---8---5---8-------10--12--|-5---5---5---5---8---5---5---8---|
F#|---------------------------------|---------------------9-----------|---------------------------------|
C#|---------------------------------|---------------------------------|---------------------------------|
G#|---------------------------------|---------------------------------|---------------------------------|
D#|---------------------------------|---------------------------------|---------------------------------|


D#|-0---0---0---0---0---------|--------|--------|--------|--------|--------|--------|
A#|-5---5---5---5---0---------|--------|--------|--------|--------|--------|--------|
F#|---------------------------|--------|--------|--------|--------|--------|--------|
C#|---------------------------|--------|--------|--------|--------|--------|--------|
G#|---------------------------|--------|--------|--------|--------|--------|--------|
D#|---------------------------|--------|--------|--------|--------|--------|--------|


D#|--------|--------|--------|--------|--------|--------|--------|--------|--------|
A#|--------|--------|--------|--------|--------|--------|--------|--------|--------|
F#|--------|--------|--------|--------|--------|--------|--------|--------|--------|
C#|--------|--------|--------|--------|--------|--------|--------|--------|--------|
G#|--------|--------|--------|--------|--------|--------|--------|--------|--------|
D#|--------|--------|--------|--------|--------|--------|--------|--------|--------|


D#|--------|-0---0---0---0---0---0---0---0---|-0---0---0---0---0-------0---0---|-0---0---0---0---0---0---0---0---|
A#|--------|-5---5---5---5---8---5---5---8---|-5---5---8---5---8-------10--12--|-5---5---5---5---8---5---5---8---|
F#|--------|---------------------------------|---------------------9-----------|---------------------------------|
C#|--------|---------------------------------|---------------------------------|---------------------------------|
G#|--------|---------------------------------|---------------------------------|---------------------------------|
D#|--------|---------------------------------|---------------------------------|---------------------------------|


D#|-0---0---0---0---0-------0---0---|-0---0---0---0---0---0---0---0---|-0---0---0---0---0-------0---0---|
A#|-5---5---8---5---8-------10--12--|-5---5---5---5---8---5---5---8---|-5---5---8---5---8-------10--12--|
F#|---------------------9-----------|---------------------------------|---------------------9-----------|
C#|---------------------------------|---------------------------------|---------------------------------|
G#|---------------------------------|---------------------------------|---------------------------------|
D#|---------------------------------|---------------------------------|---------------------------------|


D#|-0---0---0---0---0---0---0---0---|-0---0---0---0---0---------|--------|--------|
A#|-5---5---5---5---8---5---5---8---|-5---5---5---5---0---------|--------|--------|
F#|---------------------------------|---------------------------|--------|--------|
C#|---------------------------------|---------------------------|--------|--------|
G#|---------------------------------|---------------------------|--------|--------|
D#|---------------------------------|---------------------------|--------|--------|


D#|--------|--------|--------|--------|--------|--------|--------|--------|--------|
A#|--------|--------|--------|--------|--------|--------|--------|--------|--------|
F#|--------|--------|--------|--------|--------|--------|--------|--------|--------|
C#|--------|--------|--------|--------|--------|--------|--------|--------|--------|
G#|--------|--------|--------|--------|--------|--------|--------|--------|--------|
D#|--------|--------|--------|--------|--------|--------|--------|--------|--------|


D#|--------|--------|--------|--------|--------|--------|--------|--------|--------|
A#|--------|--------|--------|--------|--------|--------|--------|--------|--------|
F#|--------|--------|--------|--------|--------|--------|--------|--------|--------|
C#|--------|--------|--------|--------|--------|--------|--------|--------|--------|
G#|--------|--------|--------|--------|--------|--------|--------|--------|--------|
D#|--------|--------|--------|--------|--------|--------|--------|--------|--------|


D#|--------|--------|--------|--------|--------|--------|--------|--------|--------|
A#|--------|--------|--------|--------|--------|--------|--------|--------|--------|
F#|--------|--------|--------|--------|--------|--------|--------|--------|--------|
C#|--------|--------|--------|--------|--------|--------|--------|--------|--------|
G#|--------|--------|--------|--------|--------|--------|--------|--------|--------|
D#|--------|--------|--------|--------|--------|--------|--------|--------|--------|


D#|--------|--------|--------|--------|--------|--------|--------|--------|--------|
A#|--------|--------|--------|--------|--------|--------|--------|--------|--------|
F#|--------|--------|--------|--------|--------|--------|--------|--------|--------|
C#|--------|--------|--------|--------|--------|--------|--------|--------|--------|
G#|--------|--------|--------|--------|--------|--------|--------|--------|--------|
D#|--------|--------|--------|--------|--------|--------|--------|--------|--------|


D#|--------|--------|--------|--------|--------|--------|--------|--------|--------|
A#|--------|--------|--------|--------|--------|--------|--------|--------|--------|
F#|--------|--------|--------|--------|--------|--------|--------|--------|--------|
C#|--------|--------|--------|--------|--------|--------|--------|--------|--------|
G#|--------|--------|--------|--------|--------|--------|--------|--------|--------|
D#|--------|--------|--------|--------|--------|--------|--------|--------|--------|


D#|--------|--------|--------|--------|--------|--------|--------|--------|--------|
A#|--------|--------|--------|--------|--------|--------|--------|--------|--------|
F#|--------|--------|--------|--------|--------|--------|--------|--------|--------|
C#|--------|--------|--------|--------|--------|--------|--------|--------|--------|
G#|--------|--------|--------|--------|--------|--------|--------|--------|--------|
D#|--------|--------|--------|--------|--------|--------|--------|--------|--------|


D#|--------|--------|--------|--------|--------|--------|--------|--------|--------|
A#|--------|--------|--------|--------|--------|--------|--------|--------|--------|
F#|--------|--------|--------|--------|--------|--------|--------|--------|--------|
C#|--------|--------|--------|--------|--------|--------|--------|--------|--------|
G#|--------|--------|--------|--------|--------|--------|--------|--------|--------|
D#|--------|--------|--------|--------|--------|--------|--------|--------|--------|


D#|--------|--------|--------|--------|--------|--------|--------|--------|--------|
A#|--------|--------|--------|--------|--------|--------|--------|--------|--------|
F#|--------|--------|--------|--------|--------|--------|--------|--------|--------|
C#|--------|--------|--------|--------|--------|--------|--------|--------|--------|
G#|--------|--------|--------|--------|--------|--------|--------|--------|--------|
D#|--------|--------|--------|--------|--------|--------|--------|--------|--------|





Track 6: Guitar R

D#|--------|--------|--------|--------|--------|--------|--------|--------|--------|
A#|--------|--------|--------|--------|--------|--------|--------|--------|--------|
F#|--------|--------|--------|--------|--------|--------|--------|--------|--------|
C#|--------|--------|--------|--------|--------|--------|--------|--------|--------|
G#|--------|--------|--------|--------|--------|--------|--------|--------|--------|
D#|--------|--------|--------|--------|--------|--------|--------|--------|--------|


D#|--------|--------|--------|--------|--------|--------|--------|--------|--------|
A#|--------|--------|--------|--------|--------|--------|--------|--------|--------|
F#|--------|--------|--------|--------|--------|--------|--------|--------|--------|
C#|--------|--------|--------|--------|--------|--------|--------|--------|--------|
G#|--------|--------|--------|--------|--------|--------|--------|--------|--------|
D#|--------|--------|--------|--------|--------|--------|--------|--------|--------|


D#|--------|--------|--------|--------|--------|--------|--------|--------|--------|
A#|--------|--------|--------|--------|--------|--------|--------|--------|--------|
F#|--------|--------|--------|--------|--------|--------|--------|--------|--------|
C#|--------|--------|--------|--------|--------|--------|--------|--------|--------|
G#|--------|--------|--------|--------|--------|--------|--------|--------|--------|
D#|--------|--------|--------|--------|--------|--------|--------|--------|--------|


D#|--------|--------|--------|--------|--------|--------|--------|--------|--------|
A#|--------|--------|--------|--------|--------|--------|--------|--------|--------|
F#|--------|--------|--------|--------|--------|--------|--------|--------|--------|
C#|--------|--------|--------|--------|--------|--------|--------|--------|--------|
G#|--------|--------|--------|--------|--------|--------|--------|--------|--------|
D#|--------|--------|--------|--------|--------|--------|--------|--------|--------|


D#|--------|--------|--------|--------|--------|--------|--------|--------|--------|
A#|--------|--------|--------|--------|--------|--------|--------|--------|--------|
F#|--------|--------|--------|--------|--------|--------|--------|--------|--------|
C#|--------|--------|--------|--------|--------|--------|--------|--------|--------|
G#|--------|--------|--------|--------|--------|--------|--------|--------|--------|
D#|--------|--------|--------|--------|--------|--------|--------|--------|--------|


D#|--------|--------|--------|--------|--------|--------|--------|--------|--------|
A#|--------|--------|--------|--------|--------|--------|--------|--------|--------|
F#|--------|--------|--------|--------|--------|--------|--------|--------|--------|
C#|--------|--------|--------|--------|--------|--------|--------|--------|--------|
G#|--------|--------|--------|--------|--------|--------|--------|--------|--------|
D#|--------|--------|--------|--------|--------|--------|--------|--------|--------|


D#|--------|--------|--------|--------|--------|--------|--------|--------|--------|
A#|--------|--------|--------|--------|--------|--------|--------|--------|--------|
F#|--------|--------|--------|--------|--------|--------|--------|--------|--------|
C#|--------|--------|--------|--------|--------|--------|--------|--------|--------|
G#|--------|--------|--------|--------|--------|--------|--------|--------|--------|
D#|--------|--------|--------|--------|--------|--------|--------|--------|--------|


D#|--------|--------|--------|--------|--------|--------|--------|--------|--------|
A#|--------|--------|--------|--------|--------|--------|--------|--------|--------|
F#|--------|--------|--------|--------|--------|--------|--------|--------|--------|
C#|--------|--------|--------|--------|--------|--------|--------|--------|--------|
G#|--------|--------|--------|--------|--------|--------|--------|--------|--------|
D#|--------|--------|--------|--------|--------|--------|--------|--------|--------|


D#|--------|--------|--------|--------|--------|--------|--------|--------|--------|
A#|--------|--------|--------|--------|--------|--------|--------|--------|--------|
F#|--------|--------|--------|--------|--------|--------|--------|--------|--------|
C#|--------|--------|--------|--------|--------|--------|--------|--------|--------|
G#|--------|--------|--------|--------|--------|--------|--------|--------|--------|
D#|--------|--------|--------|--------|--------|--------|--------|--------|--------|


D#|--------|--------|--------|--------|--------|--------|--------|--------|--------|
A#|--------|--------|--------|--------|--------|--------|--------|--------|--------|
F#|--------|--------|--------|--------|--------|--------|--------|--------|--------|
C#|--------|--------|--------|--------|--------|--------|--------|--------|--------|
G#|--------|--------|--------|--------|--------|--------|--------|--------|--------|
D#|--------|--------|--------|--------|--------|--------|--------|--------|--------|


D#|--------|--------|--------|--------|--------|--------|--------|--------|--------|
A#|--------|--------|--------|--------|--------|--------|--------|--------|--------|
F#|--------|--------|--------|--------|--------|--------|--------|--------|--------|
C#|--------|--------|--------|--------|--------|--------|--------|--------|--------|
G#|--------|--------|--------|--------|--------|--------|--------|--------|--------|
D#|--------|--------|--------|--------|--------|--------|--------|--------|--------|


D#|--------|--------|--------|--------|--------|--------|--------|--------|--------|
A#|--------|--------|--------|--------|--------|--------|--------|--------|--------|
F#|--------|--------|--------|--------|--------|--------|--------|--------|--------|
C#|--------|--------|--------|--------|--------|--------|--------|--------|--------|
G#|--------|--------|--------|--------|--------|--------|--------|--------|--------|
D#|--------|--------|--------|--------|--------|--------|--------|--------|--------|


D#|--------|--------|--------|--------|--------|--------|--------|--------|--------|
A#|--------|--------|--------|--------|--------|--------|--------|--------|--------|
F#|--------|--------|--------|--------|--------|--------|--------|--------|--------|
C#|--------|--------|--------|--------|--------|--------|--------|--------|--------|
G#|--------|--------|--------|--------|--------|--------|--------|--------|--------|
D#|--------|--------|--------|--------|--------|--------|--------|--------|--------|


D#|--------|--------|--------|--------|--------|
A#|--------|--------|--------|--------|--------|
F#|--------|--------|--------|--------|--------|
C#|--------|--------|--------|--------|--------|
G#|--------|--------|--------|--------|--------|
D#|--------|--------|--------|--------|--------|





Track 7: Guitar R

D#|--------|--------|--------|--------|--------|--------|--------|--------|--------|
A#|--------|--------|--------|--------|--------|--------|--------|--------|--------|
F#|--------|--------|--------|--------|--------|--------|--------|--------|--------|
C#|--------|--------|--------|--------|--------|--------|--------|--------|--------|
G#|--------|--------|--------|--------|--------|--------|--------|--------|--------|
D#|--------|--------|--------|--------|--------|--------|--------|--------|--------|


D#|--------|--------|--------|--------|--------|--------|--------|--------|--------|
A#|--------|--------|--------|--------|--------|--------|--------|--------|--------|
F#|--------|--------|--------|--------|--------|--------|--------|--------|--------|
C#|--------|--------|--------|--------|--------|--------|--------|--------|--------|
G#|--------|--------|--------|--------|--------|--------|--------|--------|--------|
D#|--------|--------|--------|--------|--------|--------|--------|--------|--------|


D#|--------|--------|--------|--------|--------|--------|--------|--------|--------|
A#|--------|--------|--------|--------|--------|--------|--------|--------|--------|
F#|--------|--------|--------|--------|--------|--------|--------|--------|--------|
C#|--------|--------|--------|--------|--------|--------|--------|--------|--------|
G#|--------|--------|--------|--------|--------|--------|--------|--------|--------|
D#|--------|--------|--------|--------|--------|--------|--------|--------|--------|


D#|--------|--------|--------|--------|--------|--------|--------|--------|--------|
A#|--------|--------|--------|--------|--------|--------|--------|--------|--------|
F#|--------|--------|--------|--------|--------|--------|--------|--------|--------|
C#|--------|--------|--------|--------|--------|--------|--------|--------|--------|
G#|--------|--------|--------|--------|--------|--------|--------|--------|--------|
D#|--------|--------|--------|--------|--------|--------|--------|--------|--------|


D#|--------|--------|--------|--------|--------|--------|--------|--------|--------|
A#|--------|--------|--------|--------|--------|--------|--------|--------|--------|
F#|--------|--------|--------|--------|--------|--------|--------|--------|--------|
C#|--------|--------|--------|--------|--------|--------|--------|--------|--------|
G#|--------|--------|--------|--------|--------|--------|--------|--------|--------|
D#|--------|--------|--------|--------|--------|--------|--------|--------|--------|


D#|--------|--------|-------------|--------|--------|--------|--------|--------|--------|
A#|--------|--------|-------------|--------|--------|--------|--------|--------|--------|
F#|--------|--------|-------------|--------|--------|--------|--------|--------|--------|
C#|--------|--------|-------------|--------|--------|--------|--------|--------|--------|
G#|--------|--------|-------------|--------|--------|--------|--------|--------|--------|
D#|--------|--------|-------------|--------|--------|--------|--------|--------|--------|


D#|--------|--------|--------|--------|--------|--------|--------|--------|--------|
A#|--------|--------|--------|--------|--------|--------|--------|--------|--------|
F#|--------|--------|--------|--------|--------|--------|--------|--------|--------|
C#|--------|--------|--------|--------|--------|--------|--------|--------|--------|
G#|--------|--------|--------|--------|--------|--------|--------|--------|--------|
D#|--------|--------|--------|--------|--------|--------|--------|--------|--------|


D#|--------|--------|--------|--------|--------|--------|--------|--------|--------|
A#|--------|--------|--------|--------|--------|--------|--------|--------|--------|
F#|--------|--------|--------|--------|--------|--------|--------|--------|--------|
C#|--------|--------|--------|--------|--------|--------|--------|--------|--------|
G#|--------|--------|--------|--------|--------|--------|--------|--------|--------|
D#|--------|--------|--------|--------|--------|--------|--------|--------|--------|


D#|--------|--------|--------|--------|--------|--------|--------|--------|--------|
A#|--------|--------|--------|--------|--------|--------|--------|--------|--------|
F#|--------|--------|--------|--------|--------|--------|--------|--------|--------|
C#|--------|--------|--------|--------|--------|--------|--------|--------|--------|
G#|--------|--------|--------|--------|--------|--------|--------|--------|--------|
D#|--------|--------|--------|--------|--------|--------|--------|--------|--------|


D#|--------|--------|--------|--------|--------|--------|--------|--------|--------|
A#|--------|--------|--------|--------|--------|--------|--------|--------|--------|
F#|--------|--------|--------|--------|--------|--------|--------|--------|--------|
C#|--------|--------|--------|--------|--------|--------|--------|--------|--------|
G#|--------|--------|--------|--------|--------|--------|--------|--------|--------|
D#|--------|--------|--------|--------|--------|--------|--------|--------|--------|


D#|--------|--------|--------|--------|--------|--------|--------|--------|--------|
A#|--------|--------|--------|--------|--------|--------|--------|--------|--------|
F#|--------|--------|--------|--------|--------|--------|--------|--------|--------|
C#|--------|--------|--------|--------|--------|--------|--------|--------|--------|
G#|--------|--------|--------|--------|--------|--------|--------|--------|--------|
D#|--------|--------|--------|--------|--------|--------|--------|--------|--------|


D#|--------|--------|--------|--------|--------|--------|--------|--------|--------|
A#|--------|--------|--------|--------|--------|--------|--------|--------|--------|
F#|--------|--------|--------|--------|--------|--------|--------|--------|--------|
C#|--------|--------|--------|--------|--------|--------|--------|--------|--------|
G#|--------|--------|--------|--------|--------|--------|--------|--------|--------|
D#|--------|--------|--------|--------|--------|--------|--------|--------|--------|


D#|--------|--------|--------|--------|--------|--------|--------|--------|--------|
A#|--------|--------|--------|--------|--------|--------|--------|--------|--------|
F#|--------|--------|--------|--------|--------|--------|--------|--------|--------|
C#|--------|--------|--------|--------|--------|--------|--------|--------|--------|
G#|--------|--------|--------|--------|--------|--------|--------|--------|--------|
D#|--------|--------|--------|--------|--------|--------|--------|--------|--------|


D#|--------|--------|--------|--------|--------|
A#|--------|--------|--------|--------|--------|
F#|--------|--------|--------|--------|--------|
C#|--------|--------|--------|--------|--------|
G#|--------|--------|--------|--------|--------|
D#|--------|--------|--------|--------|--------|





Track 8: Overdub

D#|--------|--------|--------|--------|--------|--------|--------|--------|--------|
A#|--------|--------|--------|--------|--------|--------|--------|--------|--------|
F#|--------|--------|--------|--------|--------|--------|--------|--------|--------|
C#|--------|--------|--------|--------|--------|--------|--------|--------|--------|
G#|--------|--------|--------|--------|--------|--------|--------|--------|--------|
D#|--------|--------|--------|--------|--------|--------|--------|--------|--------|


D#|--------|--------|--------|--------|--------|--------|--------|--------|--------|
A#|--------|--------|--------|--------|--------|--------|--------|--------|--------|
F#|--------|--------|--------|--------|--------|--------|--------|--------|--------|
C#|--------|--------|--------|--------|--------|--------|--------|--------|--------|
G#|--------|--------|--------|--------|--------|--------|--------|--------|--------|
D#|--------|--------|--------|--------|--------|--------|--------|--------|--------|


D#|--------|--------|--------|--------|--------|--------|--------|--------|--------|
A#|--------|--------|--------|--------|--------|--------|--------|--------|--------|
F#|--------|--------|--------|--------|--------|--------|--------|--------|--------|
C#|--------|--------|--------|--------|--------|--------|--------|--------|--------|
G#|--------|--------|--------|--------|--------|--------|--------|--------|--------|
D#|--------|--------|--------|--------|--------|--------|--------|--------|--------|


D#|--------|--------|--------|--------|--------|--------|--------|--------|--------|
A#|--------|--------|--------|--------|--------|--------|--------|--------|--------|
F#|--------|--------|--------|--------|--------|--------|--------|--------|--------|
C#|--------|--------|--------|--------|--------|--------|--------|--------|--------|
G#|--------|--------|--------|--------|--------|--------|--------|--------|--------|
D#|--------|--------|--------|--------|--------|--------|--------|--------|--------|


D#|--------|--------|--------|--------|--------|--------|--------|--------|--------|
A#|--------|--------|--------|--------|--------|--------|--------|--------|--------|
F#|--------|--------|--------|--------|--------|--------|--------|--------|--------|
C#|--------|--------|--------|--------|--------|--------|--------|--------|--------|
G#|--------|--------|--------|--------|--------|--------|--------|--------|--------|
D#|--------|--------|--------|--------|--------|--------|--------|--------|--------|


D#|--------|--------|--------|--------|--------|--------|--------|--------|--------|
A#|--------|--------|--------|--------|--------|--------|--------|--------|--------|
F#|--------|--------|--------|--------|--------|--------|--------|--------|--------|
C#|--------|--------|--------|--------|--------|--------|--------|--------|--------|
G#|--------|--------|--------|--------|--------|--------|--------|--------|--------|
D#|--------|--------|--------|--------|--------|--------|--------|--------|--------|


D#|--------|-7---7---7---7---7---7---7---7---|-7------|-7------7---|--------|--------|
A#|--------|-10--10--10--10--10--10--10--10--|-10-----|-10-----10--|--------|--------|
F#|--------|---------------------------------|--------|------------|--------|--------|
C#|--------|---------------------------------|--------|------------|--------|--------|
G#|--------|---------------------------------|--------|------------|--------|--------|
D#|--------|---------------------------------|--------|------------|--------|--------|


D#|--------|--------|--------|--------|---------------------------------|---------------------------------|
A#|--------|--------|--------|--------|-19------19------19------19------|-20------20------20------20------|
F#|--------|--------|--------|--------|-----19------19------19------19--|-----19------19------19------19--|
C#|--------|--------|--------|--------|---------------------------------|---------------------------------|
G#|--------|--------|--------|--------|---------------------------------|---------------------------------|
D#|--------|--------|--------|--------|---------------------------------|---------------------------------|


D#|---------------------------------|---------------------------------|------------------------------|
A#|---------------------------------|---------------------------------|------------------------------|
F#|-16------16------17------17------|-19------19------19------19------|------------------------------|
C#|-----17------17------17------17--|-----17------17------17------17--|----------19--19--17--17------|
G#|---------------------------------|---------------------------------|-17---17------------------19--|
D#|---------------------------------|---------------------------------|------------------------------|


D#|---------------------------------|---------------------------------|-----------------------------------|
A#|---------------------------------|---------20----------20----------|-20----------20--------------------|
F#|---------17--16--16------16--19--|-19--19------19--19------19--19--|-----19--19------19-19-19--17--16--|
C#|-----17--------------17----------|---------------------------------|-----------------------------------|
G#|-19------------------------------|---------------------------------|-----------------------------------|
D#|---------------------------------|---------------------------------|-----------------------------------|


D#|---------------------------------|---------------------------------|---------------------------------|
A#|---------------------------------|---------------------------------|---------------------------------|
F#|-14--14--14--14--14--14--14--14--|-14--14--14--14--14--14--14--14--|-16--16--16--16--16--16--16--17--|
C#|---------------------------------|---------------------------------|-17--17--17--17--17--17--17--17--|
G#|---------------------------------|---------------------------------|---------------------------------|
D#|---------------------------------|---------------------------------|---------------------------------|


D#|---------------------------------|---------------------------------|---------------------------------|
A#|---------------------------------|---------------------------------|---------------------------------|
F#|-17--17--17--17--16--16--16--16--|-14--14--14--14--14--14--14--14--|-14--14--14--14--14--14--14--14--|
C#|-17--17--17--17--17--17--17--17--|---------------------------------|---------------------------------|
G#|---------------------------------|---------------------------------|---------------------------------|
D#|---------------------------------|---------------------------------|---------------------------------|


D#|---------------------------------|---------------------------------|---------------------------------|
A#|---------------------------------|---------------------------------|---------------------------------|
F#|-16--16--16--16--16--16--16--17--|-17--17--17--17--16--16--16--16--|-14--14--14--14--14--14--14--14--|
C#|-17--17--17--17--17--17--17--17--|-17--17--17--17--17--17--17--17--|---------------------------------|
G#|---------------------------------|---------------------------------|---------------------------------|
D#|---------------------------------|---------------------------------|---------------------------------|


D#|---------------------------------|---------------------------------|---------------------------------|
A#|---------------------------------|---------------------------------|---------------------------------|
F#|-14--14--14--14--14--14--14--14--|-16--16--16--16--16--16--16--16--|-16--16--16--16--16--16--16--16--|
C#|---------------------------------|-16--16--16--16--16--16--16--16--|-16--16--16--16--16--16--16--16--|
G#|---------------------------------|---------------------------------|---------------------------------|
D#|---------------------------------|---------------------------------|---------------------------------|


D#|---------------------------------|---------------------------------|---------------------------------|
A#|---------------------------------|---------------------------------|---------------------------------|
F#|-17--17--17--17--17--17--17--17--|-17--17--17--17--17--17--17--17--|-19--19--19--19--19--19--19--19--|
C#|-17--17--17--17--17--17--17--17--|-17--17--17--17--17--17--17--17--|-19--19--19--19--19--19--19--19--|
G#|---------------------------------|---------------------------------|---------------------------------|
D#|---------------------------------|---------------------------------|---------------------------------|


D#|---------------------------------|--------|--------|--------|--------|--------|
A#|---------------------------------|--------|--------|--------|--------|--------|
F#|-19--19--19--19--19--19--19--19--|--------|--------|--------|--------|--------|
C#|-19--19--19--19--19--19--19--19--|--------|--------|--------|--------|--------|
G#|---------------------------------|--------|--------|--------|--------|--------|
D#|---------------------------------|--------|--------|--------|--------|--------|


D#|--------|--------|--------|--------|--------|--------|--------|--------|--------|
A#|--------|--------|--------|--------|--------|--------|--------|--------|--------|
F#|--------|--------|--------|--------|--------|--------|--------|--------|--------|
C#|--------|--------|--------|--------|--------|--------|--------|--------|--------|
G#|--------|--------|--------|--------|--------|--------|--------|--------|--------|
D#|--------|--------|--------|--------|--------|--------|--------|--------|--------|


D#|--------|--------|--------|--------|--------|--------|--------|--------|--------|
A#|--------|--------|--------|--------|--------|--------|--------|--------|--------|
F#|--------|--------|--------|--------|--------|--------|--------|--------|--------|
C#|--------|--------|--------|--------|--------|--------|--------|--------|--------|
G#|--------|--------|--------|--------|--------|--------|--------|--------|--------|
D#|--------|--------|--------|--------|--------|--------|--------|--------|--------|


D#|--------|--------|--------|--------|--------|--------|--------|--------|--------|
A#|--------|--------|--------|--------|--------|--------|--------|--------|--------|
F#|--------|--------|--------|--------|--------|--------|--------|--------|--------|
C#|--------|--------|--------|--------|--------|--------|--------|--------|--------|
G#|--------|--------|--------|--------|--------|--------|--------|--------|--------|
D#|--------|--------|--------|--------|--------|--------|--------|--------|--------|


D#|--------|--------|
A#|--------|--------|
F#|--------|--------|
C#|--------|--------|
G#|--------|--------|
D#|--------|--------|





Track 9: Untitled

F#|--------|--------|--------|--------|--------|--------|--------|--------|------------------------------|
C#|--------|--------|--------|--------|--------|--------|--------|--------|---------------------9--------|
G#|--------|--------|--------|--------|--------|--------|--------|--------|-10--10--10--10--10-------12--|
D#|--------|--------|--------|--------|--------|--------|--------|--------|------------------------------|


F#|------------------------------|------------------------------|---------------------------------|
C#|------------------------------|------------------------------|---------------------------------|
G#|-12--12--12---12--12--12--12--|------------------------------|---------------------------------|
D#|------------------------------|-12--12--12--12--12--10---12--|-12--12--12--12--12--10--10--12--|


F#|------------------------------|------------------------------|------------------------------|
C#|---------------------9--------|------------------------------|------------------------------|
G#|-10--10--10--10--10-------12--|-12--12--12---12--12--12--12--|------------------------------|
D#|------------------------------|------------------------------|-12--12--12--12--12--10---12--|


F#|---------------------------------|------------------------------|------------------------------|
C#|---------------------------------|---------------------9--------|------------------------------|
G#|---------------------------------|-10--10--10--10--10-------12--|-12--12--12---12--12--12--12--|
D#|-12--12--12--12--12--10--10--12--|------------------------------|------------------------------|


F#|------------------------------|---------------------------------|------------------------------|
C#|------------------------------|---------------------------------|---------------------9--------|
G#|------------------------------|---------------------------------|-10--10--10--10--10-------12--|
D#|-12--12--12--12--12--10---12--|-12--12--12--12--12--10--10--12--|------------------------------|


F#|------------------------------|------------------------------|---------------------------------|
C#|------------------------------|------------------------------|---------------------------------|
G#|-12--12--12---12--12--12--12--|------------------------------|---------------------------------|
D#|------------------------------|-12--12--12--12--12--10---12--|-12--12--12--12--12--10------10--|


F#|---------------------------------|------------------------------|------------------------------|
C#|---------------------9---9-------|------------------------------|------------------------------|
G#|-10--10--10--10--10----------12--|-12--12--12---12--12--12--12--|------------------------------|
D#|---------------------------------|------------------------------|-12--12--12--12--12--10---12--|


F#|---------------------------------|---------------------------------|------------------------------|
C#|---------------------------------|---------------------9---9-------|------------------------------|
G#|---------------------------------|-10--10--10--10--10----------12--|-12--12--12---12--12--12--12--|
D#|-12--12--12--12--12--10--10--12--|---------------------------------|------------------------------|


F#|------------------------------|---------------------------------|------------------------------|
C#|------------------------------|---------------------------------|------------------------------|
G#|------------------------------|---------------------------------|-2---2---2----2---2---2---3---|
D#|-12--12--12--12--12--10---12--|-12--12--12--12--12--12--12--12--|------------------------------|


F#|------------------------------|---------------------------|---------------------------------|
C#|------------------------------|-5----5----5---5---5---4---|-4---4---4---4---4---4---4---4---|
G#|-3---3---3----3---3---3---3---|---------------------------|---------------------------------|
D#|------------------------------|---------------------------|---------------------------------|


F#|---------------------------|------------------------------|---------------------------|
C#|---------------------------|------------------------------|-5----5----5---5---5---4---|
G#|-2----2----2-------2---3---|-3---3---3----3---3---3---3---|---------------------------|
D#|---------------3-----------|------------------------------|---------------------------|


F#|---------------------------------|------------------------------|------------------------------|
C#|-4---4---4---4---4---4---4---4---|---------------------9--------|------------------------------|
G#|---------------------------------|-10--10--10--10--10-------12--|-12--12--12---12--12--12--12--|
D#|---------------------------------|------------------------------|------------------------------|


F#|------------------------------|---------------------------------|------------------------------|
C#|------------------------------|---------------------------------|---------------------9--------|
G#|------------------------------|---------------------------------|-10--10--10--10--10-------12--|
D#|-12--12--12--12--12--10---12--|-12--12--12--12--12--10--10--12--|------------------------------|


F#|------------------------------|------------------------------|---------------------------------|
C#|------------------------------|------------------------------|---------------------------------|
G#|-12--12--12---12--12--12--12--|------------------------------|---------------------------------|
D#|------------------------------|-12--12--12--12--12--10---12--|-12--12--12--12--12--10------10--|


F#|---------------------------------|------------------------------|------------------------------|
C#|---------------------9---9-------|------------------------------|------------------------------|
G#|-10--10--10--10--10----------12--|-12--12--12---12--12--12--12--|------------------------------|
D#|---------------------------------|------------------------------|-12--12--12--12--12--10---12--|


F#|---------------------------------|---------------------------------|------------------------------|
C#|---------------------------------|---------------------9---9-------|------------------------------|
G#|---------------------------------|-10--10--10--10--10----------12--|-12--12--12---12--12--12--12--|
D#|-12--12--12--12--12--10--10--12--|---------------------------------|------------------------------|


F#|------------------------------|--------|---------------------------|------------------------------|
C#|------------------------------|--------|---------------------------|------------------------------|
G#|------------------------------|--------|-2----2----2-------2---3---|-3---3---3----3---3---3---3---|
D#|-12--12--12--12--12--10---12--|--------|---------------3-----------|------------------------------|


F#|---------------------------|---------------------------------|---------------------------|
C#|-5----5----5---5---5---4---|-4---4---4---4---4---4---4---4---|---------------------------|
G#|---------------------------|---------------------------------|-2----2----2-------2---3---|
D#|---------------------------|---------------------------------|---------------3-----------|


F#|------------------------------|---------------------------|---------------------------------|
C#|------------------------------|-5----5----5---5---5---4---|-4---4---4---4---4---4---4---4---|
G#|-3---3---3----3---3---3---3---|---------------------------|---------------------------------|
D#|------------------------------|---------------------------|---------------------------------|


F#|---------------------------------|---------------------------------|---------------------------------|
C#|---------------------------------|---------------------------------|---------------------------------|
G#|-5---5---5---5---5---5---5---7---|-7---7---7---7---7---7---7---7---|-3---3---3---3---3---3---3---3---|
D#|---------------------------------|---------------------------------|---------------------------------|


F#|---------------------------------|---------------------------------|---------------------------------|
C#|---------------------------------|---------------------------------|---------------------------------|
G#|-3---3---3---3---3---3---3---3---|-5---5---5---5---5---5---5---7---|-7---7---7---7---7---7---7---7---|
D#|---------------------------------|---------------------------------|---------------------------------|


F#|---------------------------------|---------------------------------|---------------------------------|
C#|---------------------------------|---------------------------------|---------------------------------|
G#|-3---3---3---3---3---3---3---3---|-3---3---3---3---3---3---3---3---|-12--12--12--12--12--12--12--12--|
D#|---------------------------------|---------------------------------|---------------------------------|


F#|---------------------------------|---------------------------------|---------------------------------|
C#|---------------------------------|---------------------------------|---------------------------------|
G#|-12--12--12--12--12--12--12--12--|-7---7---7---7---7-----------7---|-7---7-----------7-----------7---|
D#|---------------------------------|---------------------0---0-------|---------0---0-------0---0-------|


F#|---------------------------------|---------------------------------|---------------------------------|
C#|---------------------------------|---------------------------------|---------------------------------|
G#|-12--12--12--12--12--12--12--12--|-12--12--12--12--12--12--12--12--|-7---7---7---7---7-----------7---|
D#|---------------------------------|---------------------------------|---------------------0---0-------|


F#|---------------------------------|---------------------------------|---------------------------------|
C#|---------------------------------|---------------------------------|---------------------------------|
G#|-7---7-----------7-----------7---|-12--12--12--12--12--12--12--12--|-12--12--12--12--12--12--12--12--|
D#|---------0---0-------0---0-------|---------------------------------|---------------------------------|


F#|---------------------------------|---------------------------------|---------------------------------|
C#|---------------------------------|---------------------------------|---------------------------------|
G#|-2---2---2---0---2---2---0---2---|-2---2---2---0---2---2---2---2---|-3---3---3---2---3---3---2---3---|
D#|---------------------------------|---------------------------------|---------------------------------|


F#|---------------------------------|---------------------------------|---------------------------------|
C#|---------------------------------|---------------------------------|---------------------------------|
G#|-3---3---3---3---3---3---3---3---|-5---5---5---3---5---5---5---17--|-17--17--17--17--17--17--17--17--|
D#|---------------------------------|---------------------------------|---------------------------------|


F#|---------------------------|------------------------------|---------------------------|
C#|---------------------------|------------------------------|---------------------------|
G#|-2----2----2-------2---3---|-3---3---3----3---3---3---3---|---------------------------|
D#|---------------3-----------|------------------------------|-3----3----3---3---3---2---|


F#|---------------------------------|---------------------------|------------------------------|
C#|---------------------------------|---------------------------|------------------5-----------|
G#|---------------------------------|-2----2----2-------2---3---|-3---3---3----3-------3---5---|
D#|-2---2---2---2---2---2---2---2---|---------------3-----------|------------------------------|


F#|---------------------------|---------------------------------|---------------------------|
C#|-5----5----5-------5---4---|-4---4---4-----------------------|---------------5-----------|
G#|---------------5-----------|-------------5---5---5---5---5---|-2----2----2-------2---3---|
D#|---------------------------|---------------------------------|---------------------------|


F#|------------------------------|------------------------------|---------------------------------|
C#|------------------------------|------------------------------|---------------------------------|
G#|-3---3---3----3---3---3---3---|------------------------------|---------------------------------|
D#|------------------------------|-3----3---3---3---3---3---2---|-2---2---2---2---2---2---2---2---|


F#|---------------------------|------------------------------|---------------------------|
C#|---------------------------|------------------------------|-5----5----5-------5---4---|
G#|-2----2----2-------2---3---|-3---3---3----3-------3---5---|---------------5-----------|
D#|---------------3-----------|------------------3-----------|---------------------------|


F#|---------------------------------|------------------------------|------------------------------|
C#|-4---4---4-----------------------|---------------------9--------|------------------------------|
G#|-------------5---5---5---5---5---|-10--10--10--10--10-------12--|-12--12--12---12--12--12--12--|
D#|---------------------------------|------------------------------|------------------------------|


F#|------------------------------|---------------------------------|---------------------------------|
C#|------------------------------|---------------------------------|---------------------9---9-------|
G#|------------------------------|---------------------------------|-10--10--10--10--10----------12--|
D#|-12--12--12--12--12--10---12--|-12--12--12--12--12--10--10--12--|---------------------------------|


F#|------------------------------|------------------------------|---------------------------------|
C#|------------------------------|------------------------------|---------------------------------|
G#|-12--12--12---12--12--12--12--|------------------------------|---------------------------------|
D#|------------------------------|-12--12--12--12--12--10---12--|-12--12--12--12--12--10--10--12--|


F#|------------------------------|------------------------------|------------------------------|
C#|------------------9---9-------|------------------------------|------------------------------|
G#|-10--10--10---------------12--|-12--12--12-------12--12--12--|------------------------------|
D#|------------------------------|------------------------------|-12--12--12-------12--12--12--|


F#|------------------------------|------------------------------|------------------------------|
C#|------------------------------|------------------9---9-------|------------------------------|
G#|------------------------------|-10--10--10---------------0---|-0---0---0--------0---0---0---|
D#|-12--12--12-------12--12--12--|------------------------------|------------------------------|


F#|-----------------|--------|--------|--------|
C#|-----------------|--------|--------|--------|
G#|-7---------------|--------|--------|--------|
D#|-------7----7----|-0------|-0------|-0------|