Menu:

 

Search:

 

the killers - mr brightside:

 



Title: Mr. Brightside
Artist: 
Album: Hot Fuss
Author: The Killers


Track 1: Clean Left

D#|---------------------12----------|---------------------12----------|---------------------12----------|
A#|---------15------15------15------|---------15------15------15------|---------15------15------15------|
F#|-----14------14--------------14--|-----14------14--------------14--|-----14------14--------------14--|
C#|-12------------------------------|-11------------------------------|---------------------------------|
G#|---------------------------------|---------------------------------|-10------------------------------|
D#|---------------------------------|---------------------------------|---------------------------------|


D#|---------------------12----------|---------------------12----------|---------------------12----------|
A#|---------15------15------15------|---------15------15------15------|---------15------15------15------|
F#|-----14------14--------------14--|-----14------14--------------14--|-----14------14--------------14--|
C#|---------------------------------|-12------------------------------|-11------------------------------|
G#|-10------------------------------|---------------------------------|---------------------------------|
D#|---------------------------------|---------------------------------|---------------------------------|


D#|---------------------12----------|---------------------12----------|---------------------12----------|
A#|---------15------15------15------|---------15------15------15------|---------15------15------15------|
F#|-----14------14--------------14--|-----14------14--------------14--|-----14------14--------------14--|
C#|---------------------------------|---------------------------------|-12------------------------------|
G#|-10------------------------------|-10------------------------------|---------------------------------|
D#|---------------------------------|---------------------------------|---------------------------------|


D#|---------------------12----------|---------------------12----------|---------------------12----------|
A#|---------15------15------15------|---------15------15------15------|---------15------15------15------|
F#|-----14------14--------------14--|-----14------14--------------14--|-----14------14--------------14--|
C#|-11------------------------------|---------------------------------|---------------------------------|
G#|---------------------------------|-10------------------------------|-10------------------------------|
D#|---------------------------------|---------------------------------|---------------------------------|


D#|---------------------12----------|---------------------12----------|---------------------12----------|
A#|---------15------15------15------|---------15------15------15------|---------15------15------15------|
F#|-----14------14--------------14--|-----14------14--------------14--|-----14------14--------------14--|
C#|-12------------------------------|-11------------------------------|---------------------------------|
G#|---------------------------------|---------------------------------|-10------------------------------|
D#|---------------------------------|---------------------------------|---------------------------------|


D#|---------------------12----------|---------------------12----------|---------------------12----------|
A#|---------15------15------15------|---------15------15------15------|---------15------15------15------|
F#|-----14------14--------------14--|-----14------14--------------14--|-----14------14--------------14--|
C#|---------------------------------|-12------------------------------|-11------------------------------|
G#|-10------------------------------|---------------------------------|---------------------------------|
D#|---------------------------------|---------------------------------|---------------------------------|


D#|---------------------12----------|---------------------12----------|-----------------0---------------|
A#|---------15------15------15------|---------15------15------15------|---------3-----------3-------3---|
F#|-----14------14--------------14--|-----14------14--------------14--|-----0-------0-----------0-------|
C#|---------------------------------|---------------------------------|---------------------------------|
G#|-10------------------------------|-10------------------------------|-2-------------------------------|
D#|---------------------------------|---------------------------------|---------------------------------|


D#|-----------------0---------------|-----------------0---------------|-----------------0---------------|
A#|---------3-----------3-------3---|---------3-----------3-------3---|---------3-----------3-------3---|
F#|-----0-------0-----------0-------|-----0-------0-----------0-------|-----0-------0-----------0-------|
C#|---------------------------------|---------------------------------|---------------------------------|
G#|-2-------------------------------|-0-------------------------------|-0-------------------------------|
D#|---------------------------------|---------------------------------|---------------------------------|


D#|-----------------0---------------|-----------------0---------------|-----------------0---------------|
A#|---------------------3-------3---|---------------------3-------3---|---------------------3-------3---|
F#|---------0---------------0-------|---------0---------------0-------|---------0---------------0-------|
C#|-----0-------0-------------------|-----0-------0-------------------|-----0-------0-------------------|
G#|---------------------------------|---------------------------------|---------------------------------|
D#|-3-------------------------------|-3-------------------------------|-3-------------------------------|


D#|-----------------0---------------|-----------------0---------------|-----------------0---------------|
A#|---------------------3-------3---|---------3-----------3-------3---|---------3-----------3-------3---|
F#|---------0---------------0-------|-----0-------0-----------0-------|-----0-------0-----------0-------|
C#|-----0-------0-------------------|---------------------------------|---------------------------------|
G#|---------------------------------|-2-------------------------------|-2-------------------------------|
D#|-3-------------------------------|---------------------------------|---------------------------------|


D#|-----------------0---------------|-----------------0---------------|-----------------0---------------|
A#|---------3-----------3-------3---|---------3-----------3-------3---|---------------------3-------3---|
F#|-----0-------0-----------0-------|-----0-------0-----------0-------|---------0---------------0-------|
C#|---------------------------------|---------------------------------|-----0-------0-------------------|
G#|-0-------------------------------|-0-------------------------------|---------------------------------|
D#|---------------------------------|---------------------------------|-3-------------------------------|


D#|-----------------0---------------|-----------------0---------------|-----------------0---------------|
A#|---------------------3-------3---|---------------------3-------3---|---------------------3-------3---|
F#|---------0---------------0-------|---------0---------------0-------|---------0---------------0-------|
C#|-----0-------0-------------------|-----0-------0-------------------|-----0-------0-------------------|
G#|---------------------------------|---------------------------------|---------------------------------|
D#|-3-------------------------------|-3-------------------------------|-3-------------------------------|


D#|--------|--------|--------|--------|--------|--------|--------|--------|--------|
A#|--------|--------|--------|--------|--------|--------|--------|--------|--------|
F#|--------|--------|--------|--------|--------|--------|--------|--------|--------|
C#|--------|--------|--------|--------|--------|--------|--------|--------|--------|
G#|--------|--------|--------|--------|--------|--------|--------|--------|--------|
D#|--------|--------|--------|--------|--------|--------|--------|--------|--------|


D#|--------|--------|--------|--------|--------|--------|--------|--------|--------|
A#|--------|--------|--------|--------|--------|--------|--------|--------|--------|
F#|--------|--------|--------|--------|--------|--------|--------|--------|--------|
C#|--------|--------|--------|--------|--------|--------|--------|--------|--------|
G#|--------|--------|--------|--------|--------|--------|--------|--------|--------|
D#|--------|--------|--------|--------|--------|--------|--------|--------|--------|


D#|--------|--------|--------|--------|--------|--------|---------------------12----------|
A#|--------|--------|--------|--------|--------|--------|---------15------15------15------|
F#|--------|--------|--------|--------|--------|--------|-----14------14--------------14--|
C#|--------|--------|--------|--------|--------|--------|-12------------------------------|
G#|--------|--------|--------|--------|--------|--------|---------------------------------|
D#|--------|--------|--------|--------|--------|--------|---------------------------------|


D#|---------------------12----------|---------------------12----------|---------------------12----------|
A#|---------15------15------15------|---------15------15------15------|---------15------15------15------|
F#|-----14------14--------------14--|-----14------14--------------14--|-----14------14--------------14--|
C#|-11------------------------------|---------------------------------|---------------------------------|
G#|---------------------------------|-10------------------------------|-10------------------------------|
D#|---------------------------------|---------------------------------|---------------------------------|


D#|---------------------12----------|---------------------12----------|---------------------12----------|
A#|---------15------15------15------|---------15------15------15------|---------15------15------15------|
F#|-----14------14--------------14--|-----14------14--------------14--|-----14------14--------------14--|
C#|-12------------------------------|-11------------------------------|---------------------------------|
G#|---------------------------------|---------------------------------|-10------------------------------|
D#|---------------------------------|---------------------------------|---------------------------------|


D#|---------------------12----------|---------------------12----------|---------------------12----------|
A#|---------15------15------15------|---------15------15------15------|---------15------15------15------|
F#|-----14------14--------------14--|-----14------14--------------14--|-----14------14--------------14--|
C#|---------------------------------|-12------------------------------|-11------------------------------|
G#|-10------------------------------|---------------------------------|---------------------------------|
D#|---------------------------------|---------------------------------|---------------------------------|


D#|---------------------12----------|---------------------12----------|---------------------12----------|
A#|---------15------15------15------|---------15------15------15------|---------15------15------15------|
F#|-----14------14--------------14--|-----14------14--------------14--|-----14------14--------------14--|
C#|---------------------------------|---------------------------------|-12------------------------------|
G#|-10------------------------------|-10------------------------------|---------------------------------|
D#|---------------------------------|---------------------------------|---------------------------------|


D#|---------------------12----------|---------------------12----------|---------------------12----------|
A#|---------15------15------15------|---------15------15------15------|---------15------15------15------|
F#|-----14------14--------------14--|-----14------14--------------14--|-----14------14--------------14--|
C#|-11------------------------------|---------------------------------|---------------------------------|
G#|---------------------------------|-10------------------------------|-10------------------------------|
D#|---------------------------------|---------------------------------|---------------------------------|


D#|-----------------0---------------|-----------------0---------------|-----------------0---------------|
A#|---------3-----------3-------3---|---------3-----------3-------3---|---------3-----------3-------3---|
F#|-----0-------0-----------0-------|-----0-------0-----------0-------|-----0-------0-----------0-------|
C#|---------------------------------|---------------------------------|---------------------------------|
G#|-2-------------------------------|-2-------------------------------|-0-------------------------------|
D#|---------------------------------|---------------------------------|---------------------------------|


D#|-----------------0---------------|-----------------0---------------|-----------------0---------------|
A#|---------3-----------3-------3---|---------------------3-------3---|---------------------3-------3---|
F#|-----0-------0-----------0-------|---------0---------------0-------|---------0---------------0-------|
C#|---------------------------------|-----0-------0-------------------|-----0-------0-------------------|
G#|-0-------------------------------|---------------------------------|---------------------------------|
D#|---------------------------------|-3-------------------------------|-3-------------------------------|


D#|-----------------0---------------|-----------------0---------------|-----------------0---------------|
A#|---------------------3-------3---|---------------------3-------3---|---------3-----------3-------3---|
F#|---------0---------------0-------|---------0---------------0-------|-----0-------0-----------0-------|
C#|-----0-------0-------------------|-----0-------0-------------------|---------------------------------|
G#|---------------------------------|---------------------------------|-2-------------------------------|
D#|-3-------------------------------|-3-------------------------------|---------------------------------|


D#|-----------------0---------------|-----------------0---------------|-----------------0---------------|
A#|---------3-----------3-------3---|---------3-----------3-------3---|---------3-----------3-------3---|
F#|-----0-------0-----------0-------|-----0-------0-----------0-------|-----0-------0-----------0-------|
C#|---------------------------------|---------------------------------|---------------------------------|
G#|-2-------------------------------|-0-------------------------------|-0-------------------------------|
D#|---------------------------------|---------------------------------|---------------------------------|


D#|-----------------0---------------|-----------------0---------------|-----------------0---------------|
A#|---------------------3-------3---|---------------------3-------3---|---------------------3-------3---|
F#|---------0---------------0-------|---------0---------------0-------|---------0---------------0-------|
C#|-----0-------0-------------------|-----0-------0-------------------|-----0-------0-------------------|
G#|---------------------------------|---------------------------------|---------------------------------|
D#|-3-------------------------------|-3-------------------------------|-3-------------------------------|


D#|-----------------0---------------|--------|--------|--------|--------|--------|
A#|---------------------3-------3---|--------|--------|--------|--------|--------|
F#|---------0---------------0-------|--------|--------|--------|--------|--------|
C#|-----0-------0-------------------|--------|--------|--------|--------|--------|
G#|---------------------------------|--------|--------|--------|--------|--------|
D#|-3-------------------------------|--------|--------|--------|--------|--------|


D#|--------|--------|--------|--------|--------|--------|--------|--------|--------|
A#|--------|--------|--------|--------|--------|--------|--------|--------|--------|
F#|--------|--------|--------|--------|--------|--------|--------|--------|--------|
C#|--------|--------|--------|--------|--------|--------|--------|--------|--------|
G#|--------|--------|--------|--------|--------|--------|--------|--------|--------|
D#|--------|--------|--------|--------|--------|--------|--------|--------|--------|


D#|--------|--------|--------|--------|--------|--------|--------|--------|--------|
A#|--------|--------|--------|--------|--------|--------|--------|--------|--------|
F#|--------|--------|--------|--------|--------|--------|--------|--------|--------|
C#|--------|--------|--------|--------|--------|--------|--------|--------|--------|
G#|--------|--------|--------|--------|--------|--------|--------|--------|--------|
D#|--------|--------|--------|--------|--------|--------|--------|--------|--------|


D#|--------|--------|--------|--------|--------|--------|--------|--------|--------|
A#|--------|--------|--------|--------|--------|--------|--------|--------|--------|
F#|--------|--------|--------|--------|--------|--------|--------|--------|--------|
C#|--------|--------|--------|--------|--------|--------|--------|--------|--------|
G#|--------|--------|--------|--------|--------|--------|--------|--------|--------|
D#|--------|--------|--------|--------|--------|--------|--------|--------|--------|


D#|--------|--------|--------|--------|--------|--------|--------|--------|--------|
A#|--------|--------|--------|--------|--------|--------|--------|--------|--------|
F#|--------|--------|--------|--------|--------|--------|--------|--------|--------|
C#|--------|--------|--------|--------|--------|--------|--------|--------|--------|
G#|--------|--------|--------|--------|--------|--------|--------|--------|--------|
D#|--------|--------|--------|--------|--------|--------|--------|--------|--------|





Track 2: Distortion Left

D#|--------|--------|--------|--------|--------|--------|--------|--------|--------|
A#|--------|--------|--------|--------|--------|--------|--------|--------|--------|
F#|--------|--------|--------|--------|--------|--------|--------|--------|--------|
C#|--------|--------|--------|--------|--------|--------|--------|--------|--------|
G#|--------|--------|--------|--------|--------|--------|--------|--------|--------|
D#|--------|--------|--------|--------|--------|--------|--------|--------|--------|


D#|--------|--------|--------|--------|--------|--------|--------|--------|--------|
A#|--------|--------|--------|--------|--------|--------|--------|--------|--------|
F#|--------|--------|--------|--------|--------|--------|--------|--------|--------|
C#|--------|--------|--------|--------|--------|--------|--------|--------|--------|
G#|--------|--------|--------|--------|--------|--------|--------|--------|--------|
D#|--------|--------|--------|--------|--------|--------|--------|--------|--------|


D#|--------|--------|--------|--------|--------|--------|--------|--------|--------|
A#|--------|--------|--------|--------|--------|--------|--------|--------|--------|
F#|--------|--------|--------|--------|--------|--------|--------|--------|--------|
C#|--------|--------|--------|--------|--------|--------|--------|--------|--------|
G#|--------|--------|--------|--------|--------|--------|--------|--------|--------|
D#|--------|--------|--------|--------|--------|--------|--------|--------|--------|


D#|--------|--------|--------|--------|--------|--------|--------|--------|--------|
A#|--------|--------|--------|--------|--------|--------|--------|--------|--------|
F#|--------|--------|--------|--------|--------|--------|--------|--------|--------|
C#|--------|--------|--------|--------|--------|--------|--------|--------|--------|
G#|--------|--------|--------|--------|--------|--------|--------|--------|--------|
D#|--------|--------|--------|--------|--------|--------|--------|--------|--------|


D#|---------------------------------|---------------------------------|---------------------------------|
A#|-7-------7-------7-------7-------|-8-------8-------8-------8-------|-10------10------10------10------|
F#|-----7-------7-------7-------7---|-----7-------7-------7-------7---|-----7-------7-------7-------7---|
C#|---------------------------------|---------------------------------|---------------------------------|
G#|---------------------------------|---------------------------------|---------------------------------|
D#|---------------------------------|---------------------------------|---------------------------------|


D#|---------------------------------|---------------------------------|---------------------------------|
A#|-5-------3-------2-------3---3---|-7-------7-------7-------7-------|-8-------8-------8-------8-------|
F#|-----2-------2-------2-------2---|-----7-------7-------7-------7---|-----7-------7-------7-------7---|
C#|---------------------------------|---------------------------------|---------------------------------|
G#|---------------------------------|---------------------------------|---------------------------------|
D#|---------------------------------|---------------------------------|---------------------------------|


D#|---------------------------------|---------------------------------|---------------------------------|
A#|-10------10------10------10------|-5-------3-------2-------3---3---|-10----------10----------10------|
F#|-----7-------7-------7-------7---|-----2-------2-------2-------2---|-----11----------11----------11--|
C#|---------------------------------|---------------------------------|---------12----------12----------|
G#|---------------------------------|---------------------------------|---------------------------------|
D#|---------------------------------|---------------------------------|---------------------------------|


D#|---------------------------------|---------------------------------|---------------------------------|
A#|-12----------12----------12------|-15----------15----------15------|---------------------------------|
F#|-----12----------12----------12--|-----14----------14----------14--|---------------------------------|
C#|---------12----------12----------|---------12----------12----------|-14------12------11------12------|
G#|---------------------------------|---------------------------------|-----12------12------12------12--|
D#|---------------------------------|---------------------------------|---------------------------------|


D#|---------------------------------|---------------------------------|---------------------------------|
A#|-10----------10----------10------|-12----------12----------12------|-15----------15----------15------|
F#|-----11----------11----------11--|-----12----------12----------12--|-----14----------14----------14--|
C#|---------12----------12----------|---------12----------12----------|---------12----------12----------|
G#|---------------------------------|---------------------------------|---------------------------------|
D#|---------------------------------|---------------------------------|---------------------------------|


D#|---------------------------------|---------------------------------|---------------------------------|
A#|---------------------------------|-7-------7-------7-------7-------|-8-------8-------8-------8-------|
F#|---------------------------------|-----7-------7-------7-------7---|-----7-------7-------7-------7---|
C#|-14------12------11------12------|---------------------------------|---------------------------------|
G#|-----12------12------12------12--|---------------------------------|---------------------------------|
D#|---------------------------------|---------------------------------|---------------------------------|


D#|---------------------------------|---------------------------------|---------------------------------|
A#|-10------10------10------10------|-5-------3-------2-------3---3---|-7-------7-------7-------7-------|
F#|-----7-------7-------7-------7---|-----2-------2-------2-------2---|-----7-------7-------7-------7---|
C#|---------------------------------|---------------------------------|---------------------------------|
G#|---------------------------------|---------------------------------|---------------------------------|
D#|---------------------------------|---------------------------------|---------------------------------|


D#|---------------------------------|---------------------------------|---------------------------------|
A#|-8-------8-------8-------8-------|-10------10------10------10------|-5-------3-------2-------3---3---|
F#|-----7-------7-------7-------7---|-----7-------7-------7-------7---|-----2-------2-------2-------2---|
C#|---------------------------------|---------------------------------|---------------------------------|
G#|---------------------------------|---------------------------------|---------------------------------|
D#|---------------------------------|---------------------------------|---------------------------------|


D#|--------|--------|--------|--------|--------|--------|--------|--------|--------|
A#|--------|--------|--------|--------|--------|--------|--------|--------|--------|
F#|--------|--------|--------|--------|--------|--------|--------|--------|--------|
C#|--------|--------|--------|--------|--------|--------|--------|--------|--------|
G#|--------|--------|--------|--------|--------|--------|--------|--------|--------|
D#|--------|--------|--------|--------|--------|--------|--------|--------|--------|


D#|--------|--------|--------|--------|--------|--------|--------|--------|--------|
A#|--------|--------|--------|--------|--------|--------|--------|--------|--------|
F#|--------|--------|--------|--------|--------|--------|--------|--------|--------|
C#|--------|--------|--------|--------|--------|--------|--------|--------|--------|
G#|--------|--------|--------|--------|--------|--------|--------|--------|--------|
D#|--------|--------|--------|--------|--------|--------|--------|--------|--------|


D#|--------|--------|--------|--------|--------|--------|--------|--------|--------|
A#|--------|--------|--------|--------|--------|--------|--------|--------|--------|
F#|--------|--------|--------|--------|--------|--------|--------|--------|--------|
C#|--------|--------|--------|--------|--------|--------|--------|--------|--------|
G#|--------|--------|--------|--------|--------|--------|--------|--------|--------|
D#|--------|--------|--------|--------|--------|--------|--------|--------|--------|


D#|--------|--------|--------|--------|--------|---------------------------------|
A#|--------|--------|--------|--------|--------|-7-------7-------7-------7-------|
F#|--------|--------|--------|--------|--------|-----7-------7-------7-------7---|
C#|--------|--------|--------|--------|--------|---------------------------------|
G#|--------|--------|--------|--------|--------|---------------------------------|
D#|--------|--------|--------|--------|--------|---------------------------------|


D#|---------------------------------|---------------------------------|---------------------------------|
A#|-8-------8-------8-------8-------|-10------10------10------10------|-5-------3-------2-------3---3---|
F#|-----7-------7-------7-------7---|-----7-------7-------7-------7---|-----2-------2-------2-------2---|
C#|---------------------------------|---------------------------------|---------------------------------|
G#|---------------------------------|---------------------------------|---------------------------------|
D#|---------------------------------|---------------------------------|---------------------------------|


D#|---------------------------------|---------------------------------|---------------------------------|
A#|-7-------7-------7-------7-------|-8-------8-------8-------8-------|-10------10------10------10------|
F#|-----7-------7-------7-------7---|-----7-------7-------7-------7---|-----7-------7-------7-------7---|
C#|---------------------------------|---------------------------------|---------------------------------|
G#|---------------------------------|---------------------------------|---------------------------------|
D#|---------------------------------|---------------------------------|---------------------------------|


D#|---------------------------------|---------------------------------|---------------------------------|
A#|-5-------3-------2-------3---3---|-10----------10----------10------|-12----------12----------12------|
F#|-----2-------2-------2-------2---|-----11----------11----------11--|-----12----------12----------12--|
C#|---------------------------------|---------12----------12----------|---------12----------12----------|
G#|---------------------------------|---------------------------------|---------------------------------|
D#|---------------------------------|---------------------------------|---------------------------------|


D#|---------------------------------|---------------------------------|---------------------------------|
A#|-15----------15----------15------|---------------------------------|-10----------10----------10------|
F#|-----14----------14----------14--|---------------------------------|-----11----------11----------11--|
C#|---------12----------12----------|-14------12------11------12------|---------12----------12----------|
G#|---------------------------------|-----12------12------12------12--|---------------------------------|
D#|---------------------------------|---------------------------------|---------------------------------|


D#|---------------------------------|---------------------------------|---------------------------------|
A#|-12----------12----------12------|-15----------15----------15------|---------------------------------|
F#|-----12----------12----------12--|-----14----------14----------14--|---------------------------------|
C#|---------12----------12----------|---------12----------12----------|-14------12------11------12------|
G#|---------------------------------|---------------------------------|-----12------12------12------12--|
D#|---------------------------------|---------------------------------|---------------------------------|


D#|---------------------------------|---------------------------------|---------------------------------|
A#|-7-------7-------8-------10------|-8-------10------8-------7-------|-7-------7-------8-------7-------|
F#|-----7-------7-------7-------7---|-----7-------7-------7-------7---|-----7-------7-------7-------7---|
C#|---------------------------------|---------------------------------|---------------------------------|
G#|---------------------------------|---------------------------------|---------------------------------|
D#|---------------------------------|---------------------------------|---------------------------------|


D#|---------------------------|---------------------------------|---------------------------------|
A#|-5-------3-------2---2-----|-7-------7-------8-------10------|-8-------10------8-------7-------|
F#|-----2-------2-------2-----|-----7-------7-------7-------7---|-----7-------7-------7-------7---|
C#|---------------------------|---------------------------------|---------------------------------|
G#|---------------------------|---------------------------------|---------------------------------|
D#|---------------------------|---------------------------------|---------------------------------|


D#|---------------------------------|---------------------------|---------------------------------|
A#|-7-------7-------8-------7-------|-5-------3-------2---2-----|-7-------7-------7-------7-------|
F#|-----7-------7-------7-------7---|-----2-------2-------2-----|-----7-------7-------7-------7---|
C#|---------------------------------|---------------------------|---------------------------------|
G#|---------------------------------|---------------------------|---------------------------------|
D#|---------------------------------|---------------------------|---------------------------------|


D#|---------------------------------|---------------------------------|---------------------------------|
A#|-8-------8-------8-------8-------|-10------10------10------10------|-5-------3-------2-------3---3---|
F#|-----7-------7-------7-------7---|-----7-------7-------7-------7---|-----2-------2-------2-------2---|
C#|---------------------------------|---------------------------------|---------------------------------|
G#|---------------------------------|---------------------------------|---------------------------------|
D#|---------------------------------|---------------------------------|---------------------------------|


D#|---------------------------------|---------------------------------|---------------------------------|
A#|-7-------7-------7-------7-------|-8-------8-------8-------8-------|-10------10------10------10------|
F#|-----7-------7-------7-------7---|-----7-------7-------7-------7---|-----7-------7-------7-------7---|
C#|---------------------------------|---------------------------------|---------------------------------|
G#|---------------------------------|---------------------------------|---------------------------------|
D#|---------------------------------|---------------------------------|---------------------------------|


D#|---------------------------------|---------------------------------|---------------------------------|
A#|-5-------3-------2-------3---3---|-7-------7-------7-------7-------|-8-------8-------8-------8-------|
F#|-----2-------2-------2-------2---|-----7-------7-------7-------7---|-----7-------7-------7-------7---|
C#|---------------------------------|---------------------------------|---------------------------------|
G#|---------------------------------|---------------------------------|---------------------------------|
D#|---------------------------------|---------------------------------|---------------------------------|


D#|---------------------------------|---------------------------------|---------------------------------|
A#|-10------10------10------10------|-5-------3-------2-------3---3---|-7-------7-------7-------7-------|
F#|-----7-------7-------7-------7---|-----2-------2-------2-------2---|-----7-------7-------7-------7---|
C#|---------------------------------|---------------------------------|---------------------------------|
G#|---------------------------------|---------------------------------|---------------------------------|
D#|---------------------------------|---------------------------------|---------------------------------|


D#|---------------------------------|---------------------------------|-----------------|
A#|-8-------8-------8-------8-------|-10------10------10------10------|-5----3----2-----|
F#|-----7-------7-------7-------7---|-----7-------7-------7-------7---|-2----2----2-----|
C#|---------------------------------|---------------------------------|-----------------|
G#|---------------------------------|---------------------------------|-----------------|
D#|---------------------------------|---------------------------------|-----------------|


D#|--------|
A#|-2------|
F#|-2------|
C#|--------|
G#|--------|
D#|--------|





Track 3: Bass

F#|--------|--------|--------|--------|--------|--------|--------|--------|---------------------------------|
C#|--------|--------|--------|--------|--------|--------|--------|--------|---------------------------------|
G#|--------|--------|--------|--------|--------|--------|--------|--------|-5---5---5---5---5---5---5---5---|
D#|--------|--------|--------|--------|--------|--------|--------|--------|---------------------------------|


F#|---------------------------------|---------------------------------|---------------------------------|
C#|---------------------------------|---------------------------------|---------------------------------|
G#|-4---4---4---4---4---4---4---4---|---------------------------------|---------------------------------|
D#|---------------------------------|-3---3---3---3---3---3---3---3---|-3---3---3---3---3---3---3---3---|


F#|---------------------------------|---------------------------------|---------------------------------|
C#|---------------------------------|---------------------------------|---------------------------------|
G#|-5---5---5---5---5---5---5---5---|-4---4---4---4---4---4---4---4---|---------------------------------|
D#|---------------------------------|---------------------------------|-3---3---3---3---3---3---3---3---|


F#|---------------------------------|---------------------------------|---------------------------------|
C#|---------------------------------|---------------------------------|---------------------------------|
G#|---------------------------------|-5---5---5---5---5---5---5---5---|-4---4---4---4---4---4---4---4---|
D#|-3---3---3---3---3---3---3---3---|---------------------------------|---------------------------------|


F#|---------------------------------|---------------------------------|-------------|
C#|---------------------------------|---------------------------------|-------------|
G#|---------------------------------|---------------------------------|-2-----2-----|
D#|-3---3---3---3---3---3---3---3---|-3---3---3---3---3---3---3---3---|-------------|


F#|------------------|-------------|------------------|-------------|------------------|
C#|-4-----2----------|-------------|-2-----0----------|-------------|------------------|
G#|-------------5----|-------------|-------------4----|-------------|-5-----4-----2----|
D#|------------------|-5-----5-----|------------------|-3-----3-----|------------------|


F#|-------------|------------------|-------------|------------------|-------------|
C#|-------------|------------------|-------------|-4-----2----------|-------------|
G#|-------------|-2-----4-----5----|-2-----2-----|-------------5----|-------------|
D#|-3-----3-----|------------------|-------------|------------------|-5-----5-----|


F#|------------------|---------------------------------|---------------------------------|
C#|-2-----0----------|---------------------------------|---------------------------------|
G#|-------------4----|---------------------------------|---------------------------------|
D#|------------------|-0---3---3---3---3---3---3---3---|-0---3---3---3---3---3---3---3---|


F#|---------------------------------|---------------------------------|---------------------------------|
C#|---------------------------------|-5---5---5---5---5---5---5---5---|---------------------------------|
G#|---------------------------------|---------------------------------|-5---5---5---5---5---5---5---5---|
D#|-0---3---3---3---0---3---3---3---|---------------------------------|---------------------------------|


F#|---------------------------------|---------------------------------|---------------------------------|
C#|-5---5---5---5---5---5---5---5---|---------------------------------|---------------------------------|
G#|---------------------------------|-2---2---2---2---2---2---2---2---|-0---0---0---0---0---0---0---0---|
D#|---------------------------------|---------------------------------|---------------------------------|


F#|---------------------------------|---------------------------------|---------------------------------|
C#|---------------------------------|-5---5---5---5---5---5---5---5---|---------------------------------|
G#|-5---5---5---5---5---5---5---5---|---------------------------------|-2---2---2---2---2---2---2---2---|
D#|---------------------------------|---------------------------------|---------------------------------|


F#|---------------------------------|---------------------------------|---------------------------------|
C#|---------------------------------|-0---0---0---0---0---0---0---0---|---------------------------------|
G#|-0---0---0---0---0---0---0---0---|---------------------------------|---------------------------------|
D#|---------------------------------|---------------------------------|-3---3---3---3---3---3---3---3---|


F#|---------------------------------|---------------------------------|---------------------------------|
C#|---------------------------------|---------------------------------|-0---0---0---0---0---0---0---0---|
G#|-2---2---2---2---2---2---2---2---|-0---0---0---0---0---0---0---0---|---------------------------------|
D#|---------------------------------|---------------------------------|---------------------------------|


F#|---------------------------------|---------------------------------|---------------------------------|
C#|-5---5---5---5---5---5---5---5---|-9---9---9---9---9---9---9---9---|-7---7---7---7---7---7---7---7---|
G#|---------------------------------|---------------------------------|---------------------------------|
D#|---------------------------------|---------------------------------|---------------------------------|


F#|---------------------------------|---------------------------------|---------------------------------|
C#|---------------------------------|-5---5---5---5---5---5---5---5---|---------------------------------|
G#|-5---5---5---5---5---5---5---5---|---------------------------------|-2---2---2---2---2---2---2---2---|
D#|---------------------------------|---------------------------------|---------------------------------|


F#|---------------------------------|---------------------------------|---------------------------------|
C#|---------------------------------|---------------------------------|-5---5---5---5---5---5---5---5---|
G#|-0---0---0---0---0---0---0---0---|-5---5---5---5---5---5---5---5---|---------------------------------|
D#|---------------------------------|---------------------------------|---------------------------------|


F#|---------------------------------|---------------------------------|---------------------------------|
C#|---------------------------------|---------------------------------|---------------------------------|
G#|-2---2---2---2---2---2---2---2---|-0---0---0---0---0---0---0---0---|-5---5---5---5---5---5---5---5---|
D#|---------------------------------|---------------------------------|---------------------------------|


F#|---------------------------------|---------------------------------|---------------------------------|
C#|---------------------------------|---------------------------------|---------------------------------|
G#|-4---4---4---4---4---4---4---4---|---------------------------------|---------------------------------|
D#|---------------------------------|-3---3---3---3---3---3---3---3---|-3---3---3---3---3---3---3---3---|


F#|---------------------------------|---------------------------------|-----------------|
C#|---------------------------------|---------------------------------|-----------------|
G#|-5---5---5---5---5---5---5---5---|-4---4---4---4---4---4---4---4---|-----------------|
D#|---------------------------------|---------------------------------|-3---------------|


F#|-------------|---------------------------------|---------------------------------|
C#|-------------|---------------------------------|---------------------------------|
G#|--------12---|-5---5---5---5---5---5---5---5---|-4---4---4---4---4---4---4---4---|
D#|-------------|---------------------------------|---------------------------------|


F#|---------------------------------|---------------------------------|---------------------------------|
C#|---------------------------------|---------------------------------|---------------------------------|
G#|---------------------------------|---------------------------------|-5---5---5---5---5---5---5---5---|
D#|-3---3---3---3---3---3---3---3---|-3---3---3---3---3---3---3---3---|---------------------------------|


F#|---------------------------------|---------------------------------|---------------------------------|
C#|---------------------------------|---------------------------------|---------------------------------|
G#|-4---4---4---4---4---4---4---4---|---------------------------------|---------------------------------|
D#|---------------------------------|-3---3---3---3---3---3---3---3---|-3---3---3---3---3---3---3---3---|


F#|-------------|------------------|-------------|------------------|-------------|
C#|-------------|-4-----2----------|-------------|-2-----0----------|-------------|
G#|-2-----2-----|-------------5----|-------------|-------------4----|-------------|
D#|-------------|------------------|-5-----5-----|------------------|-3-----3-----|


F#|------------------|-------------|------------------|-------------|------------------|
C#|------------------|-------------|------------------|-------------|-4-----2----------|
G#|-5-----4-----2----|-------------|-2-----4-----5----|-2-----2-----|-------------5----|
D#|------------------|-3-----3-----|------------------|-------------|------------------|


F#|-------------|------------------|---------------------------------|---------------------------------|
C#|-------------|-2-----0----------|---------------------------------|---------------------------------|
G#|-------------|-------------4----|---------------------------------|---------------------------------|
D#|-5-----5-----|------------------|-0---3---3---3---3---3---3---3---|-0---3---3---3---3---3---3---3---|


F#|---------------------------------|---------------------------------|---------------------------------|
C#|---------------------------------|-5---5---5---5---5---5---5---5---|---------------------------------|
G#|---------------------------------|---------------------------------|-5---5---5---5---5---5---5---5---|
D#|-0---3---3---3---0---3---3---3---|---------------------------------|---------------------------------|


F#|---------------------------------|---------------------------------|---------------------------------|
C#|-5---5---5---5---5---5---5---5---|---------------------------------|---------------------------------|
G#|---------------------------------|-2---2---2---2---2---2---2---2---|-0---0---0---0---0---0---0---0---|
D#|---------------------------------|---------------------------------|---------------------------------|


F#|---------------------------------|---------------------------------|---------------------------------|
C#|---------------------------------|-5---5---5---5---5---5---5---5---|---------------------------------|
G#|-5---5---5---5---5---5---5---5---|---------------------------------|-2---2---2---2---2---2---2---2---|
D#|---------------------------------|---------------------------------|---------------------------------|


F#|---------------------------------|---------------------------------|---------------------------------|
C#|---------------------------------|-0---0---0---0---0---0---0---0---|---------------------------------|
G#|-0---0---0---0---0---0---0---0---|---------------------------------|---------------------------------|
D#|---------------------------------|---------------------------------|-3---3---3---3---3---3---3---3---|


F#|---------------------------------|---------------------------------|---------------------------------|
C#|---------------------------------|---------------------------------|-0---0---0---0---0---0---0---0---|
G#|-2---2---2---2---2---2---2---2---|-0---0---0---0---0---0---0---0---|---------------------------------|
D#|---------------------------------|---------------------------------|---------------------------------|


F#|---------------------------------|---------------------------------|---------------------------------|
C#|-5---5---5---5---5---5---5---5---|-9---9---9---9---9---9---9---9---|-7---7---7---7---7---7---7---7---|
G#|---------------------------------|---------------------------------|---------------------------------|
D#|---------------------------------|---------------------------------|---------------------------------|


F#|--------|--------|--------|--------|--------|--------|--------|--------|---------------------------------|
C#|-7------|--------|-4------|--------|-7------|--------|-4------|--------|---------------------------------|
G#|-5------|-5------|-2------|-7------|-5------|-5------|-2------|-7------|-5---5---5---5---5---5---5---5---|
D#|--------|-3------|--------|-5------|--------|-3------|--------|-5------|---------------------------------|


F#|---------------------------------|---------------------------------|---------------------------------|
C#|---------------------------------|---------------------------------|---------------------------------|
G#|---------------------------------|-2---2---2---2---2---2---2---2---|---------------------------------|
D#|-3---3---3---3---3---3---3---3---|---------------------------------|-5---5---5---5---5---5---5---5---|


F#|---------------------------------|---------------------------------|---------------------------------|
C#|---------------------------------|---------------------------------|---------------------------------|
G#|-5---5---5---5---5---5---5---5---|---------------------------------|-2---2---2---2---2---2---2---2---|
D#|---------------------------------|-3---3---3---3---3---3---3---3---|---------------------------------|


F#|---------------------------------|---------------------------------|---------------------------------|
C#|---------------------------------|---------------------------------|---------------------------------|
G#|---------------------------------|-5---5---5---5---5---5---5---5---|---------------------------------|
D#|-5---5---5---5---5---5---5---5---|---------------------------------|-3---3---3---3---3---3---3---3---|


F#|---------------------------------|---------------------------------|---------------------------------|
C#|---------------------------------|---------------------------------|---------------------------------|
G#|-2---2---2---2---2---2---2---2---|---------------------------------|-5---5---5---5---5---5---5---5---|
D#|---------------------------------|-5---5---5---5---5---5---5---5---|---------------------------------|


F#|---------------------------------|---------------------------------|-----------------|
C#|---------------------------------|---------------------------------|-7---------------|
G#|---------------------------------|-2---2---2---2---2---2---2---2---|------7----------|
D#|-3---3---3---3---3---3---3---3---|---------------------------------|-----------5-----|


F#|--------|
C#|--------|
G#|--------|
D#|-5------|