Menu:

 

Search:

 

the killers - mr brightside:

 



Title: Mr Brightside
Artist: 
Album: Hot Fuss
Author: The Killers


Track 1: Untitled

E|---------------------11----------|---------------------11----------|---------------------11----------|
B|---------14------14------14------|---------14------14------14------|---------14------14------14------|
G|-----13------13--------------13--|-----13------13--------------13--|-----13------13--------------13--|
D|-11------------------------------|-10------------------------------|---------------------------------|
A|---------------------------------|---------------------------------|-9-------------------------------|
E|---------------------------------|---------------------------------|---------------------------------|


E|---------------------11----------|---------------------11----------|---------------------11----------|
B|---------14------14------14------|---------14------14------14------|---------14------14------14------|
G|-----13------13--------------13--|-----13------13--------------13--|-----13------13--------------13--|
D|---------------------------------|-11------------------------------|-10------------------------------|
A|-9-------------------------------|---------------------------------|---------------------------------|
E|---------------------------------|---------------------------------|---------------------------------|


E|---------------------11----------|---------------------11----------|---------------------11----------|
B|---------14------14------14------|---------14------14------14------|---------14------14------14------|
G|-----13------13--------------13--|-----13------13--------------13--|-----13------13--------------13--|
D|---------------------------------|---------------------------------|-11------------------------------|
A|-9-------------------------------|-9-------------------------------|---------------------------------|
E|---------------------------------|---------------------------------|---------------------------------|


E|---------------------11----------|---------------------11----------|---------------------11----------|
B|---------14------14------14------|---------14------14------14------|---------14------14------14------|
G|-----13------13--------------13--|-----13------13--------------13--|-----13------13--------------13--|
D|-10------------------------------|---------------------------------|---------------------------------|
A|---------------------------------|-9-------------------------------|-9-------------------------------|
E|---------------------------------|---------------------------------|---------------------------------|


E|---------------------11----------|---------------------11----------|---------------------11----------|
B|---------14------14------14------|---------14------14------14------|---------14------14------14------|
G|-----13------13--------------13--|-----13------13--------------13--|-----13------13--------------13--|
D|-11------------------------------|-10------------------------------|---------------------------------|
A|---------------------------------|---------------------------------|-9-------------------------------|
E|---------------------------------|---------------------------------|---------------------------------|


E|---------------------11----------|---------------------11----------|---------------------11----------|
B|---------14------14------14------|---------14------14------14------|---------14------14------14------|
G|-----13------13--------------13--|-----13------13--------------13--|-----13------13--------------13--|
D|---------------------------------|-11------------------------------|-10------------------------------|
A|-9-------------------------------|---------------------------------|---------------------------------|
E|---------------------------------|---------------------------------|---------------------------------|


E|---------------------11----------|---------------------11----------|---------------------------------|
B|---------14------14------14------|---------14------14------14------|---------------------4-----------|
G|-----13------13--------------13--|-----13------13--------------13--|---------6-------6-------6-------|
D|---------------------------------|---------------------------------|-----6-------6---------------6---|
A|-9-------------------------------|-9-------------------------------|---------------------------------|
E|---------------------------------|---------------------------------|-6-------------------------------|


E|---------------------------------|---------------------------------|---------------------------------|
B|---------------------4-----------|---------------------4-----------|---------------------4-----------|
G|---------6-------6-------6-------|---------6-------6-------6-------|---------6-------6-------6-------|
D|-----6-------6---------------6---|-----6-------6---------------6---|-----6-------6---------------6---|
A|---------------------------------|---------------------------------|---------------------------------|
E|-6-------------------------------|-4-------------------------------|-4-------------------------------|


E|---------------------------------|---------------------------------|---------------------------------|
B|---------------------4-----------|---------------------4-----------|---------------------4-----------|
G|---------6-------6-------6-------|---------6-------6-------6-------|---------6-------6-------6-------|
D|-----6-------6---------------6---|-----6-------6---------------6---|-----6-------6---------------6---|
A|---------------------------------|---------------------------------|---------------------------------|
E|-2-------------------------------|-2-------------------------------|-2-------------------------------|


E|---------------------------------|---------------------------------|---------------------------------|
B|---------------------4-----------|---------------------4-----------|---------------------4-----------|
G|---------6-------6-------6-------|---------6-------6-------6-------|---------6-------6-------6-------|
D|-----6-------6---------------6---|-----6-------6---------------6---|-----6-------6---------------6---|
A|---------------------------------|---------------------------------|---------------------------------|
E|-2-------------------------------|-6-------------------------------|-6-------------------------------|


E|---------------------------------|---------------------------------|---------------------------------|
B|---------------------4-----------|---------------------4-----------|---------------------4-----------|
G|---------6-------6-------6-------|---------6-------6-------6-------|---------6-------6-------6-------|
D|-----6-------6---------------6---|-----6-------6---------------6---|-----6-------6---------------6---|
A|---------------------------------|---------------------------------|---------------------------------|
E|-4-------------------------------|-4-------------------------------|-2-------------------------------|


E|---------------------------------|---------------------------------|---------------------------------|
B|---------------------4-----------|---------------------4-----------|---------------------4-----------|
G|---------6-------6-------6-------|---------6-------6-------6-------|---------6-------6-------6-------|
D|-----6-------6---------------6---|-----6-------6---------------6---|-----6-------6---------------6---|
A|---------------------------------|---------------------------------|---------------------------------|
E|-2-------------------------------|-2-------------------------------|-2-------------------------------|


E|---------------------------------|---------------------------------|---------------------------------|
B|-6-------6-------6-------6-------|-7-------7-------7-------7-------|-9-------9-------9-------9-------|
G|-----6-------6-------6-------6---|-----6-------6-------6-------6---|-----6-------6-------6-------6---|
D|---------------------------------|---------------------------------|---------------------------------|
A|---------------------------------|---------------------------------|---------------------------------|
E|---------------------------------|---------------------------------|---------------------------------|


E|---------------------|---------------------------------|---------------------------------|
B|---------------------|-6-------6-------6-------6-------|-7-------7-------7-------7-------|
G|-8----6----5----6----|-----6-------6-------6-------6---|-----6-------6-------6-------6---|
D|---------------------|---------------------------------|---------------------------------|
A|---------------------|---------------------------------|---------------------------------|
E|---------------------|---------------------------------|---------------------------------|


E|---------------------------------|---------------------|-4-----------4-----------4-------|
B|-9-------9-------9-------9-------|---------------------|-----6-----------6-----------6---|
G|-----6-------6-------6-------6---|-8----6----5----6----|---------6-----------6-----------|
D|---------------------------------|---------------------|---------------------------------|
A|---------------------------------|---------------------|---------------------------------|
E|---------------------------------|---------------------|---------------------------------|


E|-6-----------6-----------6-------|-9-----------9-----------9-------|---------------------|
B|-----6-----------6-----------6---|-----6-----------6-----------6---|---------------------|
G|---------6-----------6-----------|---------6-----------6-----------|-8----6----5----6----|
D|---------------------------------|---------------------------------|---------------------|
A|---------------------------------|---------------------------------|---------------------|
E|---------------------------------|---------------------------------|---------------------|


E|-4-----------4-----------4-------|-6-----------6-----------6-------|-9-----------9-----------9-------|
B|-----6-----------6-----------6---|-----6-----------6-----------6---|-----6-----------6-----------6---|
G|---------6-----------6-----------|---------6-----------6-----------|---------6-----------6-----------|
D|---------------------------------|---------------------------------|---------------------------------|
A|---------------------------------|---------------------------------|---------------------------------|
E|---------------------------------|---------------------------------|---------------------------------|


E|---------------------|---------------------------------|---------------------------------|
B|---------------------|-6-------6-------6-------6-------|-7-------7-------7-------7-------|
G|-8----6----5----6----|-----6-------6-------6-------6---|-----6-------6-------6-------6---|
D|---------------------|---------------------------------|---------------------------------|
A|---------------------|---------------------------------|---------------------------------|
E|---------------------|---------------------------------|---------------------------------|


E|---------------------------------|---------------------|---------------------------------|
B|-9-------9-------9-------9-------|---------------------|-6-------6-------6-------6-------|
G|-----6-------6-------6-------6---|-8----6----5----6----|-----6-------6-------6-------6---|
D|---------------------------------|---------------------|---------------------------------|
A|---------------------------------|---------------------|---------------------------------|
E|---------------------------------|---------------------|---------------------------------|


E|---------------------------------|---------------------------------|---------------------|
B|-7-------7-------7-------7-------|-9-------9-------9-------9-------|---------------------|
G|-----6-------6-------6-------6---|-----6-------6-------6-------6---|-8----6----5----6----|
D|---------------------------------|---------------------------------|---------------------|
A|---------------------------------|---------------------------------|---------------------|
E|---------------------------------|---------------------------------|---------------------|


E|---------------------11----------|---------------------11----------|---------------------11----------|
B|---------14------14------14------|---------14------14------14------|---------14------14------14------|
G|-----13------13--------------13--|-----13------13--------------13--|-----13------13--------------13--|
D|-11------------------------------|-10------------------------------|---------------------------------|
A|---------------------------------|---------------------------------|-9-------------------------------|
E|---------------------------------|---------------------------------|---------------------------------|


E|---------------------11----------|---------------------11----------|---------------------11----------|
B|---------14------14------14------|---------14------14------14------|---------14------14------14------|
G|-----13------13--------------13--|-----13------13--------------13--|-----13------13--------------13--|
D|---------------------------------|-11------------------------------|-10------------------------------|
A|-9-------------------------------|---------------------------------|---------------------------------|
E|---------------------------------|---------------------------------|---------------------------------|


E|---------------------11----------|---------------------11----------|---------------------11----------|
B|---------14------14------14------|---------14------14------14------|---------14------14------14------|
G|-----13------13--------------13--|-----13------13--------------13--|-----13------13--------------13--|
D|---------------------------------|---------------------------------|-11------------------------------|
A|-9-------------------------------|-9-------------------------------|---------------------------------|
E|---------------------------------|---------------------------------|---------------------------------|


E|---------------------11----------|---------------------11----------|---------------------11----------|
B|---------14------14------14------|---------14------14------14------|---------14------14------14------|
G|-----13------13--------------13--|-----13------13--------------13--|-----13------13--------------13--|
D|-10------------------------------|---------------------------------|---------------------------------|
A|---------------------------------|-9-------------------------------|-9-------------------------------|
E|---------------------------------|---------------------------------|---------------------------------|


E|---------------------11----------|---------------------11----------|---------------------11----------|
B|---------14------14------14------|---------14------14------14------|---------14------14------14------|
G|-----13------13--------------13--|-----13------13--------------13--|-----13------13--------------13--|
D|-11------------------------------|-10------------------------------|---------------------------------|
A|---------------------------------|---------------------------------|-9-------------------------------|
E|---------------------------------|---------------------------------|---------------------------------|


E|---------------------11----------|---------------------------------|---------------------------------|
B|---------14------14------14------|---------------------4-----------|---------------------4-----------|
G|-----13------13--------------13--|---------6-------6-------6-------|---------6-------6-------6-------|
D|---------------------------------|-----6-------6---------------6---|-----6-------6---------------6---|
A|-9-------------------------------|---------------------------------|---------------------------------|
E|---------------------------------|-6-------------------------------|-6-------------------------------|


E|---------------------------------|---------------------------------|---------------------------------|
B|---------------------4-----------|---------------------4-----------|---------------------4-----------|
G|---------6-------6-------6-------|---------6-------6-------6-------|---------6-------6-------6-------|
D|-----6-------6---------------6---|-----6-------6---------------6---|-----6-------6---------------6---|
A|---------------------------------|---------------------------------|---------------------------------|
E|-4-------------------------------|-4-------------------------------|-2-------------------------------|


E|---------------------------------|---------------------------------|---------------------------------|
B|---------------------4-----------|---------------------4-----------|---------------------4-----------|
G|---------6-------6-------6-------|---------6-------6-------6-------|---------6-------6-------6-------|
D|-----6-------6---------------6---|-----6-------6---------------6---|-----6-------6---------------6---|
A|---------------------------------|---------------------------------|---------------------------------|
E|-2-------------------------------|-2-------------------------------|-2-------------------------------|


E|---------------------------------|---------------------------------|---------------------------------|
B|---------------------4-----------|---------------------4-----------|---------------------4-----------|
G|---------6-------6-------6-------|---------6-------6-------6-------|---------6-------6-------6-------|
D|-----6-------6---------------6---|-----6-------6---------------6---|-----6-------6---------------6---|
A|---------------------------------|---------------------------------|---------------------------------|
E|-6-------------------------------|-6-------------------------------|-4-------------------------------|


E|---------------------------------|---------------------------------|---------------------------------|
B|---------------------4-----------|---------------------4-----------|---------------------4-----------|
G|---------6-------6-------6-------|---------6-------6-------6-------|---------6-------6-------6-------|
D|-----6-------6---------------6---|-----6-------6---------------6---|-----6-------6---------------6---|
A|---------------------------------|---------------------------------|---------------------------------|
E|-4-------------------------------|-2-------------------------------|-2-------------------------------|


E|---------------------------------|---------------------------------|---------------------------------|
B|---------------------4-----------|---------------------4-----------|-6-------6-------6-------6-------|
G|---------6-------6-------6-------|---------6-------6-------6-------|-----6-------6-------6-------6---|
D|-----6-------6---------------6---|-----6-------6---------------6---|---------------------------------|
A|---------------------------------|---------------------------------|---------------------------------|
E|-2-------------------------------|-2-------------------------------|---------------------------------|


E|---------------------------------|---------------------------------|---------------------|
B|-7-------7-------7-------7-------|-9-------9-------9-------9-------|---------------------|
G|-----6-------6-------6-------6---|-----6-------6-------6-------6---|-8----6----5----6----|
D|---------------------------------|---------------------------------|---------------------|
A|---------------------------------|---------------------------------|---------------------|
E|---------------------------------|---------------------------------|---------------------|


E|---------------------------------|---------------------------------|---------------------------------|
B|-6-------6-------6-------6-------|-7-------7-------7-------7-------|-9-------9-------9-------9-------|
G|-----6-------6-------6-------6---|-----6-------6-------6-------6---|-----6-------6-------6-------6---|
D|---------------------------------|---------------------------------|---------------------------------|
A|---------------------------------|---------------------------------|---------------------------------|
E|---------------------------------|---------------------------------|---------------------------------|


E|---------------------|-4-----------4-----------4-------|-6-----------6-----------6-------|
B|---------------------|-----6-----------6-----------6---|-----6-----------6-----------6---|
G|-8----6----5----6----|---------6-----------6-----------|---------6-----------6-----------|
D|---------------------|---------------------------------|---------------------------------|
A|---------------------|---------------------------------|---------------------------------|
E|---------------------|---------------------------------|---------------------------------|


E|-9-----------9-----------9-------|---------------------|-4-----------4-----------4-------|
B|-----6-----------6-----------6---|---------------------|-----6-----------6-----------6---|
G|---------6-----------6-----------|-8----6----5----6----|---------6-----------6-----------|
D|---------------------------------|---------------------|---------------------------------|
A|---------------------------------|---------------------|---------------------------------|
E|---------------------------------|---------------------|---------------------------------|


E|-6-----------6-----------6-------|-9-----------9-----------9-------|---------------------|
B|-----6-----------6-----------6---|-----6-----------6-----------6---|---------------------|
G|---------6-----------6-----------|---------6-----------6-----------|-8----6----5----6----|
D|---------------------------------|---------------------------------|---------------------|
A|---------------------------------|---------------------------------|---------------------|
E|---------------------------------|---------------------------------|---------------------|


E|---------------------------------|---------------------------------|---------------------------------|
B|-6-------6-------6-------6-------|-7-------7-------7-------7-------|-9-------9-------9-------9-------|
G|-----6-------6-------6-------6---|-----6-------6-------6-------6---|-----6-------6-------6-------6---|
D|---------------------------------|---------------------------------|---------------------------------|
A|---------------------------------|---------------------------------|---------------------------------|
E|---------------------------------|---------------------------------|---------------------------------|


E|---------------------|---------------------------------|---------------------------------|
B|---------------------|-6-------6-------6-------6-------|-7-------7-------7-------7-------|
G|-8----6----5----6----|-----6-------6-------6-------6---|-----6-------6-------6-------6---|
D|---------------------|---------------------------------|---------------------------------|
A|---------------------|---------------------------------|---------------------------------|
E|---------------------|---------------------------------|---------------------------------|


E|---------------------------------|---------------------|---------------------------------|
B|-9-------9-------9-------9-------|---------------------|-6-------6-------6-------6-------|
G|-----6-------6-------6-------6---|-8----6----5----6----|-----6-------6-------6-------6---|
D|---------------------------------|---------------------|---------------------------------|
A|---------------------------------|---------------------|---------------------------------|
E|---------------------------------|---------------------|---------------------------------|


E|---------------------------------|---------------------------------|---------------------|
B|-7-------7-------7-------7-------|-9-------9-------9-------9-------|---------------------|
G|-----6-------6-------6-------6---|-----6-------6-------6-------6---|-8----6----5----6----|
D|---------------------------------|---------------------------------|---------------------|
A|---------------------------------|---------------------------------|---------------------|
E|---------------------------------|---------------------------------|---------------------|


E|---------------------------------|---------------------------------|---------------------------------|
B|-6-------6-------6-------6-------|-7-------7-------7-------7-------|-9-------9-------9-------9-------|
G|-----6-------6-------6-------6---|-----6-------6-------6-------6---|-----6-------6-------6-------6---|
D|---------------------------------|---------------------------------|---------------------------------|
A|---------------------------------|---------------------------------|---------------------------------|
E|---------------------------------|---------------------------------|---------------------------------|


E|---------------------|---------------------------------|---------------------------------|
B|---------------------|-6-------6-------6-------6-------|-7-------7-------7-------7-------|
G|-8----6----5----6----|-----6-------6-------6-------6---|-----6-------6-------6-------6---|
D|---------------------|---------------------------------|---------------------------------|
A|---------------------|---------------------------------|---------------------------------|
E|---------------------|---------------------------------|---------------------------------|


E|---------------------------------|---------------------|---------------------------------|
B|-9-------9-------9-------9-------|---------------------|-6-------6-------6-------6-------|
G|-----6-------6-------6-------6---|-8----6----5----6----|-----6-------6-------6-------6---|
D|---------------------------------|---------------------|---------------------------------|
A|---------------------------------|---------------------|---------------------------------|
E|---------------------------------|---------------------|---------------------------------|


E|---------------------------------|---------------------------------|-----------------|
B|-7-------7-------7-------7-------|-9-------9-------9-------9-------|-4----6----------|
G|-----6-------6-------6-------6---|-----6-------6-------6-------6---|-----------5-----|
D|---------------------------------|---------------------------------|-----------6-----|
A|---------------------------------|---------------------------------|-----------6-----|
E|---------------------------------|---------------------------------|-----------4-----|





Track 2: Synth

E|--------|--------|--------|--------|--------|--------|--------|--------|--------|
B|--------|--------|--------|--------|--------|--------|--------|--------|--------|
G|--------|--------|--------|--------|--------|--------|--------|--------|--------|
D|--------|--------|--------|--------|--------|--------|--------|--------|--------|
A|--------|--------|--------|--------|--------|--------|--------|--------|--------|
E|--------|--------|--------|--------|--------|--------|--------|--------|--------|


E|--------|--------|--------|--------|--------|--------|--------|--------|--------|
B|--------|--------|--------|--------|--------|--------|--------|--------|--------|
G|--------|--------|--------|--------|--------|--------|--------|--------|--------|
D|--------|--------|--------|--------|--------|--------|--------|--------|--------|
A|--------|--------|--------|--------|--------|--------|--------|--------|--------|
E|--------|--------|--------|--------|--------|--------|--------|--------|--------|


E|--------|--------|--------|--------|--------|--------|---------------------------------|
B|--------|--------|--------|--------|--------|--------|-------------2-------4-----------|
G|--------|--------|--------|--------|--------|--------|-----3-----------------------3---|
D|--------|--------|--------|--------|--------|--------|---------------------------------|
A|--------|--------|-1------|-1------|--------|--------|-1-------------------------------|
E|--------|--------|--------|--------|-4------|-4------|---------------------------------|


E|---------------------------------|---------------------------------|---------------------------------|
B|-------------2-------4-----------|---------------------------------|-----2-------2-------------------|
G|-3---3-----------------------3---|-----3-------3-------1-------3---|---------------------1-------3---|
D|---------------------------------|---------------------------------|---------------------------------|
A|---------------------------------|---------------------------------|---------------------------------|
E|---------------------------------|---------------------------------|---------------------------------|


E|--------|--------|--------|--------|---------------------------------|---------------------------------|
B|--------|--------|--------|--------|-------------2-------4-----------|-------------2-------4-----------|
G|--------|--------|--------|--------|-----3-----------------------3---|-3---3-----------------------3---|
D|--------|--------|--------|--------|---------------------------------|---------------------------------|
A|-1------|-1------|--------|--------|-1-------------------------------|---------------------------------|
E|--------|--------|-4------|-4------|---------------------------------|---------------------------------|


E|---------------------------------|---------------------------------|--------|--------|
B|---------------------------------|-----2-------2-------------------|--------|--------|
G|-----3-------3-------1-------3---|---------------------1-------3---|--------|--------|
D|---------------------------------|---------------------------------|--------|--------|
A|---------------------------------|---------------------------------|--------|--------|
E|---------------------------------|---------------------------------|--------|--------|


E|--------|--------|--------|--------|--------|--------|--------|--------|--------|
B|--------|--------|--------|--------|--------|--------|--------|--------|--------|
G|--------|--------|--------|--------|--------|--------|--------|--------|--------|
D|--------|--------|--------|--------|--------|--------|--------|--------|--------|
A|--------|--------|--------|--------|--------|--------|--------|--------|--------|
E|--------|--------|--------|--------|--------|--------|--------|--------|--------|


E|--------|--------|--------|--------|--------|--------|--------|--------|-----------------|
B|--------|--------|--------|--------|--------|-6------|-9------|--------|-----------------|
G|--------|--------|--------|--------|--------|--------|--------|-6------|-6-----5----6----|
D|--------|--------|--------|--------|--------|--------|--------|--------|-----------------|
A|--------|--------|--------|--------|--------|--------|--------|--------|-----------------|
E|--------|--------|--------|--------|--------|--------|--------|--------|-----------------|


E|--------|--------|---------------------|---------------------|--------|--------|
B|-6------|-9------|-9----7----7----6----|-6----4----4----2----|--------|--------|
G|--------|--------|---------------------|---------------------|--------|--------|
D|--------|--------|---------------------|---------------------|--------|--------|
A|--------|--------|---------------------|---------------------|--------|--------|
E|--------|--------|---------------------|---------------------|--------|--------|


E|--------|--------|--------|--------|--------|--------|--------|--------|--------|
B|--------|--------|--------|--------|--------|--------|--------|--------|--------|
G|--------|--------|--------|--------|--------|--------|--------|--------|--------|
D|--------|--------|--------|--------|--------|--------|--------|--------|--------|
A|--------|--------|--------|--------|--------|--------|--------|--------|--------|
E|--------|--------|--------|--------|--------|--------|--------|--------|--------|


E|--------|--------|--------|--------|--------|--------|--------|--------|--------|
B|--------|--------|--------|--------|--------|--------|--------|--------|--------|
G|--------|--------|--------|--------|--------|--------|--------|--------|--------|
D|--------|--------|--------|--------|--------|--------|--------|--------|--------|
A|--------|--------|--------|--------|--------|-1------|-1------|--------|--------|
E|--------|--------|--------|--------|--------|--------|--------|-4------|-4------|


E|---------------------------------|---------------------------------|---------------------------------|
B|-------------2-------4-----------|-------------2-------4-----------|---------------------------------|
G|-----3-----------------------3---|-3---3-----------------------3---|-----3-------3-------1-------3---|
D|---------------------------------|---------------------------------|---------------------------------|
A|-1-------------------------------|---------------------------------|---------------------------------|
E|---------------------------------|---------------------------------|---------------------------------|


E|---------------------------------|--------|--------|--------|--------|---------------------------------|
B|-----2-------2-------------------|--------|--------|--------|--------|-------------2-------4-----------|
G|---------------------1-------3---|--------|--------|--------|--------|-----3-----------------------3---|
D|---------------------------------|--------|--------|--------|--------|---------------------------------|
A|---------------------------------|-1------|-1------|--------|--------|-1-------------------------------|
E|---------------------------------|--------|--------|-4------|-4------|---------------------------------|


E|---------------------------------|---------------------------------|---------------------------------|
B|-------------2-------4-----------|---------------------------------|-----2-------2-------------------|
G|-3---3-----------------------3---|-----3-------3-------1-------3---|---------------------1-------3---|
D|---------------------------------|---------------------------------|---------------------------------|
A|---------------------------------|---------------------------------|---------------------------------|
E|---------------------------------|---------------------------------|---------------------------------|


E|--------|--------|--------|--------|--------|--------|--------|--------|--------|
B|--------|--------|--------|--------|--------|--------|--------|--------|--------|
G|--------|--------|--------|--------|--------|--------|--------|--------|--------|
D|--------|--------|--------|--------|--------|--------|--------|--------|--------|
A|--------|--------|--------|--------|--------|--------|--------|--------|--------|
E|--------|--------|--------|--------|--------|--------|--------|--------|--------|


E|--------|--------|--------|--------|--------|--------|--------|--------|--------|
B|--------|--------|--------|--------|--------|--------|--------|--------|--------|
G|--------|--------|--------|--------|--------|--------|--------|--------|--------|
D|--------|--------|--------|--------|--------|--------|--------|--------|--------|
A|--------|--------|--------|--------|--------|--------|--------|--------|--------|
E|--------|--------|--------|--------|--------|--------|--------|--------|--------|


E|--------|--------|--------|--------|--------|--------|--------|--------|--------|
B|--------|--------|--------|--------|--------|--------|-6------|-9------|--------|
G|--------|--------|--------|--------|--------|--------|--------|--------|-6------|
D|--------|--------|--------|--------|--------|--------|--------|--------|--------|
A|--------|--------|--------|--------|--------|--------|--------|--------|--------|
E|--------|--------|--------|--------|--------|--------|--------|--------|--------|


E|-----------------|--------|--------|---------------------|---------------------|
B|-----------------|-6------|-9------|-9----7----7----6----|-6----4----4----2----|
G|-6-----5----6----|--------|--------|---------------------|---------------------|
D|-----------------|--------|--------|---------------------|---------------------|
A|-----------------|--------|--------|---------------------|---------------------|
E|-----------------|--------|--------|---------------------|---------------------|


E|--------|--------|--------|-----------------|--------|--------|---------------------|
B|-6------|-9------|--------|-----------------|-6------|-9------|-9----7----7----6----|
G|--------|--------|-6------|-6-----5----6----|--------|--------|---------------------|
D|--------|--------|--------|-----------------|--------|--------|---------------------|
A|--------|--------|--------|-----------------|--------|--------|---------------------|
E|--------|--------|--------|-----------------|--------|--------|---------------------|


E|-----------------|
B|-----------------|
G|-8----6----5-----|
D|-----------------|
A|-----------------|
E|-----------------|





Track 3: Solo

E|--------|--------|--------|--------|--------|--------|--------|--------|--------|
B|--------|--------|--------|--------|--------|--------|--------|--------|--------|
G|--------|--------|--------|--------|--------|--------|--------|--------|--------|
D|--------|--------|--------|--------|--------|--------|--------|--------|--------|
A|--------|--------|--------|--------|--------|--------|--------|--------|--------|
E|--------|--------|--------|--------|--------|--------|--------|--------|--------|


E|--------|--------|--------|--------|--------|--------|--------|--------|--------|
B|--------|--------|--------|--------|--------|--------|--------|--------|--------|
G|--------|--------|--------|--------|--------|--------|--------|--------|--------|
D|--------|--------|--------|--------|--------|--------|--------|--------|--------|
A|--------|--------|--------|--------|--------|--------|--------|--------|--------|
E|--------|--------|--------|--------|--------|--------|--------|--------|--------|


E|--------|--------|--------|--------|--------|--------|--------|--------|--------|
B|--------|--------|--------|--------|--------|--------|--------|--------|--------|
G|--------|--------|--------|--------|--------|--------|--------|--------|--------|
D|--------|--------|--------|--------|--------|--------|--------|--------|--------|
A|--------|--------|--------|--------|--------|--------|--------|--------|--------|
E|--------|--------|--------|--------|--------|--------|--------|--------|--------|


E|--------|--------|--------|--------|--------|--------|--------|--------|--------|
B|--------|--------|--------|--------|--------|--------|--------|--------|--------|
G|--------|--------|--------|--------|--------|--------|--------|--------|--------|
D|--------|--------|--------|--------|--------|--------|--------|--------|--------|
A|--------|--------|--------|--------|--------|--------|--------|--------|--------|
E|--------|--------|--------|--------|--------|--------|--------|--------|--------|


E|--------|--------|--------|--------|--------|--------|--------|--------|--------|
B|--------|--------|--------|--------|--------|--------|--------|--------|--------|
G|--------|--------|--------|--------|--------|--------|--------|--------|--------|
D|--------|--------|--------|--------|--------|--------|--------|--------|--------|
A|--------|--------|--------|--------|--------|--------|--------|--------|--------|
E|--------|--------|--------|--------|--------|--------|--------|--------|--------|


E|--------|--------|--------|--------|--------|--------|--------|--------|--------|
B|--------|--------|--------|--------|--------|--------|--------|--------|--------|
G|--------|--------|--------|--------|--------|--------|--------|--------|--------|
D|--------|--------|--------|--------|--------|--------|--------|--------|--------|
A|--------|--------|--------|--------|--------|--------|--------|--------|--------|
E|--------|--------|--------|--------|--------|--------|--------|--------|--------|


E|--------|--------|--------|--------|--------|--------|--------|--------|--------|
B|--------|--------|--------|--------|--------|--------|--------|--------|--------|
G|--------|--------|--------|--------|--------|--------|--------|--------|--------|
D|--------|--------|--------|--------|--------|--------|--------|--------|--------|
A|--------|--------|--------|--------|--------|--------|--------|--------|--------|
E|--------|--------|--------|--------|--------|--------|--------|--------|--------|


E|--------|--------|--------|--------|--------|--------|--------|--------|--------|
B|--------|--------|--------|--------|--------|--------|--------|--------|--------|
G|--------|--------|--------|--------|--------|--------|--------|--------|--------|
D|--------|--------|--------|--------|--------|--------|--------|--------|--------|
A|--------|--------|--------|--------|--------|--------|--------|--------|--------|
E|--------|--------|--------|--------|--------|--------|--------|--------|--------|


E|--------|--------|--------|--------|--------|--------|--------|--------|--------|
B|--------|--------|--------|--------|--------|--------|--------|--------|--------|
G|--------|--------|--------|--------|--------|--------|--------|--------|--------|
D|--------|--------|--------|--------|--------|--------|--------|--------|--------|
A|--------|--------|--------|--------|--------|--------|--------|--------|--------|
E|--------|--------|--------|--------|--------|--------|--------|--------|--------|


E|--------|--------|--------|--------|--------|--------|--------|--------|--------|
B|--------|--------|--------|--------|--------|--------|--------|--------|--------|
G|--------|--------|--------|--------|--------|--------|--------|--------|--------|
D|--------|--------|--------|--------|--------|--------|--------|--------|--------|
A|--------|--------|--------|--------|--------|--------|--------|--------|--------|
E|--------|--------|--------|--------|--------|--------|--------|--------|--------|


E|--------|--------|--------|--------|--------|--------|--------|--------|--------|
B|--------|--------|--------|--------|--------|--------|--------|--------|--------|
G|--------|--------|--------|--------|--------|--------|--------|--------|--------|
D|--------|--------|--------|--------|--------|--------|--------|--------|--------|
A|--------|--------|--------|--------|--------|--------|--------|--------|--------|
E|--------|--------|--------|--------|--------|--------|--------|--------|--------|


E|--------|--------|--------|--------|--------|--------|--------|--------|--------|
B|--------|--------|--------|--------|--------|--------|--------|--------|--------|
G|--------|--------|--------|--------|--------|--------|--------|--------|--------|
D|--------|--------|--------|--------|--------|--------|--------|--------|--------|
A|--------|--------|--------|--------|--------|--------|--------|--------|--------|
E|--------|--------|--------|--------|--------|--------|--------|--------|--------|


E|---------------------------------|---------------------------------|---------------------------------|
B|-14--14--14--14--14--14--14--14--|-11--11--11--11------------------|---------------------------------|
G|---------------------------------|-----------------11--11--11--11--|-10--10--10--10--10--10--10--10--|
D|---------------------------------|---------------------------------|---------------------------------|
A|---------------------------------|---------------------------------|---------------------------------|
E|---------------------------------|---------------------------------|---------------------------------|


E|---------------------------------|-13--13--13--13--13--13--13--13--|---------------------------------|
B|---------------------------------|---------------------------------|-11--11--11--11------------------|
G|-8---8---8---8---8---8---8---8---|---------------------------------|-----------------11--11--11--11--|
D|---------------------------------|---------------------------------|---------------------------------|
A|---------------------------------|---------------------------------|---------------------------------|
E|---------------------------------|---------------------------------|---------------------------------|


E|---------------------------------|---------------------------------|--------|--------|
B|---------------------------------|---------------------------------|--------|--------|
G|-10--10--10--10--10--10--10--10--|-8---8---8---8---8---8---8---8---|--------|--------|
D|---------------------------------|---------------------------------|--------|--------|
A|---------------------------------|---------------------------------|--------|--------|
E|---------------------------------|---------------------------------|--------|--------|


E|--------|--------|--------|--------|--------|--------|--------|--------|--------|
B|--------|--------|--------|--------|--------|--------|--------|--------|--------|
G|--------|--------|--------|--------|--------|--------|--------|--------|--------|
D|--------|--------|--------|--------|--------|--------|--------|--------|--------|
A|--------|--------|--------|--------|--------|--------|--------|--------|--------|
E|--------|--------|--------|--------|--------|--------|--------|--------|--------|


E|--------|--------|--------|--------|--------|
B|--------|--------|--------|--------|--------|
G|--------|--------|--------|--------|--------|
D|--------|--------|--------|--------|--------|
A|--------|--------|--------|--------|--------|
E|--------|--------|--------|--------|--------|





Track 4: Untitled

G|--------|--------|--------|--------|--------|--------|--------|--------|---------------------------------|
D|--------|--------|--------|--------|--------|--------|--------|--------|-11--11--11--11--11--11--11--11--|
A|--------|--------|--------|--------|--------|--------|--------|--------|---------------------------------|
E|--------|--------|--------|--------|--------|--------|--------|--------|---------------------------------|


G|---------------------------------|---------------------------------|---------------------------------|
D|-10--10--10--10--10--10--10--10--|---------------------------------|---------------------------------|
A|---------------------------------|-9---9---9---9---9---9---9---9---|-9---9---9---9---9---9---9---9---|
E|---------------------------------|---------------------------------|---------------------------------|


G|---------------------------------|---------------------------------|---------------------------------|
D|---------------------------------|---------------------------------|---------------------------------|
A|-4---4---4---4---4---4---4---4---|-3---3---3---3---3---3---3---3---|---------------------------------|
E|---------------------------------|---------------------------------|-2---2---2---2---2---2---2---2---|


G|---------------------------------|---------------------------------|---------------------------------|
D|---------------------------------|---------------------------------|---------------------------------|
A|---------------------------------|-4---4---4---4---4---4---4---4---|-3---3---3---3---3---3---3---3---|
E|-2---2---2---2---2---2---2---2---|---------------------------------|---------------------------------|


G|---------------------------------|---------------------------------|--------|------------------|
D|---------------------------------|---------------------------------|--------|-3-----1----------|
A|-9---9---9---9---9---9---9---9---|-9---9---9---9---9---9---9---9---|--------|-------------4----|
E|---------------------------------|---------------------------------|-6------|------------------|


G|--------|------------------|--------|------------------|--------|------------------|
D|--------|-3-----1----------|--------|-1----------------|--------|------------------|
A|--------|-------------4----|--------|-------4-----3----|--------|-1-----3-----4----|
E|-4------|------------------|-2------|------------------|-2------|------------------|


G|--------|------------------|--------|------------------|---------------------------------|
D|--------|-3-----1----------|--------|-3-----1----------|---------------------------------|
A|--------|-------------4----|--------|-------------4----|---------------------------------|
E|-6------|------------------|-4------|------------------|-1---2---2---2---2---2---2---2---|


G|---------------------------------|---------------------------------|---------------------------------|
D|---------------------------------|---------------------------------|---------------------------------|
A|---------------------------------|---------------------------------|-9---9---9---9---9---9---9---9---|
E|-1---2---2---2---2---2---2---2---|-1---2---2---1---2---2---2---2---|---------------------------------|


G|---------------------------------|---------------------------------|---------------------------------|
D|---------------------------------|---------------------------------|---------------------------------|
A|---------------------------------|-9---9---9---9---9---9---9---9---|---------------------------------|
E|-9---9---9---9---9---9---9---9---|---------------------------------|-6---6---6---6---6---6---6---6---|


G|---------------------------------|---------------------------------|---------------------------------|
D|---------------------------------|---------------------------------|---------------------------------|
A|---------------------------------|---------------------------------|-9---9---9---9---9---9---9---9---|
E|-4---4---4---4---4---4---4---4---|-9---9---9---9---9---9---9---9---|---------------------------------|


G|---------------------------------|---------------------------------|---------------------------------|
D|---------------------------------|---------------------------------|---------------------------------|
A|---------------------------------|---------------------------------|-4---4---4---4---4---4---4---4---|
E|-6---6---6---6---6---6---6---6---|-4---4---4---4---4---4---4---4---|---------------------------------|


G|---------------------------------|---------------------------------|---------------------------------|
D|---------------------------------|---------------------------------|---------------------------------|
A|---------------------------------|---------------------------------|---------------------------------|
E|-2---2---2---2---2---2---2---2---|-6---6---6---6---6---6---6---6---|-4---4---4---4---4---4---4---4---|


G|---------------------------------|---------------------------------|---------------------------------|
D|---------------------------------|---------------------------------|-8---8---8---8---8---8---8---8---|
A|---------------------------------|-9---9---9---9---9---9---9---9---|---------------------------------|
E|-9---9---9---9---9---9---9---9---|---------------------------------|---------------------------------|


G|---------------------------------|---------------------------------|---------------------------------|
D|---------------------------------|---------------------------------|---------------------------------|
A|-11--11--11--11--11--11--11--11--|---------------------------------|-9---9---9---9---9---9---9---9---|
E|---------------------------------|-9---9---9---9---9---9---9---9---|---------------------------------|


G|---------------------------------|---------------------------------|---------------------------------|
D|-8---8---8---8---8---8---8---8---|---------------------------------|---------------------------------|
A|---------------------------------|-11--11--11--11--11--11--11--11--|---------------------------------|
E|---------------------------------|---------------------------------|-9---9---9---9---9---9---9---9---|


G|---------------------------------|---------------------------------|---------------------------------|
D|---------------------------------|-8---8---8---8---8---8---8---8---|---------------------------------|
A|-9---9---9---9---9---9---9---9---|---------------------------------|-11--11--11--11--11--11--11--11--|
E|---------------------------------|---------------------------------|---------------------------------|


G|---------------------------------|---------------------------------|---------------------------------|
D|---------------------------------|---------------------------------|---------------------------------|
A|-4---4---4---4---4---4---4---4---|-3---3---3---3---3---3---3---3---|---------------------------------|
E|---------------------------------|---------------------------------|-2---2---2---2---2---2---2---2---|


G|---------------------------------|---------------------------------|---------------------------------|
D|---------------------------------|---------------------------------|---------------------------------|
A|---------------------------------|-4---4---4---4---4---4---4---4---|-3---3---3---3---3---3---3---3---|
E|-2---2---2---2---2---2---2---2---|---------------------------------|---------------------------------|


G|-------------|--------|---------------------------------|---------------------------------|
D|-------------|--------|---------------------------------|---------------------------------|
A|-------------|--------|-4---4---4---4---4---4---4---4---|-3---3---3---3---3---3---3---3---|
E|-2-----------|--------|---------------------------------|---------------------------------|


G|---------------------------------|---------------------------------|---------------------------------|
D|---------------------------------|---------------------------------|---------------------------------|
A|---------------------------------|---------------------------------|-4---4---4---4---4---4---4---4---|
E|-2---2---2---2---2---2---2---2---|-2---2---2---2---2---2---2---2---|---------------------------------|


G|---------------------------------|---------------------------------|---------------------------------|
D|---------------------------------|---------------------------------|---------------------------------|
A|-3---3---3---3---3---3---3---3---|-9---9---9---9---9---9---9---9---|-9---9---9---9---9---9---9---9---|
E|---------------------------------|---------------------------------|---------------------------------|


G|--------|------------------|--------|------------------|--------|------------------|
D|--------|-3-----1----------|--------|-3-----1----------|--------|-1----------------|
A|--------|-------------4----|--------|-------------4----|--------|-------4-----3----|
E|-6------|------------------|-4------|------------------|-2------|------------------|


G|--------|------------------|--------|------------------|--------|------------------|
D|--------|------------------|--------|-3-----1----------|--------|-3-----1----------|
A|--------|-1-----3-----4----|--------|-------------4----|--------|-------------4----|
E|-2------|------------------|-6------|------------------|-4------|------------------|


G|---------------------------------|---------------------------------|---------------------------------|
D|---------------------------------|---------------------------------|---------------------------------|
A|---------------------------------|---------------------------------|---------------------------------|
E|-1---2---2---2---2---2---2---2---|-1---2---2---2---2---2---2---2---|-1---2---2---1---2---2---2---2---|


G|---------------------------------|---------------------------------|---------------------------------|
D|---------------------------------|---------------------------------|---------------------------------|
A|-9---9---9---9---9---9---9---9---|---------------------------------|-9---9---9---9---9---9---9---9---|
E|---------------------------------|-9---9---9---9---9---9---9---9---|---------------------------------|


G|---------------------------------|---------------------------------|---------------------------------|
D|---------------------------------|---------------------------------|---------------------------------|
A|---------------------------------|---------------------------------|---------------------------------|
E|-6---6---6---6---6---6---6---6---|-4---4---4---4---4---4---4---4---|-9---9---9---9---9---9---9---9---|


G|---------------------------------|---------------------------------|---------------------------------|
D|---------------------------------|---------------------------------|---------------------------------|
A|-9---9---9---9---9---9---9---9---|---------------------------------|---------------------------------|
E|---------------------------------|-6---6---6---6---6---6---6---6---|-4---4---4---4---4---4---4---4---|


G|---------------------------------|---------------------------------|---------------------------------|
D|---------------------------------|---------------------------------|---------------------------------|
A|-4---4---4---4---4---4---4---4---|---------------------------------|---------------------------------|
E|---------------------------------|-2---2---2---2---2---2---2---2---|-6---6---6---6---6---6---6---6---|


G|---------------------------------|---------------------------------|---------------------------------|
D|---------------------------------|---------------------------------|---------------------------------|
A|---------------------------------|---------------------------------|-9---9---9---9---9---9---9---9---|
E|-4---4---4---4---4---4---4---4---|-9---9---9---9---9---9---9---9---|---------------------------------|


G|---------------------------------|---------------------------------|-10-----|--------|
D|-8---8---8---8---8---8---8---8---|---------------------------------|-11-----|-11-----|
A|---------------------------------|-11--11--11--11--11--11--11--11--|--------|-9------|
E|---------------------------------|---------------------------------|--------|--------|


G|--------|--------|-10-----|--------|--------|--------|---------------------------------|
D|-11-----|-10-----|-11-----|-11-----|-11-----|-10-----|---------------------------------|
A|-13-----|-11-----|--------|-9------|-13-----|-11-----|---------------------------------|
E|--------|--------|--------|--------|--------|--------|-9---9---9---9---9---9---9---9---|


G|---------------------------------|---------------------------------|---------------------------------|
D|---------------------------------|---------------------------------|---------------------------------|
A|-9---9---9---9---9---9---9---9---|---------------------------------|---------------------------------|
E|---------------------------------|-6---6---6---6---6---6---6---6---|-4---4---4---4---4---4---4---4---|


G|---------------------------------|---------------------------------|---------------------------------|
D|---------------------------------|---------------------------------|---------------------------------|
A|---------------------------------|-9---9---9---9---9---9---9---9---|---------------------------------|
E|-9---9---9---9---9---9---9---9---|---------------------------------|-6---6---6---6---6---6---6---6---|


G|---------------------------------|---------------------------------|---------------------------------|
D|---------------------------------|---------------------------------|---------------------------------|
A|---------------------------------|---------------------------------|---------------------------------|
E|-4---4---4---4---4---4---4---4---|-9---9---9---9---9---9---9---9---|-2---2---2---2---2---2---2---2---|


G|---------------------------------|---------------------------------|---------------------------------|
D|---------------------------------|---------------------------------|---------------------------------|
A|---------------------------------|---------------------------------|---------------------------------|
E|-6---6---6---6---6---6---6---6---|-4---4---4---4---4---4---4---4---|-9---9---9---9---9---9---9---9---|


G|---------------------------------|---------------------------------|-----------------|
D|---------------------------------|-8---8---8---8---8---8---8---8---|-6---------------|
A|-9---9---9---9---9---9---9---9---|---------------------------------|------6----------|
E|---------------------------------|---------------------------------|-----------4-----|