Menu:

 

Search:

 

the killers - midnight show:

 



Title: Midnight Show
Artist: 
Album: Hot Fuss
Author: Brandon Flowers and Mark Stoermer


Track 1: guitar L

D#|-----------------------|---------------------------------|---------------------------------|
A#|-------15--15--15--15--|-15--15--15--15--15--15--15--15--|-15--15--15--15--15--15--15--15--|
F#|-------16--16--16--16--|-16--12--12--12--16--16--16--16--|-16--17--17--17--16--16--16--16--|
C#|-------14--14--14--14--|-14--14--14--14--14--14--14--14--|-14--14--14--14--14--14--14--14--|
G#|-----------------------|---------------------------------|---------------------------------|
D#|-----------------------|---------------------------------|---------------------------------|


D#|---------------------------------|---------------------------------|---------------------------------|
A#|-15--15--15--15--15--15--15--15--|-15--15--15--15--15--15--15--15--|-15--15--15--15--15--15--15--15--|
F#|-16--12--12--12--16--16--16--16--|-16--17--17--17--16--16--16--16--|-16--12--12--12--16--16--16--16--|
C#|-14--14--14--14--14--14--14--14--|-14--14--14--14--14--14--14--14--|-14--14--14--14--14--14--14--14--|
G#|---------------------------------|---------------------------------|---------------------------------|
D#|---------------------------------|---------------------------------|---------------------------------|


D#|---------------------------------|---------------------------------|-----------------12---12--12-12-|
A#|-15--15--15--15--15--15--15--15--|-15--15--15--15--15--15--15--15--|-15--15--15--15--12---12--12-12-|
F#|-16--17--17--17--16--16--16--16--|-16--12--12--12--16--16--16--16--|-16--16--16--16--12---12--12-12-|
C#|-14--14--14--14--14--14--14--14--|-14--14--14--14--14--14--14--14--|-14--14--14--14-----------------|
G#|---------------------------------|---------------------------------|--------------------------------|
D#|---------------------------------|---------------------------------|--------------------------------|


D#|-12-12-12--12--12--12---12--12-12-|-12--14--15--14--12---12--12-12-|-12-12-12--12--12--12---12--12-12-|
A#|-12-12-12--12--12--12---12--12-12-|-12--12--12--12--12---12--12-12-|-12-12-12--12--12--12---12--12-12-|
F#|-12-12-12--12--12--12---12--12-12-|-12--12--12--12--12---12--12-12-|-12-12-12--12--12--12---12--12-12-|
C#|----------------------------------|--------------------------------|----------------------------------|
G#|----------------------------------|--------------------------------|----------------------------------|
D#|----------------------------------|--------------------------------|----------------------------------|


D#|-15--14--12--12--12---12--12-12-|-12-12-12--12--12--12---12--12-12-|-12--14--15--14--12---12--12-12-|
A#|-12--12--12--12--12---12--12-12-|-12-12-12--12--12--12---12--12-12-|-12--12--12--12--12---12--12-12-|
F#|-12--12--12--12--12---12--12-12-|-12-12-12--12--12--12---12--12-12-|-12--12--12--12--12---12--12-12-|
C#|--------------------------------|----------------------------------|--------------------------------|
G#|--------------------------------|----------------------------------|--------------------------------|
D#|--------------------------------|----------------------------------|--------------------------------|


D#|-12-12-12--12--12--12---12--12-12-|-15--14--12--12------------------|---------------------------------|
A#|-12-12-12--12--12--12---12--12-12-|-12--12--12--12------------------|---------------------------------|
F#|-12-12-12--12--12--12---12--12-12-|-12--12--12--12------------------|---------------------------------|
C#|----------------------------------|-----------------10--10--10--10--|-10--10--10--10--9---9---9---9---|
G#|----------------------------------|-----------------10--10--10--10--|-10--10--10--10--9---9---9---9---|
D#|----------------------------------|-----------------8---8---8---8---|-8---8---8---8---7---7---7---7---|


D#|-----------------------|-------------|-----------------------|---------------------------------|
A#|-----------------------|-------------|-----------------------|-----------------7---7---7---7---|
F#|-----------------------|-------------|-----------------------|-----------------7---7---7---7---|
C#|-9---9---9---9---------|-------------|-------10--10--10--10--|-10--10--10--10--9---9---9---9---|
G#|-9---9---9---9---------|-------------|-------10--10--10--10--|-10--10--10--10--9---9---9---9---|
D#|-7---7---7---7---0-----|-------0-----|-------8---8---8---8---|-8---8---8---8---7---7---7---7---|


D#|-----------------10--10--10--10--|-10--10--10--10--10--------|-----------------------|
A#|-7---7---7---7---10--10--10--10--|-10--10--10--10--10--------|-------15--15--15--15--|
F#|-7---7---7---7---11--11--11--11--|-11--11--11--11--11--------|-------16--16--16--16--|
C#|-9---9---9---9---12--12--12--12--|-12--12--12--12--12--------|-------14--14--14--14--|
G#|-9---9---9---9---12--12--12--12--|-12--12--12--12--12--------|-----------------------|
D#|-7---7---7---7---10--10--10--10--|-10--10--10--10--10--------|-----------------------|


D#|---------------------------------|---------------------------------|---------------------------------|
A#|-15--15--15--15--15--15--15--15--|-15--15--15--15--15--15--15--15--|-15--15--15--15--15--15--15--15--|
F#|-16--12--12--12--16--16--16--16--|-16--17--17--17--16--16--16--16--|-16--12--12--12--16--16--16--16--|
C#|-14--14--14--14--14--14--14--14--|-14--14--14--14--14--14--14--14--|-14--14--14--14--14--14--14--14--|
G#|---------------------------------|---------------------------------|---------------------------------|
D#|---------------------------------|---------------------------------|---------------------------------|


D#|---------------------------------|---------------------------------|---------------------------------|
A#|-15--15--15--15--15--15--15--15--|-15--15--15--15--15--15--15--15--|-15--15--15--15--15--15--15--15--|
F#|-16--17--17--17--16--16--16--16--|-16--12--12--12--16--16--16--16--|-16--17--17--17--16--16--16--16--|
C#|-14--14--14--14--14--14--14--14--|-14--14--14--14--14--14--14--14--|-14--14--14--14--14--14--14--14--|
G#|---------------------------------|---------------------------------|---------------------------------|
D#|---------------------------------|---------------------------------|---------------------------------|


D#|---------------------------------|-----------------------|--------|--------|--------|
A#|-15--15--15--15--15--15--15--15--|-15--15--15--15--------|--------|--------|--------|
F#|-16--12--12--12--16--16--16--16--|-16--16--16--16--------|--------|--------|--------|
C#|-14--14--14--14--14--14--14--14--|-14--14--14--14--------|--------|--------|--------|
G#|---------------------------------|-----------------------|--------|--------|--------|
D#|---------------------------------|-----------------------|--------|--------|--------|


D#|--------|--------|--------|--------|-------12---12--12-12-|-12-12-12--12--12--12---12--12-12-|
A#|--------|--------|--------|--------|-------12---12--12-12-|-12-12-12--12--12--12---12--12-12-|
F#|--------|--------|--------|--------|-------12---12--12-12-|-12-12-12--12--12--12---12--12-12-|
C#|--------|--------|--------|--------|----------------------|----------------------------------|
G#|--------|--------|--------|--------|----------------------|----------------------------------|
D#|--------|--------|--------|--------|----------------------|----------------------------------|


D#|-12--14--15--14--12---12--12-12-|-12-12-12--12--12--12---12--12-12-|-15--14--12--12--12---12--12-12-|
A#|-12--12--12--12--12---12--12-12-|-12-12-12--12--12--12---12--12-12-|-12--12--12--12--12---12--12-12-|
F#|-12--12--12--12--12---12--12-12-|-12-12-12--12--12--12---12--12-12-|-12--12--12--12--12---12--12-12-|
C#|--------------------------------|----------------------------------|--------------------------------|
G#|--------------------------------|----------------------------------|--------------------------------|
D#|--------------------------------|----------------------------------|--------------------------------|


D#|-12-12-12--12--12--12---12--12-12-|-12--14--15--14--12---12--12-12-|-12-12-12--12--12--12---12--12-12-|
A#|-12-12-12--12--12--12---12--12-12-|-12--12--12--12--12---12--12-12-|-12-12-12--12--12--12---12--12-12-|
F#|-12-12-12--12--12--12---12--12-12-|-12--12--12--12--12---12--12-12-|-12-12-12--12--12--12---12--12-12-|
C#|----------------------------------|--------------------------------|----------------------------------|
G#|----------------------------------|--------------------------------|----------------------------------|
D#|----------------------------------|--------------------------------|----------------------------------|


D#|-15--14--12--12------------------|---------------------------------|-----------------------|
A#|-12--12--12--12------------------|---------------------------------|-----------------------|
F#|-12--12--12--12------------------|---------------------------------|-----------------------|
C#|-----------------10--10--10--10--|-10--10--10--10--9---9---9---9---|-9---9---9---9---------|
G#|-----------------10--10--10--10--|-10--10--10--10--9---9---9---9---|-9---9---9---9---------|
D#|-----------------8---8---8---8---|-8---8---8---8---7---7---7---7---|-7---7---7---7---0-----|


D#|-------------|-----------------------|---------------------------------|-----------------10--10--10--10--|
A#|-------------|-----------------------|-----------------7---7---7---7---|-7---7---7---7---10--10--10--10--|
F#|-------------|-----------------------|-----------------7---7---7---7---|-7---7---7---7---11--11--11--11--|
C#|-------------|-------10--10--10--10--|-10--10--10--10--9---9---9---9---|-9---9---9---9---12--12--12--12--|
G#|-------------|-------10--10--10--10--|-10--10--10--10--9---9---9---9---|-9---9---9---9---12--12--12--12--|
D#|-------0-----|-------8---8---8---8---|-8---8---8---8---7---7---7---7---|-7---7---7---7---10--10--10--10--|


D#|-10--10--10--10--10--------|-----------------------|---------------------------------|
A#|-10--10--10--10--10--------|-------15--15--15--15--|-15--15--15--15--15--15--15--15--|
F#|-11--11--11--11--11--------|-------16--16--16--16--|-16--12--12--12--16--16--16--16--|
C#|-12--12--12--12--12--------|-------14--14--14--14--|-14--14--14--14--14--14--14--14--|
G#|-12--12--12--12--12--------|-----------------------|---------------------------------|
D#|-10--10--10--10--10--------|-----------------------|---------------------------------|


D#|---------------------------------|---------------------------------|---------------------------------|
A#|-15--15--15--15--15--15--15--15--|-15--15--15--15--15--15--15--15--|-15--15--15--15--15--15--15--15--|
F#|-16--17--17--17--16--16--16--16--|-16--12--12--12--16--16--16--16--|-16--17--17--17--16--16--16--16--|
C#|-14--14--14--14--14--14--14--14--|-14--14--14--14--14--14--14--14--|-14--14--14--14--14--14--14--14--|
G#|---------------------------------|---------------------------------|---------------------------------|
D#|---------------------------------|---------------------------------|---------------------------------|


D#|---------------------------------|---------------------------------|---------------------------------|
A#|-15--15--15--15--15--15--15--15--|-15--15--15--15--15--15--15--15--|-15--15--15--15--15--15--15--15--|
F#|-16--12--12--12--16--16--16--16--|-16--17--17--17--16--16--16--16--|-16--12--12--12--16--16--16--16--|
C#|-14--14--14--14--14--14--14--14--|-14--14--14--14--14--14--14--14--|-14--14--14--14--14--14--14--14--|
G#|---------------------------------|---------------------------------|---------------------------------|
D#|---------------------------------|---------------------------------|---------------------------------|


D#|------------------------|------------------------|---------------------|------------------------|
A#|-15--15--15---8---------|------------------------|-----------8---------|------------------------|
F#|-16--16--16---------9---|-----9---11---11--7-----|-9----4----------9---|-----9---11---11--9-----|
C#|-14--14--14-------------|------------------------|---------------------|------------------------|
G#|------------------------|------------------------|---------------------|------------------------|
D#|------------------------|------------------------|---------------------|------------------------|


D#|---------------------|------------------------|---------------------|------------------------|
A#|---------------------|---------12---12--8-----|-7----8--------------|------------------------|
F#|-7---------------9---|-----9------------------|-----------7---------|------------------------|
C#|------7----9---------|------------------------|-----------------9---|-----9---8----8---7-----|
G#|---------------------|------------------------|---------------------|------------------------|
D#|---------------------|------------------------|---------------------|------------------------|


D#|-----------------|-------------|-------------|-------------|-------------|-------------|
A#|-----------------|-------------|-------------|-------------|-------------|-------------|
F#|-----------------|-------------|-------------|-------------|-------------|-------------|
C#|-----------------|-------------|-------------|-------------|-------------|-------------|
G#|-10---7----------|-------------|-------------|-------------|-------------|-------------|
D#|-----------8-----|-------7-----|-------0-----|-------0-----|-------8-----|-------7-----|


D#|-------------|-------------|--------|--------|--------|--------|--------|--------|
A#|-------------|-------------|--------|--------|--------|--------|--------|--------|
F#|-------------|-------------|--------|--------|--------|--------|--------|--------|
C#|-------------|-------------|--------|--------|--------|--------|--------|--------|
G#|-------------|-------------|--------|--------|--------|--------|--------|--------|
D#|-------0-----|-------0-----|--------|--------|--------|--------|--------|--------|


D#|--------|-----------------------|---------------------------------|---------------------------------|
A#|--------|-------15--15--15--15--|-15--15--15--15--15--15--15--15--|-15--15--15--15--15--15--15--15--|
F#|--------|-------16--16--16--16--|-16--16--16--16--16--16--16--16--|-16--12--12--12--16--16--16--16--|
C#|--------|-------14--14--14--14--|-14--14--14--14--14--14--14--14--|-14--14--14--14--14--14--14--14--|
G#|--------|-----------------------|---------------------------------|---------------------------------|
D#|--------|-----------------------|---------------------------------|---------------------------------|


D#|---------------------------------|---------------------------------|---------------------------------|
A#|-15--15--15--15--15--15--15--15--|-15--15--15--15--15--15--15--15--|-15--15--15--15--15--15--15--15--|
F#|-16--17--17--17--16--16--16--16--|-16--12--12--12--16--16--16--16--|-16--17--17--17--16--16--16--16--|
C#|-14--14--14--14--14--14--14--14--|-14--14--14--14--14--14--14--14--|-14--14--14--14--14--14--14--14--|
G#|---------------------------------|---------------------------------|---------------------------------|
D#|---------------------------------|---------------------------------|---------------------------------|


D#|---------------------------------|---------------------------------|---------------------------------|
A#|-15--15--15--15--15--15--15--15--|-15--15--15--15--15--15--15--15--|-15--15--15--15--15--15--15--15--|
F#|-16--12--12--12--16--16--16--16--|-16--17--17--17--16--16--16--16--|-16--12--12--12--16--16--16--16--|
C#|-14--14--14--14--14--14--14--14--|-14--14--14--14--14--14--14--14--|-14--14--14--14--14--14--14--14--|
G#|---------------------------------|---------------------------------|---------------------------------|
D#|---------------------------------|---------------------------------|---------------------------------|


D#|------------------------------|---------------------------------|---------------------------------|
A#|-15--15--15---15--15--15--15--|-15--15--15--15--15--15--15--15--|-15--15--15--15--15--15--15--15--|
F#|-16--16--16---16--16--16--16--|-16--12--12--12--16--16--16--16--|-16--17--17--17--16--16--16--16--|
C#|-14--14--14---14--14--14--14--|-14--14--14--14--14--14--14--14--|-14--14--14--14--14--14--14--14--|
G#|------------------------------|---------------------------------|---------------------------------|
D#|------------------------------|---------------------------------|---------------------------------|


D#|---------------------------------|---------------------------------|---------------------------------|
A#|-15--15--15--15--15--15--15--15--|-15--15--15--15--15--15--15--15--|-15--15--15--15--15--15--15--15--|
F#|-16--12--12--12--16--16--16--16--|-16--17--17--17--16--16--16--16--|-16--12--12--12--16--16--16--16--|
C#|-14--14--14--14--14--14--14--14--|-14--14--14--14--14--14--14--14--|-14--14--14--14--14--14--14--14--|
G#|---------------------------------|---------------------------------|---------------------------------|
D#|---------------------------------|---------------------------------|---------------------------------|


D#|---------------------------------|---------------------------------|---------------------------------|
A#|-15--15--15--15--15--15--15--15--|-15--15--15--15--15--15--15--15--|-15--15--15--15--15--15--15--15--|
F#|-16--17--17--17--16--16--16--16--|-16--12--12--12--16--16--16--16--|-16--17--17--17--16--16--16--16--|
C#|-14--14--14--14--14--14--14--14--|-14--14--14--14--14--14--14--14--|-14--14--14--14--14--14--14--14--|
G#|---------------------------------|---------------------------------|---------------------------------|
D#|---------------------------------|---------------------------------|---------------------------------|


D#|---------------------------------|---------------------------------|---------------------------------|
A#|-15--15--15--15--15--15--15--15--|-15--15--15--15--15--15--15--15--|-15--15--15--15--15--15--15--15--|
F#|-16--12--12--12--16--16--16--16--|-16--17--17--17--16--16--16--16--|-16--12--12--12--16--16--16--16--|
C#|-14--14--14--14--14--14--14--14--|-14--14--14--14--14--14--14--14--|-14--14--14--14--14--14--14--14--|
G#|---------------------------------|---------------------------------|---------------------------------|
D#|---------------------------------|---------------------------------|---------------------------------|


D#|---------------------------------|---------------------------------|---------------------------------|
A#|-15--15--15--15--15--15--15--15--|-15--15--15--15--15--15--15--15--|-15--15--15--15--15--15--15--15--|
F#|-16--17--17--17--16--16--16--16--|-16--12--12--12--16--16--16--16--|-16--17--17--17--16--16--16--16--|
C#|-14--14--14--14--14--14--14--14--|-14--14--14--14--14--14--14--14--|-14--14--14--14--14--14--14--14--|
G#|---------------------------------|---------------------------------|---------------------------------|
D#|---------------------------------|---------------------------------|---------------------------------|


D#|---------------------------------|---------------------------------|---------------------------------|
A#|-15--15--15--15--15--15--15--15--|-15--15--15--15--15--15--15--15--|-15--15--15--15--15--15--15--15--|
F#|-16--12--12--12--16--16--16--16--|-16--17--17--17--16--16--16--16--|-16--12--12--12--16--16--16--16--|
C#|-14--14--14--14--14--14--14--14--|-14--14--14--14--14--14--14--14--|-14--14--14--14--14--14--14--14--|
G#|---------------------------------|---------------------------------|---------------------------------|
D#|---------------------------------|---------------------------------|---------------------------------|


D#|---------------------------------|---------------------------------|---------------------------------|
A#|-15--15--15--15--15--15--15--15--|-15--15--15--15--15--15--15--15--|-15--15--15--15--15--15--15--15--|
F#|-16--17--17--17--16--16--16--16--|-16--12--12--12--16--16--16--16--|-16--17--17--17--16--16--16--16--|
C#|-14--14--14--14--14--14--14--14--|-14--14--14--14--14--14--14--14--|-14--14--14--14--14--14--14--14--|
G#|---------------------------------|---------------------------------|---------------------------------|
D#|---------------------------------|---------------------------------|---------------------------------|


D#|---------------------------------|---------------------------------|---------------------------------|
A#|-15--15--15--15--15--15--15--15--|-15--15--15--15--15--15--15--15--|-15--15--15--15--15--15--15--15--|
F#|-16--12--12--12--16--16--16--16--|-16--17--17--17--16--16--16--16--|-16--12--12--12--16--16--16--16--|
C#|-14--14--14--14--14--14--14--14--|-14--14--14--14--14--14--14--14--|-14--14--14--14--14--14--14--14--|
G#|---------------------------------|---------------------------------|---------------------------------|
D#|---------------------------------|---------------------------------|---------------------------------|


D#|-----------------------|--------|--------|--------|--------|--------|--------|--------|
A#|-15--15--15--15--------|--------|--------|--------|--------|--------|--------|--------|
F#|-16--17--17--17--------|--------|--------|--------|--------|--------|--------|--------|
C#|-14--14--14--14--------|--------|--------|--------|--------|--------|--------|--------|
G#|-----------------------|--------|--------|--------|--------|--------|--------|--------|
D#|-----------------------|--------|--------|--------|--------|--------|--------|--------|


D#|--------|--------|--------|
A#|--------|--------|--------|
F#|--------|--------|--------|
C#|--------|--------|--------|
G#|--------|--------|--------|
D#|--------|--------|--------|





Track 2: center overdub

D#|--------|--------|--------|--------|--------|--------|--------|--------|--------|
A#|--------|--------|--------|--------|--------|--------|--------|--------|--------|
F#|--------|--------|--------|--------|--------|--------|--------|--------|--------|
C#|--------|--------|--------|--------|--------|--------|--------|--------|--------|
G#|--------|--------|--------|--------|--------|--------|--------|--------|--------|
D#|--------|--------|--------|--------|--------|--------|--------|--------|--------|


D#|--------|--------|--------|--------|--------|--------|--------|-------------|-------------|
A#|--------|--------|--------|--------|--------|--------|--------|-------------|-------------|
F#|--------|--------|--------|--------|--------|--------|--------|-------------|-------------|
C#|--------|--------|--------|--------|--------|--------|--------|-------------|-------------|
G#|--------|--------|--------|--------|--------|--------|--------|-------------|-------------|
D#|--------|--------|--------|--------|--------|--------|--------|-------------|-------------|


D#|-----------------|---------------------|-----------------|-------------|-------------|
A#|-----------------|------12---12--8-----|-7----8----8-----|-------8-----|-------------|
F#|-------------9---|-9-------------------|-----------------|-------------|-------------|
C#|-------9---------|---------------------|-----------------|-------------|-------------|
G#|-----------------|---------------------|-----------------|-------------|-------------|
D#|-----------------|---------------------|-----------------|-------------|-------------|


D#|-------------|-------------|-------------|-------------|-------------|-------------|
A#|-------------|-------------|-------------|-------------|-------------|-------------|
F#|-------------|-------------|-------------|-------------|-------------|-------------|
C#|-------------|-------------|-------------|-------------|-------------|-------------|
G#|-------------|-------------|-------------|-------------|-------------|-------------|
D#|-------------|-------------|-------------|-------------|-------------|-------------|


D#|-------------|-------------|-------------|-----------------|-------------|---------------------|
A#|-------------|-------------|-------------|------12---12----|-------12----|------12---12----8---|
F#|-------------|-------------|-------------|-----------------|-------------|---------------------|
C#|-------------|-------------|-------------|-----------------|-------------|---------------------|
G#|-------------|-------------|-------------|-----------------|-------------|---------------------|
D#|-------------|-------------|-------------|-----------------|-------------|---------------------|


D#|-------------|-----------------|-------------|---------------------|-----------------|
A#|-8-----8-----|------12---12----|-------12----|------12---12----8---|-8---------------|
F#|-------------|-----------------|-------------|---------------------|------9----9-----|
C#|-------------|-----------------|-------------|---------------------|-----------------|
G#|-------------|-----------------|-------------|---------------------|-----------------|
D#|-------------|-----------------|-------------|---------------------|-----------------|


D#|-------------|-------------|-------------|-------------|-------------|-------------|
A#|-------------|-------------|-------------|-------------|-------------|-------------|
F#|-------------|-------------|-------------|-------------|-------------|-------------|
C#|-------14----|-------14----|-------------|-------------|-------14----|-------14----|
G#|-------------|-------------|-------------|-------------|-------------|-------------|
D#|-------------|-------------|-------------|-------------|-------------|-------------|


D#|-------------|-------------|-------------|-------------|-----------------|---------------------|
A#|-------------|-------------|-------------|-------------|-----------------|------12---12--8-----|
F#|-------------|-------------|-------------|-------------|-------------9---|-9-------------------|
C#|-------------|-------------|-------------|-------------|-------9---------|---------------------|
G#|-------------|-------------|-------------|-------------|-----------------|---------------------|
D#|-------------|-------------|-------------|-------------|-----------------|---------------------|


D#|-----------------|-------------|-------------|-------------|--------|--------|--------|
A#|-7----8----8-----|-------8-----|-------------|-------------|--------|--------|--------|
F#|-----------------|-------------|-------------|-------------|--------|--------|--------|
C#|-----------------|-------------|-------------|-------------|--------|--------|--------|
G#|-----------------|-------------|-------------|-------------|--------|--------|--------|
D#|-----------------|-------------|-------------|-------------|--------|--------|--------|


D#|--------|--------|--------|--------|--------|-------12-12-12-12-12-12-12-12-|-12-12-12-12-12-12-12-12-12-12-12-12-12-12-12-12-|
A#|--------|--------|--------|--------|--------|-------12-12-12-12-12-12-12-12-|-12-12-12-12-12-12-12-12-12-12-12-12-12-12-12-12-|
F#|--------|--------|--------|--------|--------|-------12-12-12-12-12-12-12-12-|-12-12-12-12-12-12-12-12-12-12-12-12-12-12-12-12-|
C#|--------|--------|--------|--------|--------|-------------------------------|-------------------------------------------------|
G#|--------|--------|--------|--------|--------|-------------------------------|-------------------------------------------------|
D#|--------|--------|--------|--------|--------|-------------------------------|-------------------------------------------------|


D#|-12-12-12-12-12-12-12-12-12-12-12-12-12-12-12-12-|-12-12-12-12-12-12-12-12-12-12-12-12-12-12-12-12-|
A#|-12-12-12-12-12-12-12-12-12-12-12-12-12-12-12-12-|-12-12-12-12-12-12-12-12-12-12-12-12-12-12-12-12-|
F#|-12-12-12-12-12-12-12-12-12-12-12-12-12-12-12-12-|-12-12-12-12-12-12-12-12-12-12-12-12-12-12-12-12-|
C#|-------------------------------------------------|-------------------------------------------------|
G#|-------------------------------------------------|-------------------------------------------------|
D#|-------------------------------------------------|-------------------------------------------------|


D#|-12-12-12-12-12-12-12-12-12-12-12-12-12-12-12-12-|-12-12-12-12-12-12-12-12-12-12-12-12-12-12-12-12-|
A#|-12-12-12-12-12-12-12-12-12-12-12-12-12-12-12-12-|-12-12-12-12-12-12-12-12-12-12-12-12-12-12-12-12-|
F#|-12-12-12-12-12-12-12-12-12-12-12-12-12-12-12-12-|-12-12-12-12-12-12-12-12-12-12-12-12-12-12-12-12-|
C#|-------------------------------------------------|-------------------------------------------------|
G#|-------------------------------------------------|-------------------------------------------------|
D#|-------------------------------------------------|-------------------------------------------------|


D#|-12-12-12-12-12-12-12-12-12-12-12-12-12-12-12-12-|-12-12-12-12-12-12-12-12-12-12-12-12-12-12-12-12-|
A#|-12-12-12-12-12-12-12-12-12-12-12-12-12-12-12-12-|-12-12-12-12-12-12-12-12-12-12-12-12-12-12-12-12-|
F#|-12-12-12-12-12-12-12-12-12-12-12-12-12-12-12-12-|-12-12-12-12-12-12-12-12-12-12-12-12-12-12-12-12-|
C#|-------------------------------------------------|-------------------------------------------------|
G#|-------------------------------------------------|-------------------------------------------------|
D#|-------------------------------------------------|-------------------------------------------------|


D#|-12-12-12-12-12-12-12-12-------|-------------|-----------------|---------------------|
A#|-12-12-12-12-12-12-12-12-------|-------------|-----------------|------12---12--8-----|
F#|-12-12-12-12-12-12-12-12-------|-------------|-------------9---|-9-------------------|
C#|-------------------------------|-------------|-------9---------|---------------------|
G#|-------------------------------|-------------|-----------------|---------------------|
D#|-------------------------------|-------------|-----------------|---------------------|


D#|-----------------|-------------|-----------------|---------------------|-----------------|
A#|-7----8----8-----|-------8-----|-----------------|------12---12--8-----|-7----8----8-----|
F#|-----------------|-------------|-------------9---|-9-------------------|-----------------|
C#|-----------------|-------------|-------9---------|---------------------|-----------------|
G#|-----------------|-------------|-----------------|---------------------|-----------------|
D#|-----------------|-------------|-----------------|---------------------|-----------------|


D#|-------------|-----------------|---------------------|---------------------|---------------------|
A#|-------8-----|-----------------|------12---12--8-----|-7----8--------------|------12---12--8-----|
F#|-------------|-------------9---|-9-------------------|-----------------9---|-9-------------------|
C#|-------------|-------9---------|---------------------|-----------9---------|---------------------|
G#|-------------|-----------------|---------------------|---------------------|---------------------|
D#|-------------|-----------------|---------------------|---------------------|---------------------|


D#|---------------------|--------------------|--------|--------|--------|--------|
A#|-7----8--------------|------12--12--------|--------|--------|--------|--------|
F#|-----------------9---|-9------------------|--------|--------|--------|--------|
C#|-----------9---------|--------------------|--------|--------|--------|--------|
G#|---------------------|--------------------|--------|--------|--------|--------|
D#|---------------------|--------------------|--------|--------|--------|--------|


D#|--------|--------|--------|--------|-----------------|---------------------|-----------------|
A#|--------|--------|--------|--------|-------10----8---|------12---12--12----|-10----10----8---|
F#|--------|--------|--------|--------|-----------------|-9-------------------|-----------------|
C#|--------|--------|--------|--------|-------7-----5---|------9----9---9-----|-7-----7-----5---|
G#|--------|--------|--------|--------|-----------------|-7-------------------|-----------------|
D#|--------|--------|--------|--------|-----------------|---------------------|-----------------|


D#|---------------------|-----------------|---------------------|---------------------------|
A#|------12---12--12----|-10----10----8---|------13---13--13----|-12----10--10--12--12--10--|
F#|-9-------------------|-----------------|-9-------------------|---------------------------|
C#|------9----9---9-----|-7-----7-----5---|------10---10--10----|-9-----7---7---9---9---7---|
G#|-7-------------------|-----------------|-7-------------------|---------------------------|
D#|---------------------|-----------------|---------------------|---------------------------|


D#|-10---10----------------------|-10----10--------|--------|--------|--------|--------|
A#|----------10--10--12--12--10--|-----------------|--------|--------|--------|--------|
F#|-7----7-----------------------|-7-----7---------|--------|--------|--------|--------|
C#|----------7---7---9---9---7---|-----------------|--------|--------|--------|--------|
G#|------------------------------|-----------------|--------|--------|--------|--------|
D#|------------------------------|-----------------|--------|--------|--------|--------|


D#|--------|--------|--------|--------|--------|--------|--------|--------|--------|
A#|--------|--------|--------|--------|--------|--------|--------|--------|--------|
F#|--------|--------|--------|--------|--------|--------|--------|--------|--------|
C#|--------|--------|--------|--------|--------|--------|--------|--------|--------|
G#|--------|--------|--------|--------|--------|--------|--------|--------|--------|
D#|--------|--------|--------|--------|--------|--------|--------|--------|--------|


D#|--------|--------|--------|--------|--------|--------|--------|--------|--------|
A#|--------|--------|--------|--------|--------|--------|--------|--------|--------|
F#|--------|--------|--------|--------|--------|--------|--------|--------|--------|
C#|--------|--------|--------|--------|--------|--------|--------|--------|--------|
G#|--------|--------|--------|--------|--------|--------|--------|--------|--------|
D#|--------|--------|--------|--------|--------|--------|--------|--------|--------|


D#|--------|--------|--------|--------|
A#|--------|--------|--------|--------|
F#|--------|--------|--------|--------|
C#|--------|--------|--------|--------|
G#|--------|--------|--------|--------|
D#|--------|--------|--------|--------|





Track 3: bridge clean

D#|--------|--------|--------|--------|--------|--------|--------|--------|--------|
A#|--------|--------|--------|--------|--------|--------|--------|--------|--------|
F#|--------|--------|--------|--------|--------|--------|--------|--------|--------|
C#|--------|--------|--------|--------|--------|--------|--------|--------|--------|
G#|--------|--------|--------|--------|--------|--------|--------|--------|--------|
D#|--------|--------|--------|--------|--------|--------|--------|--------|--------|


D#|--------|--------|--------|--------|--------|--------|--------|--------|--------|
A#|--------|--------|--------|--------|--------|--------|--------|--------|--------|
F#|--------|--------|--------|--------|--------|--------|--------|--------|--------|
C#|--------|--------|--------|--------|--------|--------|--------|--------|--------|
G#|--------|--------|--------|--------|--------|--------|--------|--------|--------|
D#|--------|--------|--------|--------|--------|--------|--------|--------|--------|


D#|--------|--------|--------|--------|--------|--------|--------|--------|--------|
A#|--------|--------|--------|--------|--------|--------|--------|--------|--------|
F#|--------|--------|--------|--------|--------|--------|--------|--------|--------|
C#|--------|--------|--------|--------|--------|--------|--------|--------|--------|
G#|--------|--------|--------|--------|--------|--------|--------|--------|--------|
D#|--------|--------|--------|--------|--------|--------|--------|--------|--------|


D#|--------|--------|--------|--------|--------|--------|--------|--------|--------|
A#|--------|--------|--------|--------|--------|--------|--------|--------|--------|
F#|--------|--------|--------|--------|--------|--------|--------|--------|--------|
C#|--------|--------|--------|--------|--------|--------|--------|--------|--------|
G#|--------|--------|--------|--------|--------|--------|--------|--------|--------|
D#|--------|--------|--------|--------|--------|--------|--------|--------|--------|


D#|--------|--------|--------|--------|--------|--------|--------|--------|--------|
A#|--------|--------|--------|--------|--------|--------|--------|--------|--------|
F#|--------|--------|--------|--------|--------|--------|--------|--------|--------|
C#|--------|--------|--------|--------|--------|--------|--------|--------|--------|
G#|--------|--------|--------|--------|--------|--------|--------|--------|--------|
D#|--------|--------|--------|--------|--------|--------|--------|--------|--------|


D#|--------|--------|--------|--------|--------|--------|--------|--------|--------|
A#|--------|--------|--------|--------|--------|--------|--------|--------|--------|
F#|--------|--------|--------|--------|--------|--------|--------|--------|--------|
C#|--------|--------|--------|--------|--------|--------|--------|--------|--------|
G#|--------|--------|--------|--------|--------|--------|--------|--------|--------|
D#|--------|--------|--------|--------|--------|--------|--------|--------|--------|


D#|--------|--------|--------|--------|--------|--------|--------|--------|--------|
A#|--------|--------|--------|--------|--------|--------|--------|--------|--------|
F#|--------|--------|--------|--------|--------|--------|--------|--------|--------|
C#|--------|--------|--------|--------|--------|--------|--------|--------|--------|
G#|--------|--------|--------|--------|--------|--------|--------|--------|--------|
D#|--------|--------|--------|--------|--------|--------|--------|--------|--------|


D#|--------|--------|--------|--------|--------|--------|--------|--------|--------|
A#|--------|--------|--------|--------|--------|--------|--------|--------|--------|
F#|--------|--------|--------|--------|--------|--------|--------|--------|--------|
C#|--------|--------|--------|--------|--------|--------|--------|--------|--------|
G#|--------|--------|--------|--------|--------|--------|--------|--------|--------|
D#|--------|--------|--------|--------|--------|--------|--------|--------|--------|


D#|-------------|-------7-----|-------7-----|-------7-----|-------7-----|-------7-----|
A#|-------------|-------7-----|-------8-----|-------8-----|-------8-----|-------7-----|
F#|-------------|-------7-----|-------9-----|-------9-----|-------9-----|-------7-----|
C#|-------------|-------9-----|-------9-----|-------9-----|-------10----|-------9-----|
G#|-------------|-------------|-------------|-------------|-------------|-------------|
D#|-------------|-------------|-------------|-------------|-------------|-------------|


D#|-------7-----|-------7-----|-------7-----|-------7-----|-------5-----|-------5-----|
A#|-------8-----|-------8-----|-------8-----|-------7-----|-------5-----|-------5-----|
F#|-------9-----|-------9-----|-------9-----|-------7-----|-------5-----|-------5-----|
C#|-------9-----|-------9-----|-------10----|-------9-----|-------7-----|-------7-----|
G#|-------------|-------------|-------------|-------------|-------------|-------------|
D#|-------------|-------------|-------------|-------------|-------------|-------------|


D#|-------3-----|-------3-----|-------2-----|--------|--------|--------|--------|--------|
A#|-------3-----|-------3-----|-------3-----|--------|--------|--------|--------|--------|
F#|-------4-----|-------4-----|-------4-----|--------|--------|--------|--------|--------|
C#|-------5-----|-------5-----|-------4-----|--------|--------|--------|--------|--------|
G#|-------------|-------------|-------------|--------|--------|--------|--------|--------|
D#|-------------|-------------|-------------|--------|--------|--------|--------|--------|


D#|--------|--------|--------|--------|--------|--------|--------|--------|--------|
A#|--------|--------|--------|--------|--------|--------|--------|--------|--------|
F#|--------|--------|--------|--------|--------|--------|--------|--------|--------|
C#|--------|--------|--------|--------|--------|--------|--------|--------|--------|
G#|--------|--------|--------|--------|--------|--------|--------|--------|--------|
D#|--------|--------|--------|--------|--------|--------|--------|--------|--------|


D#|--------|--------|--------|--------|--------|--------|--------|--------|--------|
A#|--------|--------|--------|--------|--------|--------|--------|--------|--------|
F#|--------|--------|--------|--------|--------|--------|--------|--------|--------|
C#|--------|--------|--------|--------|--------|--------|--------|--------|--------|
G#|--------|--------|--------|--------|--------|--------|--------|--------|--------|
D#|--------|--------|--------|--------|--------|--------|--------|--------|--------|


D#|--------|--------|--------|--------|--------|--------|--------|--------|--------|
A#|--------|--------|--------|--------|--------|--------|--------|--------|--------|
F#|--------|--------|--------|--------|--------|--------|--------|--------|--------|
C#|--------|--------|--------|--------|--------|--------|--------|--------|--------|
G#|--------|--------|--------|--------|--------|--------|--------|--------|--------|
D#|--------|--------|--------|--------|--------|--------|--------|--------|--------|


D#|--------|--------|--------|--------|--------|--------|--------|--------|--------|
A#|--------|--------|--------|--------|--------|--------|--------|--------|--------|
F#|--------|--------|--------|--------|--------|--------|--------|--------|--------|
C#|--------|--------|--------|--------|--------|--------|--------|--------|--------|
G#|--------|--------|--------|--------|--------|--------|--------|--------|--------|
D#|--------|--------|--------|--------|--------|--------|--------|--------|--------|


D#|--------|--------|--------|
A#|--------|--------|--------|
F#|--------|--------|--------|
C#|--------|--------|--------|
G#|--------|--------|--------|
D#|--------|--------|--------|





Track 4: guitar L

D#|--------|--------|--------|--------|--------|--------|--------|--------|--------|
A#|--------|--------|--------|--------|--------|--------|--------|--------|--------|
F#|--------|--------|--------|--------|--------|--------|--------|--------|--------|
C#|--------|--------|--------|--------|--------|--------|--------|--------|--------|
G#|--------|--------|--------|--------|--------|--------|--------|--------|--------|
D#|--------|--------|--------|--------|--------|--------|--------|--------|--------|


D#|--------|--------|--------|--------|--------|--------|--------|--------|--------|
A#|--------|--------|--------|--------|--------|--------|--------|--------|--------|
F#|--------|--------|--------|--------|--------|--------|--------|--------|--------|
C#|--------|--------|--------|--------|--------|--------|--------|--------|--------|
G#|--------|--------|--------|--------|--------|--------|--------|--------|--------|
D#|--------|--------|--------|--------|--------|--------|--------|--------|--------|


D#|--------|--------|--------|--------|--------|--------|--------|--------|--------|
A#|--------|--------|--------|--------|--------|--------|--------|--------|--------|
F#|--------|--------|--------|--------|--------|--------|--------|--------|--------|
C#|--------|--------|--------|--------|--------|--------|--------|--------|--------|
G#|--------|--------|--------|--------|--------|--------|--------|--------|--------|
D#|--------|--------|--------|--------|--------|--------|--------|--------|--------|


D#|--------|--------|--------|--------|--------|--------|--------|--------|--------|
A#|--------|--------|--------|--------|--------|--------|--------|--------|--------|
F#|--------|--------|--------|--------|--------|--------|--------|--------|--------|
C#|--------|--------|--------|--------|--------|--------|--------|--------|--------|
G#|--------|--------|--------|--------|--------|--------|--------|--------|--------|
D#|--------|--------|--------|--------|--------|--------|--------|--------|--------|


D#|--------|--------|--------|--------|--------|--------|--------|--------|--------|
A#|--------|--------|--------|--------|--------|--------|--------|--------|--------|
F#|--------|--------|--------|--------|--------|--------|--------|--------|--------|
C#|--------|--------|--------|--------|--------|--------|--------|--------|--------|
G#|--------|--------|--------|--------|--------|--------|--------|--------|--------|
D#|--------|--------|--------|--------|--------|--------|--------|--------|--------|


D#|--------|--------|--------|--------|--------|--------|--------|--------|--------|
A#|--------|--------|--------|--------|--------|--------|--------|--------|--------|
F#|--------|--------|--------|--------|--------|--------|--------|--------|--------|
C#|--------|--------|--------|--------|--------|--------|--------|--------|--------|
G#|--------|--------|--------|--------|--------|--------|--------|--------|--------|
D#|--------|--------|--------|--------|--------|--------|--------|--------|--------|


D#|--------|--------|--------|--------|--------|--------|--------|--------|--------|
A#|--------|--------|--------|--------|--------|--------|--------|--------|--------|
F#|--------|--------|--------|--------|--------|--------|--------|--------|--------|
C#|--------|--------|--------|--------|--------|--------|--------|--------|--------|
G#|--------|--------|--------|--------|--------|--------|--------|--------|--------|
D#|--------|--------|--------|--------|--------|--------|--------|--------|--------|


D#|--------|--------|--------|--------|--------|--------|--------|--------|--------|
A#|--------|--------|--------|--------|--------|--------|--------|--------|--------|
F#|--------|--------|--------|--------|--------|--------|--------|--------|--------|
C#|--------|--------|--------|--------|--------|--------|--------|--------|--------|
G#|--------|--------|--------|--------|--------|--------|--------|--------|--------|
D#|--------|--------|--------|--------|--------|--------|--------|--------|--------|


D#|--------|--------|--------|--------|--------|--------|--------|--------|--------|
A#|--------|--------|--------|--------|--------|--------|--------|--------|--------|
F#|--------|--------|--------|--------|--------|--------|--------|--------|--------|
C#|--------|--------|--------|--------|--------|--------|--------|--------|--------|
G#|--------|--------|--------|--------|--------|--------|--------|--------|--------|
D#|--------|--------|--------|--------|--------|--------|--------|--------|--------|


D#|--------|--------|--------|--------|--------|--------|-------2-----|--------|--------|
A#|--------|--------|--------|--------|--------|--------|-------3-----|--------|--------|
F#|--------|--------|--------|--------|--------|--------|-------4-----|--------|--------|
C#|--------|--------|--------|--------|--------|--------|-------4-----|--------|--------|
G#|--------|--------|--------|--------|--------|--------|-------------|--------|--------|
D#|--------|--------|--------|--------|--------|--------|-------------|--------|--------|


D#|--------|--------|--------|--------|--------|--------|--------|--------|--------|
A#|--------|--------|--------|--------|--------|--------|--------|--------|--------|
F#|--------|--------|--------|--------|--------|--------|--------|--------|--------|
C#|--------|--------|--------|--------|--------|--------|--------|--------|--------|
G#|--------|--------|--------|--------|--------|--------|--------|--------|--------|
D#|--------|--------|--------|--------|--------|--------|--------|--------|--------|


D#|--------|--------|--------|--------|--------|--------|--------|--------|--------|
A#|--------|--------|--------|--------|--------|--------|--------|--------|--------|
F#|--------|--------|--------|--------|--------|--------|--------|--------|--------|
C#|--------|--------|--------|--------|--------|--------|--------|--------|--------|
G#|--------|--------|--------|--------|--------|--------|--------|--------|--------|
D#|--------|--------|--------|--------|--------|--------|--------|--------|--------|


D#|--------|--------|--------|--------|--------|--------|--------|--------|--------|
A#|--------|--------|--------|--------|--------|--------|--------|--------|--------|
F#|--------|--------|--------|--------|--------|--------|--------|--------|--------|
C#|--------|--------|--------|--------|--------|--------|--------|--------|--------|
G#|--------|--------|--------|--------|--------|--------|--------|--------|--------|
D#|--------|--------|--------|--------|--------|--------|--------|--------|--------|


D#|--------|--------|--------|--------|--------|--------|--------|--------|--------|
A#|--------|--------|--------|--------|--------|--------|--------|--------|--------|
F#|--------|--------|--------|--------|--------|--------|--------|--------|--------|
C#|--------|--------|--------|--------|--------|--------|--------|--------|--------|
G#|--------|--------|--------|--------|--------|--------|--------|--------|--------|
D#|--------|--------|--------|--------|--------|--------|--------|--------|--------|


D#|--------|--------|--------|--------|--------|
A#|--------|--------|--------|--------|--------|
F#|--------|--------|--------|--------|--------|
C#|--------|--------|--------|--------|--------|
G#|--------|--------|--------|--------|--------|
D#|--------|--------|--------|--------|--------|





Track 5: synth 1

D#|--------|--------|--------|--------|--------|--------|--------|--------|--------|
A#|--------|--------|--------|--------|--------|--------|--------|--------|--------|
F#|--------|--------|--------|--------|--------|--------|--------|--------|--------|
C#|--------|--------|--------|--------|--------|--------|--------|--------|--------|
G#|--------|--------|--------|--------|--------|--------|--------|--------|--------|
D#|--------|--------|--------|--------|--------|--------|--------|--------|--------|


D#|--------|--------|--------|--------|--------|--------|--------|--------|--------|
A#|--------|--------|--------|--------|--------|--------|--------|--------|--------|
F#|--------|--------|--------|--------|--------|--------|--------|--------|--------|
C#|--------|--------|--------|--------|--------|--------|--------|--------|--------|
G#|--------|--------|--------|--------|--------|--------|--------|--------|--------|
D#|--------|--------|--------|--------|--------|--------|--------|--------|--------|


D#|--------|--------|--------|--------|--------|--------|--------|--------|--------|
A#|--------|--------|--------|--------|--------|--------|--------|--------|--------|
F#|--------|--------|--------|--------|--------|--------|--------|--------|--------|
C#|--------|--------|--------|--------|--------|--------|--------|--------|--------|
G#|--------|--------|--------|--------|--------|--------|--------|--------|--------|
D#|--------|--------|--------|--------|--------|--------|--------|--------|--------|


D#|--------|--------|--------|--------|--------|--------|--------|--------|--------|
A#|--------|--------|--------|--------|--------|--------|--------|--------|--------|
F#|--------|--------|--------|--------|--------|--------|--------|--------|--------|
C#|--------|--------|--------|--------|--------|--------|--------|--------|--------|
G#|--------|--------|--------|--------|--------|--------|--------|--------|--------|
D#|--------|--------|--------|--------|--------|--------|--------|--------|--------|


D#|--------|--------|--------|--------|--------|--------|--------|--------|--------|
A#|--------|--------|--------|--------|--------|--------|--------|--------|--------|
F#|--------|--------|--------|--------|--------|--------|--------|--------|--------|
C#|--------|--------|--------|--------|--------|--------|--------|--------|--------|
G#|--------|--------|--------|--------|--------|--------|--------|--------|--------|
D#|--------|--------|--------|--------|--------|--------|--------|--------|--------|


D#|--------|--------|--------|--------|--------|--------|--------|--------|--------|
A#|--------|--------|--------|--------|--------|--------|--------|--------|--------|
F#|--------|--------|--------|--------|--------|--------|--------|--------|--------|
C#|--------|--------|--------|--------|--------|--------|--------|--------|--------|
G#|--------|--------|--------|--------|--------|--------|--------|--------|--------|
D#|--------|--------|--------|--------|--------|--------|--------|--------|--------|


D#|--------|--------|--------|--------|--------|--------|--------|--------|--------|
A#|--------|--------|--------|--------|--------|--------|--------|--------|--------|
F#|--------|--------|--------|--------|--------|--------|--------|--------|--------|
C#|--------|--------|--------|--------|--------|--------|--------|--------|--------|
G#|--------|--------|--------|--------|--------|--------|--------|--------|--------|
D#|--------|--------|--------|--------|--------|--------|--------|--------|--------|


D#|--------|--------|--------|--------|--------|--------|--------|--------|--------|
A#|--------|--------|--------|--------|--------|--------|--------|--------|--------|
F#|--------|--------|--------|--------|--------|--------|--------|--------|--------|
C#|--------|--------|--------|--------|--------|--------|--------|--------|--------|
G#|--------|--------|--------|--------|--------|--------|--------|--------|--------|
D#|--------|--------|--------|--------|--------|--------|--------|--------|--------|


D#|--------|--------|--------|--------|--------|--------|--------|--------|--------|
A#|--------|--------|--------|--------|--------|--------|--------|--------|--------|
F#|--------|--------|--------|--------|--------|--------|--------|--------|--------|
C#|--------|--------|--------|--------|--------|--------|--------|--------|--------|
G#|--------|--------|--------|--------|--------|--------|--------|--------|--------|
D#|--------|--------|--------|--------|--------|--------|--------|--------|--------|


D#|--------|--------|--------|--------|--------|--------|--------|--------|--------|
A#|--------|--------|--------|--------|--------|--------|--------|--------|--------|
F#|--------|--------|--------|--------|--------|--------|--------|--------|--------|
C#|--------|--------|--------|--------|--------|--------|--------|--------|--------|
G#|--------|--------|--------|--------|--------|--------|--------|--------|--------|
D#|--------|--------|--------|--------|--------|--------|--------|--------|--------|


D#|--------|--------|--------|--------|--------|--------|--------|--------|--------|
A#|--------|--------|--------|--------|--------|--------|--------|--------|--------|
F#|--------|--------|--------|--------|--------|--------|--------|--------|--------|
C#|--------|--------|--------|--------|--------|--------|--------|--------|--------|
G#|--------|--------|--------|--------|--------|--------|--------|--------|--------|
D#|--------|--------|--------|--------|--------|--------|--------|--------|--------|


D#|--------|--------|--------|--------|--------|-------------|-------------|-------------|
A#|--------|--------|--------|--------|--------|-------------|-------------|-------------|
F#|--------|--------|--------|--------|--------|-------9-----|-------9-----|-7-----------|
C#|--------|--------|--------|--------|--------|-------------|-------------|-------7-----|
G#|--------|--------|--------|--------|--------|-------7-----|-------7-----|-5-----------|
D#|--------|--------|--------|--------|--------|-------------|-------------|-------5-----|


D#|-------------|-------------|-------------|-------------|-------------|-------------|
A#|-------------|-------------|-------------|-------------|-------------|-------------|
F#|-------------|-4-----5-----|-------5-----|-4-----------|-------------|-------9-----|
C#|-------5-----|-------------|-------------|-------5-----|-------4-----|-------------|
G#|-------------|-2-----3-----|-------3-----|-2-----------|-------------|-------7-----|
D#|-------3-----|-------------|-------------|-------3-----|-------2-----|-------------|


D#|-------------|-------------|-------------|-------------|-------------|-------------|
A#|-------------|-------------|-------------|-12----13----|-------13----|-12----------|
F#|-------9-----|-12----14----|-------12----|-------------|-------------|-------12----|
C#|-------------|-------------|-------------|-9-----10----|-------10----|-9-----------|
G#|-------7-----|-10----12----|-------10----|-------------|-------------|-------10----|
D#|-------------|-------------|-------------|-------------|-------------|-------------|


D#|-------------|--------|--------|--------|--------|--------|--------|--------|--------|
A#|-------------|--------|--------|--------|--------|--------|--------|--------|--------|
F#|-------11----|--------|--------|--------|--------|--------|--------|--------|--------|
C#|-------------|--------|--------|--------|--------|--------|--------|--------|--------|
G#|-------9-----|--------|--------|--------|--------|--------|--------|--------|--------|
D#|-------------|--------|--------|--------|--------|--------|--------|--------|--------|


D#|--------|--------|--------|
A#|--------|--------|--------|
F#|--------|--------|--------|
C#|--------|--------|--------|
G#|--------|--------|--------|
D#|--------|--------|--------|





Track 6: Synth 2

D#|--------|--------|--------|--------|--------|--------|--------|--------|--------|
A#|--------|--------|--------|--------|--------|--------|--------|--------|--------|
F#|--------|--------|--------|--------|--------|--------|--------|--------|--------|
C#|--------|--------|--------|--------|--------|--------|--------|--------|--------|
G#|--------|--------|--------|--------|--------|--------|--------|--------|--------|
D#|--------|--------|--------|--------|--------|--------|--------|--------|--------|


D#|--------|--------|--------|--------|--------|--------|--------|--------|--------|
A#|--------|--------|--------|--------|--------|--------|--------|--------|--------|
F#|--------|--------|--------|--------|--------|--------|--------|--------|--------|
C#|--------|--------|--------|--------|--------|--------|--------|--------|--------|
G#|--------|--------|--------|--------|--------|--------|--------|--------|--------|
D#|--------|--------|--------|--------|--------|--------|--------|--------|--------|


D#|--------|--------|--------|--------|--------|--------|--------|--------|--------|
A#|--------|--------|--------|--------|--------|--------|--------|--------|--------|
F#|--------|--------|--------|--------|--------|--------|--------|--------|--------|
C#|--------|--------|--------|--------|--------|--------|--------|--------|--------|
G#|--------|--------|--------|--------|--------|--------|--------|--------|--------|
D#|--------|--------|--------|--------|--------|--------|--------|--------|--------|


D#|--------|--------|--------|--------|--------|--------|--------|--------|--------|
A#|--------|--------|--------|--------|--------|--------|--------|--------|--------|
F#|--------|--------|--------|--------|--------|--------|--------|--------|--------|
C#|--------|--------|--------|--------|--------|--------|--------|--------|--------|
G#|--------|--------|--------|--------|--------|--------|--------|--------|--------|
D#|--------|--------|--------|--------|--------|--------|--------|--------|--------|


D#|--------|--------|--------|--------|--------|--------|--------|--------|--------|
A#|--------|--------|--------|--------|--------|--------|--------|--------|--------|
F#|--------|--------|--------|--------|--------|--------|--------|--------|--------|
C#|--------|--------|--------|--------|--------|--------|--------|--------|--------|
G#|--------|--------|--------|--------|--------|--------|--------|--------|--------|
D#|--------|--------|--------|--------|--------|--------|--------|--------|--------|


D#|--------|--------|--------|--------|--------|--------|--------|--------|--------|
A#|--------|--------|--------|--------|--------|--------|--------|--------|--------|
F#|--------|--------|--------|--------|--------|--------|--------|--------|--------|
C#|--------|--------|--------|--------|--------|--------|--------|--------|--------|
G#|--------|--------|--------|--------|--------|--------|--------|--------|--------|
D#|--------|--------|--------|--------|--------|--------|--------|--------|--------|


D#|--------|--------|--------|--------|--------|--------|--------|--------|--------|
A#|--------|--------|--------|--------|--------|--------|--------|--------|--------|
F#|--------|--------|--------|--------|--------|--------|--------|--------|--------|
C#|--------|--------|--------|--------|--------|--------|--------|--------|--------|
G#|--------|--------|--------|--------|--------|--------|--------|--------|--------|
D#|--------|--------|--------|--------|--------|--------|--------|--------|--------|


D#|--------|--------|--------|--------|--------|--------|--------|--------|--------|
A#|--------|--------|--------|--------|--------|--------|--------|--------|--------|
F#|--------|--------|--------|--------|--------|--------|--------|--------|--------|
C#|--------|--------|--------|--------|--------|--------|--------|--------|--------|
G#|--------|--------|--------|--------|--------|--------|--------|--------|--------|
D#|--------|--------|--------|--------|--------|--------|--------|--------|--------|


D#|--------|--------|--------|--------|--------|--------|--------|--------|--------|
A#|--------|--------|--------|--------|--------|--------|--------|--------|--------|
F#|--------|--------|--------|--------|--------|--------|--------|--------|--------|
C#|--------|--------|--------|--------|--------|--------|--------|--------|--------|
G#|--------|--------|--------|--------|--------|--------|--------|--------|--------|
D#|--------|--------|--------|--------|--------|--------|--------|--------|--------|


D#|--------|--------|--------|--------|--------|--------|--------|--------|--------|
A#|--------|--------|--------|--------|--------|--------|--------|--------|--------|
F#|--------|--------|--------|--------|--------|--------|--------|--------|--------|
C#|--------|--------|--------|--------|--------|--------|--------|--------|--------|
G#|--------|--------|--------|--------|--------|--------|--------|--------|--------|
D#|--------|--------|--------|--------|--------|--------|--------|--------|--------|


D#|--------|--------|--------|--------|--------|--------|--------|--------|--------|
A#|--------|--------|--------|--------|--------|--------|--------|--------|--------|
F#|--------|--------|--------|--------|--------|--------|--------|--------|--------|
C#|--------|--------|--------|--------|--------|--------|--------|--------|--------|
G#|--------|--------|--------|--------|--------|--------|--------|--------|--------|
D#|--------|--------|--------|--------|--------|--------|--------|--------|--------|


D#|--------|--------|--------|--------|--------|--------|--------|--------|--------|
A#|--------|--------|--------|--------|--------|--------|--------|--------|--------|
F#|--------|--------|--------|--------|--------|--------|--------|--------|--------|
C#|--------|--------|--------|--------|--------|--------|--------|--------|--------|
G#|--------|--------|--------|--------|--------|--------|--------|--------|--------|
D#|--------|--------|--------|--------|--------|--------|--------|--------|--------|


D#|--------|--------|--------|--------|--------|--------|--------|--------|--------|
A#|--------|--------|--------|--------|--------|--------|--------|--------|--------|
F#|--------|--------|--------|--------|--------|--------|--------|--------|--------|
C#|--------|--------|--------|--------|--------|--------|--------|--------|--------|
G#|--------|--------|--------|--------|--------|--------|--------|--------|--------|
D#|--------|--------|--------|--------|--------|--------|--------|--------|--------|


D#|--------|--------|--------|-----------10--10--8---|-8---7---7-----------8---8---7---|
A#|--------|--------|--------|-----------------------|-------------10--10--------------|
F#|--------|--------|--------|-----------------------|---------------------------------|
C#|--------|--------|--------|-----------------------|---------------------------------|
G#|--------|--------|--------|-----------------------|---------------------------------|
D#|--------|--------|--------|-----------------------|---------------------------------|


D#|-7---------------------|-------7-----|-5---------10--10--8---|-8---7---7-----------8---8---7---|
A#|-----10--10--8---8-----|-------------|-----------------------|-------------10--10--------------|
F#|-----------------------|-------------|-----------------------|---------------------------------|
C#|-----------------------|-------------|-----------------------|---------------------------------|
G#|-----------------------|-------------|-----------------------|---------------------------------|
D#|-----------------------|-------------|-----------------------|---------------------------------|


D#|-7---------------------|-------7-----|-5-----------|-------------|-------------|
A#|-----10--10--8---8-----|-------------|-------8-----|-------8-----|-------------|
F#|-----------------------|-------------|-------------|-------------|-------------|
C#|-----------------------|-------------|-------------|-------------|-------------|
G#|-----------------------|-------------|-------------|-------------|-------------|
D#|-----------------------|-------------|-------------|-------------|-------------|





Track 7: guitar L

D#|--------|--------|--------|--------|--------|--------|--------|--------|--------|
A#|--------|--------|--------|--------|--------|--------|--------|--------|--------|
F#|--------|--------|--------|--------|--------|--------|--------|--------|--------|
C#|--------|--------|--------|--------|--------|--------|--------|--------|--------|
G#|--------|--------|--------|--------|--------|--------|--------|--------|--------|
D#|--------|--------|--------|--------|--------|--------|--------|--------|--------|


D#|--------|--------|--------|--------|--------|--------|--------|--------|--------|
A#|--------|--------|--------|--------|--------|--------|--------|--------|--------|
F#|--------|--------|--------|--------|--------|--------|--------|--------|--------|
C#|--------|--------|--------|--------|--------|--------|--------|--------|--------|
G#|--------|--------|--------|--------|--------|--------|--------|--------|--------|
D#|--------|--------|--------|--------|--------|--------|--------|--------|--------|


D#|--------|--------|--------|--------|--------|--------|--------|--------|--------|
A#|--------|--------|--------|--------|--------|--------|--------|--------|--------|
F#|--------|--------|--------|--------|--------|--------|--------|--------|--------|
C#|--------|--------|--------|--------|--------|--------|--------|--------|--------|
G#|--------|--------|--------|--------|--------|--------|--------|--------|--------|
D#|--------|--------|--------|--------|--------|--------|--------|--------|--------|


D#|--------|--------|--------|--------|--------|--------|--------|--------|--------|
A#|--------|--------|--------|--------|--------|--------|--------|--------|--------|
F#|--------|--------|--------|--------|--------|--------|--------|--------|--------|
C#|--------|--------|--------|--------|--------|--------|--------|--------|--------|
G#|--------|--------|--------|--------|--------|--------|--------|--------|--------|
D#|--------|--------|--------|--------|--------|--------|--------|--------|--------|


D#|--------|--------|--------|--------|--------|--------|--------|--------|--------|
A#|--------|--------|--------|--------|--------|--------|--------|--------|--------|
F#|--------|--------|--------|--------|--------|--------|--------|--------|--------|
C#|--------|--------|--------|--------|--------|--------|--------|--------|--------|
G#|--------|--------|--------|--------|--------|--------|--------|--------|--------|
D#|--------|--------|--------|--------|--------|--------|--------|--------|--------|


D#|--------|--------|--------|--------|--------|--------|--------|--------|--------|
A#|--------|--------|--------|--------|--------|--------|--------|--------|--------|
F#|--------|--------|--------|--------|--------|--------|--------|--------|--------|
C#|--------|--------|--------|--------|--------|--------|--------|--------|--------|
G#|--------|--------|--------|--------|--------|--------|--------|--------|--------|
D#|--------|--------|--------|--------|--------|--------|--------|--------|--------|


D#|--------|--------|--------|--------|--------|--------|--------|--------|--------|
A#|--------|--------|--------|--------|--------|--------|--------|--------|--------|
F#|--------|--------|--------|--------|--------|--------|--------|--------|--------|
C#|--------|--------|--------|--------|--------|--------|--------|--------|--------|
G#|--------|--------|--------|--------|--------|--------|--------|--------|--------|
D#|--------|--------|--------|--------|--------|--------|--------|--------|--------|


D#|--------|--------|--------|--------|--------|--------|--------|--------|--------|
A#|--------|--------|--------|--------|--------|--------|--------|--------|--------|
F#|--------|--------|--------|--------|--------|--------|--------|--------|--------|
C#|--------|--------|--------|--------|--------|--------|--------|--------|--------|
G#|--------|--------|--------|--------|--------|--------|--------|--------|--------|
D#|--------|--------|--------|--------|--------|--------|--------|--------|--------|


D#|--------|--------|--------|--------|--------|--------|--------|--------|--------|
A#|--------|--------|--------|--------|--------|--------|--------|--------|--------|
F#|--------|--------|--------|--------|--------|--------|--------|--------|--------|
C#|--------|--------|--------|--------|--------|--------|--------|--------|--------|
G#|--------|--------|--------|--------|--------|--------|--------|--------|--------|
D#|--------|--------|--------|--------|--------|--------|--------|--------|--------|


D#|--------|--------|--------|--------|--------|--------|--------|--------|--------|
A#|--------|--------|--------|--------|--------|--------|--------|--------|--------|
F#|--------|--------|--------|--------|--------|--------|--------|--------|--------|
C#|--------|--------|--------|--------|--------|--------|--------|--------|--------|
G#|--------|--------|--------|--------|--------|--------|--------|--------|--------|
D#|--------|--------|--------|--------|--------|--------|--------|--------|--------|


D#|--------|--------|--------|--------|--------|--------|--------|--------|--------|
A#|--------|--------|--------|--------|--------|--------|--------|--------|--------|
F#|--------|--------|--------|--------|--------|--------|--------|--------|--------|
C#|--------|--------|--------|--------|--------|--------|--------|--------|--------|
G#|--------|--------|--------|--------|--------|--------|--------|--------|--------|
D#|--------|--------|--------|--------|--------|--------|--------|--------|--------|


D#|--------|--------|--------|--------|--------|--------|--------|--------|--------|
A#|--------|--------|--------|--------|--------|--------|--------|--------|--------|
F#|--------|--------|--------|--------|--------|--------|--------|--------|--------|
C#|--------|--------|--------|--------|--------|--------|--------|--------|--------|
G#|--------|--------|--------|--------|--------|--------|--------|--------|--------|
D#|--------|--------|--------|--------|--------|--------|--------|--------|--------|


D#|--------|--------|--------|--------|--------|--------|--------|--------|--------|
A#|--------|--------|--------|--------|--------|--------|--------|--------|--------|
F#|--------|--------|--------|--------|--------|--------|--------|--------|--------|
C#|--------|--------|--------|--------|--------|--------|--------|--------|--------|
G#|--------|--------|--------|--------|--------|--------|--------|--------|--------|
D#|--------|--------|--------|--------|--------|--------|--------|--------|--------|


D#|--------|--------|--------|-------------|-----------5-----|-3----3-------------|
A#|--------|--------|--------|-------------|------8----------|--------------------|
F#|--------|--------|--------|-------9-----|------7----------|----------4---5-----|
C#|--------|--------|--------|-------------|-----------7-----|-5------------------|
G#|--------|--------|--------|-------7-----|-----------------|------2---5---7-----|
D#|--------|--------|--------|-------------|-----------5-----|-3------------------|


D#|-----------------|-------------|-----------5-----|-3----3-------------|-----------------|
A#|-----------------|-------------|------8----------|--------------------|-----------------|
F#|------4----------|-------9-----|------7----------|----------4---5-----|------4----------|
C#|------5----5-----|-4-----------|-----------7-----|-5------------------|------5----5-----|
G#|-----------------|-5-----7-----|-----------------|------2---5---7-----|-----------------|
D#|-----------3-----|-------------|-----------5-----|-3------------------|-----------3-----|


D#|-------------|-------------|-------------|
A#|-------------|-------------|-------------|
F#|-------9-----|-------9-----|-------------|
C#|-4-----------|-------------|-------------|
G#|-5-----7-----|-------7-----|-------------|
D#|-------0-----|-------0-----|-------------|





Track 8: Untitled

F#|-----------------------|---------------------------------|---------------------------------|
C#|-----------------------|---------------------------------|-------------------------7---7---|
G#|-------7---7-----------|-7---7-------7---7---7-----------|-7-------------------------------|
D#|---------------0---0---|---------0---------------0---0---|-----0---0---0---7---7-----------|


F#|---------------------------------|---------------------------------|---------------------------------|
C#|-7---9-------------------7---7---|-7---9-------------------5---5---|-5---7-------------------5---5---|
G#|---------------------------------|---------------------------------|---------------------------------|
D#|---------0---7---7---7-----------|---------7---0---5---5-----------|---------0---5---5---5-----------|


F#|---------------------------------|---------------------------------|---------------------------------|
C#|-5---7---7-----------------------|---------------------------------|---------------------------------|
G#|---------------------------------|---------------------------------|-----------------7-------5-------|
D#|-------------0---3---3---3---3---|-3---3---3---10--10--10--10--10--|-10--10--10--10------0-------0---|


F#|---------------------------------|---------------------------------|---------------------------------|
C#|-4---5---------------------------|-4---5---4-----------------------|---------------------------------|
G#|-------------7---7-------5-------|---------------------------------|-4---5---------------------------|
D#|---------0-----------0-------0---|-------------0---7---0---5---0---|---------0---7---7---0---5---0---|


F#|---------------------------------|---------------------------------|---------------------------------|
C#|---------------------------------|-4---5---------------------------|-4---5---4-----------------------|
G#|-4---5---4-------7-------5-------|-------------7---7-------5-------|---------------------------------|
D#|-------------0-------0-------0---|---------0-----------0-------0---|-------------0---7---0---5---0---|


F#|---------------------------------|------------------------------|---------------------------------|
C#|---------------------------------|------------------------------|---------------------------------|
G#|-4---5---------------------------|-4---5---4--------------------|---------------------------------|
D#|---------0---7---7---0---5---0---|-------------0---8----8-------|-8-------8-------7-------7-------|


F#|---------------------------------|---------------------------------|------------------------------|
C#|---------------------------------|-4---5---------------------------|-4---5---4--------------------|
G#|-----------------7-------5-------|-------------7---7-------5-------|------------------------------|
D#|-7-------7---0-------0-------0---|---------0-----------0-------0---|-------------0---8----8-------|


F#|---------------------------|------------------------------|------------------------------|
C#|---------------------------|------------------------------|------------------------------|
G#|---------------------------|------------------------------|------------------------------|
D#|-8-------8---8---7----7----|-7----7---0---10--10--10--10--|-10--10--10--10--10-----------|


F#|---------------------------|---------------------------------|---------------------------------|
C#|---------------------------|---------------------------------|-------------------------7---7---|
G#|-----------7---7-----------|-7---7-------7---7---7-----------|-7-------------------------------|
D#|------15-----------0---0---|---------0---------------0---0---|-----0---0---0---7---7-----------|


F#|---------------------------------|---------------------------------|---------------------------------|
C#|-7---9-------------------7---7---|-7---9-------------------5---5---|-5---7-------------------5---5---|
G#|---------------------------------|---------------------------------|---------------------------------|
D#|---------0---7---7---7-----------|---------7---0---5---5-----------|---------0---5---5---5-----------|


F#|---------------------------------|---------------------------------|---------------------------------|
C#|-5---7---7-----------------------|---------------------------------|---------------------------------|
G#|---------------------------------|---------------------------------|-----------------7-------5-------|
D#|-------------0---3---3---3---3---|-3---3---3---10--10--10--10--10--|-10--10--10--10------0-------0---|


F#|---------------------------------|---------------------------------|---------------------------------|
C#|-4---5---------------------------|-4---5---4-----------------------|-4---5---------------------------|
G#|-------------7---7-------5-------|-----------------7-------5-------|-------------7---7-------5-------|
D#|---------0-----------0-------0---|-------------0-------0-------0---|---------0-----------0-------0---|


F#|---------------------------------|---------------------------------|---------------------------------|
C#|-4---5---4-----------------------|---------------------------------|---------------------------------|
G#|---------------------------------|-4---5---------------------------|-4---5---4-------7-------5-------|
D#|-------------0---7---0---5---0---|---------0---7---7---0---5---0---|-------------0-------0-------0---|


F#|---------------------------------|---------------------------------|---------------------------------|
C#|-4---5---------------------------|-4---5---4-----------------------|-4---5---------------------------|
G#|-------------7---7-------5-------|-----------------7-------5-------|-------------7---7-------5-------|
D#|---------0-----------0-------0---|-------------0-------0-------0---|---------0-----------0-------0---|


F#|---------------------------------|---------------------------------|---------------------------------|
C#|-4---5---4-----------------------|---------------------------------|---------------------------------|
G#|---------------------------------|-4---5---------------------------|-4---5---4-------7-------5-------|
D#|-------------0---7---0---5---0---|---------0---7---7---0---5---0---|-------------0-------0-------0---|


F#|---------------------------------|---------------------------------|---------------------------------|
C#|-4---5---------------------------|-4---5---4-----------------------|---------------------------------|
G#|-------------7---7-------5-------|---------------------------------|-4---5---------------------------|
D#|---------0-----------0-------0---|-------------0---7---0---5---0---|---------0---7---7---0---5---0---|


F#|---------------------------------|---------------------------------|---------------------------------|
C#|---------------------------------|---------------------------------|---------------------------------|
G#|-4---5---4-----------------------|---------------------------------|-----------------7-------5-------|
D#|-------------0---8---0---8-------|-8-------8---8---7-------7-------|-7-------7---0-------0-------0---|


F#|---------------------------------|---------------------------------|---------------------------------|
C#|-4---5---------------------------|-4---5---4-----------------------|---------------------------------|
G#|-------------7---7-------5-------|---------------------------------|---------------------------------|
D#|---------0-----------0-------0---|-------------0---8---7---8-------|-8-------8---8---7-------7-------|


F#|---------------------------------|------------------------------|---------------------------|
C#|---------------------------------|------------------------------|---------------------------|
G#|---------------------------------|------------------------------|-----------7---7-----------|
D#|-7-------7---7---10--10--10--10--|-10--10--10--10--10-----------|------15-----------0---0---|


F#|---------------------------------|---------------------------------|---------------------------------|
C#|---------------------------------|-------------------------7---7---|-7---9-------------------7---7---|
G#|-7---7-------7---7---7-----------|-7-------------------------------|---------------------------------|
D#|---------0---------------0---0---|-----0---0---0---7---7-----------|---------0---7---7---7-----------|


F#|---------------------------------|---------------------------------|---------------------------------|
C#|-7---9-------------------5---5---|-5---7-------------------5---5---|-5---7---7-----------------------|
G#|---------------------------------|---------------------------------|---------------------------------|
D#|---------7---0---5---5-----------|---------0---5---5---5-----------|-------------0---3---3---3---3---|


F#|---------------------------------|---------------------------------|---------------------------------|
C#|---------------------------------|---------------------------------|---------------------------------|
G#|---------------------------------|-----------------7---7-----------|-7---7-------7---7---7-----------|
D#|-3---3---3---10--10--10--10--10--|-10--10--10--10----------0---0---|---------0---------------0---0---|


F#|---------------------------------|---------------------------------|---------------------------------|
C#|-------------------------7---7---|-7---9-------------------7---7---|-7---9-------------------5---5---|
G#|-7-------------------------------|---------------------------------|---------------------------------|
D#|-----0---0---0---7---7-----------|---------0---7---7---7-----------|---------7---0---5---5-----------|


F#|---------------------------------|---------------------------------|---------------------------------|
C#|-5---7-------------------5---5---|-5---7---7-----------------------|---------------------------------|
G#|---------------------------------|---------------------------------|---------------------------------|
D#|---------0---5---5---5-----------|-------------0---3---3---3---3---|-3---5---3---2---2---2---2---2---|


F#|-----------------------|-------------|-------------|-----------------|-----------------|
C#|-----------------------|-------------|-------------|-----------------|-----------------|
G#|-----------------3-----|-------2-----|-------------|-----------------|------0----3-----|
D#|-2---2---2---2---------|-------------|-------0-----|-------2-----3---|-----------------|


F#|-------------|-------------|-----------------|---------------------------|------------------------------|
C#|-------------|-------------|-----------------|---------------------------|------------------------------|
G#|-------2-----|-------------|-----------------|------0--------------------|------------------------------|
D#|-------------|-------0-----|-------2-----3---|-----------8-------8-------|-8---7---8---8---7----7-------|


F#|------------------------------|---------------------------------|---------------------------------|
C#|------------------------------|---------------------------------|---------------------------------|
G#|------------------------------|---------------------------------|---------------------------------|
D#|-7----7---7---5-------5-------|-5---5-------5-------5---5-------|-5---5---5---5---3-------3-------|


F#|---------------------------------|---------------------------------|---------------------------------|
C#|---------------------------------|---------------------------------|---------------------------------|
G#|---------------------------------|---------------------------------|---------------------------------|
D#|-3---3-------3-------3---3-------|-3---3---3---3---2---2---2---2---|-2---2---2---10--10--10--10--10--|


F#|---------------------------------|---------------------------------|---------------------------------|
C#|---------------------------------|---------------------------------|-------------------------7---7---|
G#|-----------------7---7-----------|-7---7-------7---7---7-----------|-7-------------------------------|
D#|-10--10--10--10----------0---0---|---------0---------------0---0---|-----0---0---0---7---7-----------|


F#|---------------------------------|---------------------------------|---------------------------------|
C#|-7---9-------------------7---7---|-7---9-------------------5---5---|-5---7-------------------5---5---|
G#|---------------------------------|---------------------------------|---------------------------------|
D#|---------0---7---7---7-----------|---------7---0---5---5-----------|---------0---5---5---5-----------|


F#|---------------------------------|---------------------------------|---------------------------------|
C#|-5---7---7-----------------------|---------------------------------|---------------------------------|
G#|---------------------------------|---------------------------------|-----------------7---7-----------|
D#|-------------0---3---3---3---3---|-3---3---3---10--10--10--10--10--|-10--10--10--10----------0---0---|


F#|---------------------------------|---------------------------------|---------------------------------|
C#|---------------------------------|-------------------------7---7---|-7---9-------------------7---7---|
G#|-7---7-------7---7---7-----------|-7-------------------------------|---------------------------------|
D#|---------0---------------0---0---|-----0---0---0---7---7-----------|---------0---7---7---7-----------|


F#|---------------------------------|---------------------------------|---------------------------------|
C#|-7---9-------------------5---5---|-5---7-------------------5---5---|-5---7---7-----------------------|
G#|---------------------------------|---------------------------------|---------------------------------|
D#|---------7---0---5---5-----------|---------0---5---5---5-----------|-------------0---3---3---3---3---|


F#|---------------------------------|---------------------------------|---------------------------------|
C#|---------------------------------|---------------------------------|---------------------------------|
G#|---------------------------------|-----------------7---7-----------|-7---7-------7---7---7-----------|
D#|-3---3---3---10--10--10--10--10--|-10--10--10--10----------0---0---|---------0---------------0---0---|


F#|---------------------------------|---------------------------------|---------------------------------|
C#|-------------------------7---7---|-7---9-------------------7---7---|-7---9-------------------5---5---|
G#|-7-------------------------------|---------------------------------|---------------------------------|
D#|-----0---0---0---7---7-----------|---------0---7---7---7-----------|---------7---0---5---5-----------|


F#|---------------------------------|---------------------------------|---------------------------------|
C#|-5---7-------------------5---5---|-5---7---7-----------------------|---------------------------------|
G#|---------------------------------|---------------------------------|---------------------------------|
D#|---------0---5---5---5-----------|-------------0---3---3---3---3---|-3---5---3---2---2---2---2---2---|


F#|---------------------------------|---------------------------------|---------------------------------|
C#|---------------------------------|---------------------------------|-------------------------7---7---|
G#|-----------------7---7-----------|-7---7-------7---7---7-----------|-7-------------------------------|
D#|-2---2---2---2-----------0---0---|---------0---------------0---0---|-----0---0---0---7---7-----------|


F#|---------------------------------|---------------------------------|---------------------------------|
C#|-7---9-------------------7---7---|-7---9-------------------5---5---|-5---7-------------------5---5---|
G#|---------------------------------|---------------------------------|---------------------------------|
D#|---------0---7---7---7-----------|---------7---0---5---5-----------|---------0---5---5---5-----------|


F#|---------------------------------|---------------------------------|-----------------------|
C#|-5---7---7-----------------------|---------------------------------|-----------------------|
G#|---------------------------------|---------------------------------|-----------------------|
D#|-------------0---3---3---3---3---|-3---3---3---10--10--10--10--10--|-10--10--10--10--------|


F#|--------|--------|--------|--------|--------|--------|--------|--------|--------|
C#|--------|--------|--------|--------|--------|--------|--------|--------|--------|
G#|--------|--------|--------|--------|--------|--------|--------|--------|--------|
D#|--------|--------|--------|--------|--------|--------|--------|--------|--------|


F#|--------|
C#|--------|
G#|--------|
D#|--------|