Menu:

 

Search:

 

the killers - jenny was a friend of mine:

 



Title: Jenny Was A Friend Of Mine
Artist: 
Album: Hot Fuss
Author: Brandon Flowers and Dave Keuning


Track 1: guitar L

D#|--------|--------|-------------------------------------------------|-------------------------------------------------|
A#|--------|--------|-8--8--8--8--8--8--8--8--8--8--8--8--8--8--8--8--|-8--8--8--8--8--8--8--8--8--8--8--8--8--8--8--8--|
F#|--------|--------|-9--9--9--9--9--9--9--9--9--9--9--9--9--9--9--9--|-9--9--9--9--9--9--9--9--9--9--9--9--9--9--9--9--|
C#|--------|--------|-9--9--9--9--9--9--9--9--9--9--9--9--9--9--9--9--|-9--9--9--9--9--9--9--9--9--9--9--9--9--9--9--9--|
G#|--------|--------|-7--7--7--7--7--7--7--7--7--7--7--7--7--7--7--7--|-7--7--7--7--7--7--7--7--7--7--7--7--7--7--7--7--|
D#|--------|--------|-0--0--0--0--0--0--0--0--0--0--0--0--0--0--0--0--|-0--0--0--0--0--0--0--0--0--0--0--0--0--0--0--0--|


D#|-------------------------------------------------|-------------------------------------------------|
A#|-8--8--8--8--8--8--8--8--8--8--8--8--8--8--8--8--|-8--8--8--8--8--8--8--8--8--8--8--8--8--8--8--8--|
F#|-9--9--9--9--9--9--9--9--9--9--9--9--9--9--9--9--|-9--9--9--9--9--9--9--9--9--9--9--9--9--9--9--9--|
C#|-9--9--9--9--9--9--9--9--9--9--9--9--9--9--9--9--|-9--9--9--9--9--9--9--9--9--9--9--9--9--9--9--9--|
G#|-7--7--7--7--7--7--7--7--7--7--7--7--7--7--7--7--|-7--7--7--7--7--7--7--7--7--7--7--7--7--7--7--7--|
D#|-0--0--0--0--0--0--0--0--0--0--0--0--0--0--0--0--|-0--0--0--0--0--0--0--0--0--0--0--0--0--0--0--0--|


D#|--------|--------|--------|--------|--------|--------|--------|--------|--------|
A#|--------|--------|--------|--------|--------|--------|--------|--------|--------|
F#|--------|--------|--------|--------|--------|--------|--------|--------|--------|
C#|--------|--------|--------|--------|--------|--------|--------|--------|--------|
G#|--------|--------|--------|--------|--------|--------|--------|--------|--------|
D#|--------|--------|--------|--------|--------|--------|--------|--------|--------|


D#|--------|--------|--------|--------|--------|--------|--------|--------|--------|
A#|--------|--------|--------|--------|--------|--------|--------|--------|--------|
F#|--------|--------|--------|--------|--------|--------|--------|--------|--------|
C#|--------|--------|--------|--------|--------|--------|--------|--------|--------|
G#|--------|--------|--------|--------|--------|--------|--------|--------|--------|
D#|--------|--------|--------|--------|--------|--------|--------|--------|--------|


D#|--------|--------|--------|--------|--------|--------|--------|--------|--------|
A#|--------|--------|--------|--------|--------|--------|--------|--------|--------|
F#|--------|--------|--------|--------|--------|--------|--------|--------|--------|
C#|--------|--------|--------|--------|--------|--------|--------|--------|--------|
G#|--------|--------|--------|--------|--------|--------|--------|--------|--------|
D#|--------|--------|--------|--------|--------|--------|--------|--------|--------|


D#|--------|--------|--------|--------|--------|--------|--------|--------|--------|
A#|--------|--------|--------|--------|--------|--------|--------|--------|--------|
F#|--------|--------|--------|--------|--------|--------|--------|--------|--------|
C#|--------|--------|--------|--------|--------|--------|--------|--------|--------|
G#|--------|--------|--------|--------|--------|--------|--------|--------|--------|
D#|--------|--------|--------|--------|--------|--------|--------|--------|--------|


D#|--------|--------|--------|--------|--------|--------|--------|--------|--------|
A#|--------|--------|--------|--------|--------|--------|--------|--------|--------|
F#|--------|--------|--------|--------|--------|--------|--------|--------|--------|
C#|--------|--------|--------|--------|--------|--------|--------|--------|--------|
G#|--------|--------|--------|--------|--------|--------|--------|--------|--------|
D#|--------|--------|--------|--------|--------|--------|--------|--------|--------|


D#|--------|--------|--------|--------|--------|-------------------------------------------------|
A#|--------|--------|--------|--------|--------|-------------------------------------------------|
F#|--------|--------|--------|--------|--------|-------------------------------------------------|
C#|--------|--------|--------|--------|--------|-------------------------------------------------|
G#|--------|--------|--------|--------|--------|-------------------------------------------------|
D#|--------|--------|--------|--------|--------|-0--0--0--0--0--0--0--0--0--0--0--0--0--0--0--0--|


D#|-------------------------------------------------|-------------------------------------------------|
A#|-------------------------------------------------|-------------------------------------------------|
F#|-------------------------------------------------|-------------------------------------------------|
C#|-------------------------------------------------|-------------------------------------------------|
G#|-5--5--5--5--5--5--5--5--5--5--5--5--5--5--5--5--|-------------------------------------------------|
D#|-------------------------------------------------|-8--8--8--8--8--8--8--8--8--8--8--8--8--8--8--8--|


D#|-------------------------------------------------|-------------------------------------------------|
A#|-------------------------------------------------|-------------------------------------------------|
F#|-------------------------------------------------|-------------------------------------------------|
C#|-------------------------------------------------|-------------------------------------------------|
G#|-------------------------------------------------|-------------------------------------------------|
D#|-8--8--8--8--8--8--8--8--8--8--8--8--8--8--8--8--|-0--0--0--0--0--0--0--0--0--0--0--0--0--0--0--0--|


D#|-------------------------------------------------|-------------------------------------------------|
A#|-------------------------------------------------|-------------------------------------------------|
F#|-------------------------------------------------|-------------------------------------------------|
C#|-------------------------------------------------|-------------------------------------------------|
G#|-5--5--5--5--5--5--5--5--5--5--5--5--5--5--5--5--|-------------------------------------------------|
D#|-------------------------------------------------|-8--8--8--8--8--8--8--8--8--8--8--8--8--8--8--8--|


D#|---------------------------------------------|--------|--------|--------|--------|
A#|---------------------------------------------|--------|--------|--------|--------|
F#|---------------------------------------------|--------|--------|--------|--------|
C#|---------------------------------------------|--------|--------|--------|--------|
G#|---------------------------------------------|--------|--------|--------|--------|
D#|-8--8--8--8--8--8--8--8--8--8--8--8--8-------|--------|--------|--------|--------|


D#|--------|--------|--------|--------|--------|--------|--------|--------|--------|
A#|--------|--------|--------|--------|--------|--------|--------|--------|--------|
F#|--------|--------|--------|--------|--------|--------|--------|--------|--------|
C#|--------|--------|--------|--------|--------|--------|--------|--------|--------|
G#|--------|--------|--------|--------|--------|--------|--------|--------|--------|
D#|--------|--------|--------|--------|--------|--------|--------|--------|--------|


D#|--------|--------|--------|--------|--------|--------|--------|--------|--------|
A#|--------|--------|--------|--------|--------|--------|--------|--------|--------|
F#|--------|--------|--------|--------|--------|--------|--------|--------|--------|
C#|--------|--------|--------|--------|--------|--------|--------|--------|--------|
G#|--------|--------|--------|--------|--------|--------|--------|--------|--------|
D#|--------|--------|--------|--------|--------|--------|--------|--------|--------|


D#|--------|--------|--------|--------|--------|--------|--------|--------|--------|
A#|--------|--------|--------|--------|--------|--------|--------|--------|--------|
F#|--------|--------|--------|--------|--------|--------|--------|--------|--------|
C#|--------|--------|--------|--------|--------|--------|--------|--------|--------|
G#|--------|--------|--------|--------|--------|--------|--------|--------|--------|
D#|--------|--------|--------|--------|--------|--------|--------|--------|--------|


D#|--------|--------|--------|--------|--------|--------|--------|--------|--------|
A#|--------|--------|--------|--------|--------|--------|--------|--------|--------|
F#|--------|--------|--------|--------|--------|--------|--------|--------|--------|
C#|--------|--------|--------|--------|--------|--------|--------|--------|--------|
G#|--------|--------|--------|--------|--------|--------|--------|--------|--------|
D#|--------|--------|--------|--------|--------|--------|--------|--------|--------|


D#|--------|--------|--------|--------|-----------------|
A#|--------|--------|--------|--------|-----------------|
F#|-9------|-9------|-9------|-9------|-9---------------|
C#|-9------|-9------|-9------|-9------|-9---------------|
G#|-7------|-7------|-7------|-7------|-7---------------|
D#|-0------|-0------|-0------|-0------|-0---------------|





Track 2: synth

D#|--------|--------|--------|--------|--------|--------|--------|--------|--------|
A#|--------|--------|--------|--------|--------|--------|--------|--------|--------|
F#|--------|--------|--------|--------|--------|--------|--------|--------|--------|
C#|--------|--------|--------|--------|--------|--------|--------|--------|--------|
G#|--------|--------|--------|--------|--------|--------|--------|--------|--------|
D#|--------|--------|--------|--------|--------|--------|--------|--------|--------|


D#|--------|--------|--------|--------|--------|--------|-19-----|--------|-17------------------|
A#|--------|--------|--------|--------|--------|-17-----|--------|-20-----|------20---19--------|
F#|--------|--------|--------|--------|--------|--------|-16-----|--------|-14-------------19---|
C#|--------|--------|--------|--------|--------|-14-----|--------|-17-----|------17---16--------|
G#|--------|--------|--------|--------|--------|--------|--------|--------|----------------17---|
D#|--------|--------|--------|--------|--------|--------|--------|--------|---------------------|


D#|--------|-19-----|-------17--19--17------|-17------------------|--------|-19-----|
A#|-17-----|--------|-17--------------------|------20---19--------|-17-----|--------|
F#|--------|-16-----|-------14--16--14--19--|-14-------------19---|--------|-16-----|
C#|-14-----|--------|-14--------------------|------17---16--------|-14-----|--------|
G#|--------|--------|-------------------17--|----------------17---|--------|--------|
D#|--------|--------|-----------------------|---------------------|--------|--------|


D#|--------|-17------------------|--------|-19-----|-------17--19--17------|-----------------14--15--17---|
A#|-20-----|------20---19--------|-17-----|--------|-17----------------15--|-----15------15---------------|
F#|--------|-14-------------19---|--------|-16-----|-------14--16--14------|-----------------11--12--14---|
C#|-17-----|------17---16--------|-14-----|--------|-14----------------12--|-----12------12---------------|
G#|--------|----------------17---|--------|--------|-----------------------|------------------------------|
D#|--------|---------------------|--------|--------|-----------------------|------------------------------|


D#|--------|--------|--------|--------|--------|--------|--------|--------|--------|
A#|--------|--------|--------|--------|--------|--------|--------|--------|--------|
F#|--------|--------|--------|--------|--------|--------|--------|--------|--------|
C#|--------|--------|--------|--------|--------|--------|--------|--------|--------|
G#|--------|--------|--------|--------|--------|--------|--------|--------|--------|
D#|--------|--------|--------|--------|--------|--------|--------|--------|--------|


D#|--------|--------|--------|--------|--------|--------|--------|--------|--------|
A#|--------|--------|--------|--------|--------|--------|--------|--------|--------|
F#|--------|--------|--------|--------|--------|--------|--------|--------|--------|
C#|--------|--------|--------|--------|--------|--------|--------|--------|--------|
G#|--------|--------|--------|--------|--------|--------|--------|--------|--------|
D#|--------|--------|--------|--------|--------|--------|--------|--------|--------|


D#|--------|-19-----|--------|-17------------------|--------|-19-----|-------17--19--17------|
A#|-17-----|--------|-20-----|------20---19--------|-17-----|--------|-17--------------------|
F#|--------|-16-----|--------|-14-------------19---|--------|-16-----|-------14--16--14--19--|
C#|-14-----|--------|-17-----|------17---16--------|-14-----|--------|-14--------------------|
G#|--------|--------|--------|----------------17---|--------|--------|-------------------17--|
D#|--------|--------|--------|---------------------|--------|--------|-----------------------|


D#|-17------------------|--------|-19-----|--------|-17------------------|--------|
A#|------20---19--------|-17-----|--------|-20-----|------20---19--------|-17-----|
F#|-14-------------19---|--------|-16-----|--------|-14-------------19---|--------|
C#|------17---16--------|-14-----|--------|-17-----|------17---16--------|-14-----|
G#|----------------17---|--------|--------|--------|----------------17---|--------|
D#|---------------------|--------|--------|--------|---------------------|--------|


D#|-19-----|-------17--19--17------|-----------------14--15--17---|--------|--------|
A#|--------|-17----------------15--|-----15------15---------------|--------|--------|
F#|-16-----|-------14--16--14------|-----------------11--12--14---|--------|--------|
C#|--------|-14----------------12--|-----12------12---------------|--------|--------|
G#|--------|-----------------------|------------------------------|--------|--------|
D#|--------|-----------------------|------------------------------|--------|--------|


D#|--------|--------|--------|--------|--------|--------|--------|--------|--------|
A#|--------|--------|--------|--------|--------|--------|--------|--------|--------|
F#|--------|--------|--------|--------|--------|--------|--------|--------|--------|
C#|--------|--------|--------|--------|--------|--------|--------|--------|--------|
G#|--------|--------|--------|--------|--------|--------|--------|--------|--------|
D#|--------|--------|--------|--------|--------|--------|--------|--------|--------|


D#|--------|--------|--------|--------|--------|--------|--------|--------|-19-----|
A#|--------|--------|--------|--------|--------|--------|--------|-17-----|--------|
F#|--------|--------|--------|--------|--------|--------|--------|--------|-16-----|
C#|--------|--------|--------|--------|--------|--------|--------|-14-----|--------|
G#|--------|--------|--------|--------|--------|--------|--------|--------|--------|
D#|--------|--------|--------|--------|--------|--------|--------|--------|--------|


D#|--------|-17---15-------------|--------|-19---19---19---19---|-----------------17--19--17------|
A#|-20-----|-----------19--------|-17-----|---------------------|-17------17----------------------|
F#|--------|-14---12--------19---|--------|-16---16---16---16---|-----------------14--16--14--19--|
C#|-17-----|-----------16--------|-14-----|---------------------|-14------14----------------------|
G#|--------|----------------17---|--------|---------------------|-----------------------------17--|
D#|--------|---------------------|--------|---------------------|---------------------------------|


D#|-------------------------17---|---------------------------------|-----------------19------17------|
A#|-----------------19--20-------|---------------------------------|---------------------------------|
F#|-----19------19----------14---|-17------17----------16------17--|-----17------17------16------14--|
C#|-----------------16--17-------|---------------------------------|---------------------------------|
G#|-----17------17---------------|-15------15----------14------15--|-----15------15------------------|
D#|------------------------------|---------------------------------|---------------------------------|


D#|-----------------17--19--17------|-------------------------17---|---------------------------------|
A#|-17------17----------------------|-----------------19--20-------|---------------------------------|
F#|-----------------14--16--14--19--|-----19------19----------14---|-17------17----------16------17--|
C#|-14------14----------------------|-----------------16--17-------|---------------------------------|
G#|-----------------------------17--|-----17------17---------------|-15------15----------14------15--|
D#|---------------------------------|------------------------------|---------------------------------|


D#|-----------------19------17------|-----------------17--19--17------|-----------------19--17-------|
A#|---------------------------------|-17------17----------------------|-------------------------20---|
F#|-----17------17------16------14--|-----------------14--16--14--19--|-----19------19--16--14-------|
C#|---------------------------------|-14------14----------------------|-------------------------17---|
G#|-----15------15------------------|-----------------------------17--|-----17------17---------------|
D#|---------------------------------|---------------------------------|------------------------------|


D#|---------------------------------|-----------------19------17------|-----------------17--19--17------|
A#|---------------------------------|---------------------------------|-17------17----------------------|
F#|-17------17----------16------17--|-----17------17------16------14--|-----------------14--16--14--19--|
C#|---------------------------------|---------------------------------|-14------14----------------------|
G#|-15------15----------14------15--|-----15------15------------------|-----------------------------17--|
D#|---------------------------------|---------------------------------|---------------------------------|


D#|-------------------------17---|---------------------------------|-----------------19------17------|
A#|-----------------19--20-------|---------------------------------|---------------------------------|
F#|-----19------19----------14---|-17------17----------16------17--|-----17------17------16------14--|
C#|-----------------16--17-------|---------------------------------|---------------------------------|
G#|-----17------17---------------|-15------15----------14------15--|-----15------15------------------|
D#|------------------------------|---------------------------------|---------------------------------|


D#|-19----19----|-19-----|--------|--------|--------|
A#|-------------|--------|--------|--------|--------|
F#|-16----16----|-16-----|--------|--------|--------|
C#|-------------|--------|--------|--------|--------|
G#|-------------|--------|--------|--------|--------|
D#|-------------|--------|--------|--------|--------|





Track 3: overdub L

D#|--------|--------|--------|--------|--------|--------|--------|--------|--------|
A#|--------|--------|--------|--------|--------|--------|--------|--------|--------|
F#|--------|--------|--------|--------|--------|--------|--------|--------|--------|
C#|--------|--------|--------|--------|--------|--------|--------|--------|--------|
G#|--------|--------|--------|--------|--------|--------|--------|--------|--------|
D#|--------|--------|--------|--------|--------|--------|--------|--------|--------|


D#|--------|--------|--------|--------|--------|--------|--------|--------|--------|
A#|--------|--------|--------|--------|--------|--------|--------|--------|--------|
F#|--------|--------|--------|--------|--------|--------|--------|--------|--------|
C#|--------|--------|--------|--------|--------|--------|--------|--------|--------|
G#|--------|--------|--------|--------|--------|--------|--------|--------|--------|
D#|--------|--------|--------|--------|--------|--------|--------|--------|--------|


D#|--------|--------|--------|--------|--------|--------|--------|--------|--------|
A#|--------|--------|--------|--------|--------|--------|--------|--------|--------|
F#|--------|--------|--------|--------|--------|--------|--------|--------|--------|
C#|--------|--------|--------|--------|--------|--------|--------|--------|--------|
G#|--------|--------|--------|--------|--------|--------|--------|--------|--------|
D#|--------|--------|--------|--------|--------|--------|--------|--------|--------|


D#|--------|--------|------------|---------------------------------|---------------------------------|
A#|--------|--------|------------|---------------------------------|-----------------12--------------|
F#|--------|--------|------------|-12------14------12------14------|-12------14--------------14------|
C#|--------|--------|--------12--|-----12------12------12------12--|-----12------12------12------12--|
G#|--------|--------|------------|---------------------------------|---------------------------------|
D#|--------|--------|------------|---------------------------------|---------------------------------|


D#|---------------------------------|---------------------------------|---------------------------------|
A#|---------------------------------|-----------------12--------------|---------------------------------|
F#|-12------14------12------14------|-12------14--------------14------|-12------14------12------14------|
C#|-----12------12------12------12--|-----12------12------12------12--|-----12------12------12------12--|
G#|---------------------------------|---------------------------------|---------------------------------|
D#|---------------------------------|---------------------------------|---------------------------------|


D#|---------------------------------|--------|--------|--------|--------|-------------------------------------------------|
A#|-----------------12------13------|-12-----|--------|--------|--------|-------------------------------------------------|
F#|-12------14----------------------|--------|--------|--------|--------|-------------------------------------------------|
C#|-----12------12------12------12--|--------|--------|--------|--------|-------------------------------------------------|
G#|---------------------------------|--------|--------|--------|--------|-------------------------------------------------|
D#|---------------------------------|--------|--------|--------|--------|-0--0--0--0--0--0--0--0--0--0--0--0--0--0--0--0--|


D#|-------------------------------------------------|-------------------------------------------------|
A#|-------------------------------------------------|-------------------------------------------------|
F#|-------------------------------------------------|-------------------------------------------------|
C#|-------------------------------------------------|-------------------------------------------------|
G#|-5--5--5--5--5--5--5--5--5--5--5--5--5--5--5--5--|-------------------------------------------------|
D#|-------------------------------------------------|-8--8--8--8--8--8--8--8--8--8--8--8--8--8--8--8--|


D#|-------------------------------------------------|-------------------------------------------------|
A#|-------------------------------------------------|-------------------------------------------------|
F#|-------------------------------------------------|-------------------------------------------------|
C#|-------------------------------------------------|-------------------------------------------------|
G#|-------------------------------------------------|-------------------------------------------------|
D#|-8--8--8--8--8--8--8--8--8--8--8--8--8--8--8--8--|-0--0--0--0--0--0--0--0--0--0--0--0--0--0--0--0--|


D#|-------------------------------------------------|-------------------------------------------------|
A#|-------------------------------------------------|-------------------------------------------------|
F#|-------------------------------------------------|-------------------------------------------------|
C#|-------------------------------------------------|-------------------------------------------------|
G#|-5--5--5--5--5--5--5--5--5--5--5--5--5--5--5--5--|-------------------------------------------------|
D#|-------------------------------------------------|-8--8--8--8--8--8--8--8--8--8--8--8--8--8--8--8--|


D#|-------------------------------------------------|--------|--------|--------|--------|
A#|-------------------------------------------------|--------|--------|--------|--------|
F#|-------------------------------------------------|--------|--------|--------|--------|
C#|-------------------------------------------------|--------|--------|--------|--------|
G#|-------------------------------------------------|--------|--------|--------|--------|
D#|-8--8--8--8--8--8--8--8--8--8--8--8--8--8--8--8--|--------|--------|--------|--------|


D#|--------|--------|--------|--------|--------|--------|--------|--------|--------|
A#|--------|--------|--------|--------|--------|--------|--------|--------|--------|
F#|--------|--------|--------|--------|--------|--------|--------|--------|--------|
C#|--------|--------|--------|--------|--------|--------|--------|--------|--------|
G#|--------|--------|--------|--------|--------|--------|--------|--------|--------|
D#|--------|--------|--------|--------|--------|--------|--------|--------|--------|


D#|--------|--------|------------|---------------------------------|---------------------------------|
A#|--------|--------|------------|---------------------------------|-----------------12--------------|
F#|--------|--------|------------|-12------14------12------14------|-12------14--------------14------|
C#|--------|--------|--------12--|-----12------12------12------12--|-----12------12------12------12--|
G#|--------|--------|------------|---------------------------------|---------------------------------|
D#|--------|--------|------------|---------------------------------|---------------------------------|


D#|---------------------------------|---------------------------------|---------------------------------|
A#|---------------------------------|-----------------12--------------|---------------------------------|
F#|-12------14------12------14------|-12------14--------------14------|-12------14------12------14------|
C#|-----12------12------12------12--|-----12------12------12------12--|-----12------12------12------12--|
G#|---------------------------------|---------------------------------|---------------------------------|
D#|---------------------------------|---------------------------------|---------------------------------|


D#|---------------------------------|--------|--------|--------|------------|---------------------------------|
A#|-----------------12------13------|-12-----|--------|--------|------------|---------------------------------|
F#|-12------14----------------------|--------|--------|--------|------------|-12------14------12------14------|
C#|-----12------12------12------12--|--------|--------|--------|--------12--|-----12------12------12------12--|
G#|---------------------------------|--------|--------|--------|------------|---------------------------------|
D#|---------------------------------|--------|--------|--------|------------|---------------------------------|


D#|---------------------------------|--------|--------|--------|--------|--------|
A#|-----------------12------13------|-12-----|--------|--------|--------|--------|
F#|-12------14----------------------|--------|--------|--------|--------|--------|
C#|-----12------12------12------12--|--------|--------|--------|--------|--------|
G#|---------------------------------|--------|--------|--------|--------|--------|
D#|---------------------------------|--------|--------|--------|--------|--------|


D#|--------|--------|--------|--------|--------|--------|--------|--------|--------|
A#|--------|--------|--------|--------|--------|--------|--------|--------|--------|
F#|--------|--------|--------|--------|--------|--------|--------|--------|--------|
C#|--------|--------|--------|--------|--------|--------|--------|--------|--------|
G#|--------|--------|--------|--------|--------|--------|--------|--------|--------|
D#|--------|--------|--------|--------|--------|--------|--------|--------|--------|


D#|--------|--------|--------|--------|--------|--------|--------|--------|--------|
A#|--------|--------|--------|--------|--------|--------|--------|--------|--------|
F#|--------|--------|--------|--------|--------|--------|--------|--------|--------|
C#|--------|--------|--------|--------|--------|--------|--------|--------|--------|
G#|--------|--------|--------|--------|--------|--------|--------|--------|--------|
D#|--------|--------|--------|--------|--------|--------|--------|--------|--------|


D#|--------|--------|--------|--------|--------|--------|--------|--------|--------|
A#|--------|--------|--------|--------|--------|--------|--------|--------|--------|
F#|--------|--------|--------|--------|--------|--------|--------|--------|--------|
C#|--------|--------|--------|--------|--------|--------|--------|--------|--------|
G#|--------|--------|--------|--------|--------|--------|--------|--------|--------|
D#|--------|--------|--------|--------|--------|--------|--------|--------|--------|


D#|--------|
A#|--------|
F#|--------|
C#|--------|
G#|--------|
D#|--------|





Track 4: overdub R

D#|--------|--------|--------|--------|--------|--------|--------|--------|--------|
A#|--------|--------|--------|--------|--------|--------|--------|--------|--------|
F#|--------|--------|--------|--------|--------|--------|--------|--------|--------|
C#|--------|--------|--------|--------|--------|--------|--------|--------|--------|
G#|--------|--------|--------|--------|--------|--------|--------|--------|--------|
D#|--------|--------|--------|--------|--------|--------|--------|--------|--------|


D#|--------|--------|--------|--------|--------|--------|--------|--------|--------|
A#|--------|--------|--------|--------|--------|--------|--------|--------|--------|
F#|--------|--------|--------|--------|--------|--------|--------|--------|--------|
C#|--------|--------|--------|--------|--------|--------|--------|--------|--------|
G#|--------|--------|--------|--------|--------|--------|--------|--------|--------|
D#|--------|--------|--------|--------|--------|--------|--------|--------|--------|


D#|--------|--------|--------|--------|--------|--------|--------|--------|--------|
A#|--------|--------|--------|--------|--------|--------|--------|--------|--------|
F#|--------|--------|--------|--------|--------|--------|--------|--------|--------|
C#|--------|--------|--------|--------|--------|--------|--------|--------|--------|
G#|--------|--------|--------|--------|--------|--------|--------|--------|--------|
D#|--------|--------|--------|--------|--------|--------|--------|--------|--------|


D#|--------|--------|--------|--------|--------|--------|--------|--------|--------|
A#|--------|--------|--------|--------|--------|--------|--------|--------|--------|
F#|--------|--------|--------|--------|--------|--------|--------|--------|--------|
C#|--------|--------|--------|--------|--------|--------|--------|--------|--------|
G#|--------|--------|--------|--------|--------|--------|--------|--------|--------|
D#|--------|--------|--------|--------|--------|--------|--------|--------|--------|


D#|-15--15--15--15--15--15--15--15--|-15--15--15--15--15--15--15--15--|-15--15--15--15--15--15--15--15--|
A#|-15--15--15--15--15--15--15--15--|-15--15--15--15--15--15--15--15--|-15--15--15--15--15--15--15--15--|
F#|-0---0---0---0---0---0---0---0---|-0---0---0---0---0---0---0---0---|-0---0---0---0---0---0---0---0---|
C#|---------------------------------|---------------------------------|---------------------------------|
G#|---------------------------------|---------------------------------|---------------------------------|
D#|---------------------------------|---------------------------------|---------------------------------|


D#|-15--15--15--15--15--15--15--15--|--------|--------|--------|--------|--------|
A#|-15--15--15--15--15--15--15--15--|--------|--------|--------|--------|--------|
F#|-0---0---0---0---0---0---0---0---|--------|--------|--------|--------|--------|
C#|---------------------------------|--------|--------|--------|--------|--------|
G#|---------------------------------|--------|--------|--------|--------|--------|
D#|---------------------------------|--------|--------|--------|--------|--------|


D#|--------|--------|--------|--------|--------|--------|--------|--------|--------|
A#|--------|--------|--------|--------|--------|--------|--------|--------|--------|
F#|--------|--------|--------|--------|--------|--------|--------|--------|--------|
C#|--------|--------|--------|--------|--------|--------|--------|--------|--------|
G#|--------|--------|--------|--------|--------|--------|--------|--------|--------|
D#|--------|--------|--------|--------|--------|--------|--------|--------|--------|


D#|--------|--------|--------|--------|--------|--------|--------|--------|--------|
A#|--------|--------|--------|--------|--------|--------|--------|--------|--------|
F#|--------|--------|--------|--------|--------|--------|--------|--------|--------|
C#|--------|--------|--------|--------|--------|--------|--------|--------|--------|
G#|--------|--------|--------|--------|--------|--------|--------|--------|--------|
D#|--------|--------|--------|--------|--------|--------|--------|--------|--------|


D#|--------|--------|--------|--------|--------|--------|--------|-15--15--15--15--15--15--15--15--|
A#|--------|--------|--------|--------|--------|--------|--------|-15--15--15--15--15--15--15--15--|
F#|--------|--------|--------|--------|--------|--------|--------|-0---0---0---0---0---0---0---0---|
C#|--------|--------|--------|--------|--------|--------|--------|---------------------------------|
G#|--------|--------|--------|--------|--------|--------|--------|---------------------------------|
D#|--------|--------|--------|--------|--------|--------|--------|---------------------------------|


D#|-15--15--15--15--15--15--15--15--|-15--15--15--15--15--15--15--15--|-15--15--15--15--15--15--15--15--|
A#|-15--15--15--15--15--15--15--15--|-15--15--15--15--15--15--15--15--|-15--15--15--15--15--15--15--15--|
F#|-0---0---0---0---0---0---0---0---|-0---0---0---0---0---0---0---0---|-0---0---0---0---0---0---0---0---|
C#|---------------------------------|---------------------------------|---------------------------------|
G#|---------------------------------|---------------------------------|---------------------------------|
D#|---------------------------------|---------------------------------|---------------------------------|


D#|--------|--------|-15--15--15--15--15--15--15--15--|-15--15--15--15--15--15--15--15--|
A#|--------|--------|-15--15--15--15--15--15--15--15--|-15--15--15--15--15--15--15--15--|
F#|--------|--------|-0---0---0---0---0---0---0---0---|-0---0---0---0---0---0---0---0---|
C#|--------|--------|---------------------------------|---------------------------------|
G#|--------|--------|---------------------------------|---------------------------------|
D#|--------|--------|---------------------------------|---------------------------------|


D#|-15--15--15--15--15--15--15--15--|-15--15--15--15--15--15--15--15--|--------|--------|
A#|-15--15--15--15--15--15--15--15--|-15--15--15--15--15--15--15--15--|--------|--------|
F#|-0---0---0---0---0---0---0---0---|-0---0---0---0---0---0---0---0---|--------|--------|
C#|---------------------------------|---------------------------------|--------|--------|
G#|---------------------------------|---------------------------------|--------|--------|
D#|---------------------------------|---------------------------------|--------|--------|


D#|--------|--------|--------|--------|--------|--------|--------|--------|--------|
A#|--------|--------|--------|--------|--------|--------|--------|--------|--------|
F#|--------|--------|--------|--------|--------|--------|--------|--------|--------|
C#|--------|--------|--------|--------|--------|--------|--------|--------|--------|
G#|--------|--------|--------|--------|--------|--------|--------|--------|--------|
D#|--------|--------|--------|--------|--------|--------|--------|--------|--------|


D#|--------|--------|--------|--------|--------|--------|--------|--------|--------|
A#|--------|--------|--------|--------|--------|--------|--------|--------|--------|
F#|--------|--------|--------|--------|--------|--------|--------|--------|--------|
C#|--------|--------|--------|--------|--------|--------|--------|--------|--------|
G#|--------|--------|--------|--------|--------|--------|--------|--------|--------|
D#|--------|--------|--------|--------|--------|--------|--------|--------|--------|


D#|--------|--------|--------|--------|--------|--------|--------|--------|--------|
A#|--------|--------|--------|--------|--------|--------|--------|--------|--------|
F#|--------|--------|--------|--------|--------|--------|--------|--------|--------|
C#|--------|--------|--------|--------|--------|--------|--------|--------|--------|
G#|--------|--------|--------|--------|--------|--------|--------|--------|--------|
D#|--------|--------|--------|--------|--------|--------|--------|--------|--------|





Track 5: guitar L

D#|--------|--------|--------|--------|--------|--------|--------|--------|--------|
A#|--------|--------|--------|--------|--------|--------|--------|--------|--------|
F#|--------|--------|--------|--------|--------|--------|--------|--------|--------|
C#|--------|--------|--------|--------|--------|--------|--------|--------|--------|
G#|--------|--------|--------|--------|--------|--------|--------|--------|--------|
D#|--------|--------|--------|--------|--------|--------|--------|--------|--------|


D#|--------|--------|--------|--------|--------|--------|--------|--------|--------|
A#|--------|--------|--------|--------|--------|--------|--------|--------|--------|
F#|--------|--------|--------|--------|--------|--------|--------|--------|--------|
C#|--------|--------|--------|--------|--------|--------|--------|--------|--------|
G#|--------|--------|--------|--------|--------|--------|--------|--------|--------|
D#|--------|--------|--------|--------|--------|--------|--------|--------|--------|


D#|--------|--------|--------|--------|--------|--------|--------|--------|--------|
A#|--------|--------|--------|--------|--------|--------|--------|--------|--------|
F#|--------|--------|--------|--------|--------|--------|--------|--------|--------|
C#|--------|--------|--------|--------|--------|--------|--------|--------|--------|
G#|--------|--------|--------|--------|--------|--------|--------|--------|--------|
D#|--------|--------|--------|--------|--------|--------|--------|--------|--------|


D#|--------|--------|--------|--------|--------|--------|--------|--------|--------|
A#|--------|--------|--------|--------|--------|--------|--------|--------|--------|
F#|--------|--------|--------|--------|--------|--------|--------|--------|--------|
C#|--------|--------|--------|--------|--------|--------|--------|--------|--------|
G#|--------|--------|--------|--------|--------|--------|--------|--------|--------|
D#|--------|--------|--------|--------|--------|--------|--------|--------|--------|


D#|--------|--------|--------|--------|--------|--------|--------|--------|--------|
A#|--------|--------|--------|--------|--------|--------|--------|--------|--------|
F#|--------|--------|--------|--------|--------|--------|--------|--------|--------|
C#|--------|--------|--------|--------|--------|--------|--------|--------|--------|
G#|--------|--------|--------|--------|--------|--------|--------|--------|--------|
D#|--------|--------|--------|--------|--------|--------|--------|--------|--------|


D#|--------|--------|--------|--------|--------|--------|--------|--------|--------|
A#|--------|--------|--------|--------|--------|--------|--------|--------|--------|
F#|--------|--------|--------|--------|--------|--------|--------|--------|--------|
C#|--------|--------|--------|--------|--------|--------|--------|--------|--------|
G#|--------|--------|--------|--------|--------|--------|--------|--------|--------|
D#|--------|--------|--------|--------|--------|--------|--------|--------|--------|


D#|--------|--------|--------|--------|--------|--------|--------|--------|--------|
A#|--------|--------|--------|--------|--------|--------|--------|--------|--------|
F#|--------|--------|--------|--------|--------|--------|--------|--------|--------|
C#|--------|--------|--------|--------|--------|--------|--------|--------|--------|
G#|--------|--------|--------|--------|--------|--------|--------|--------|--------|
D#|--------|--------|--------|--------|--------|--------|--------|--------|--------|


D#|--------|--------|--------|--------|--------|--------|--------|--------|--------|
A#|--------|--------|--------|--------|--------|--------|--------|--------|--------|
F#|--------|--------|--------|--------|--------|--------|--------|--------|--------|
C#|--------|--------|--------|--------|--------|--------|--------|--------|--------|
G#|--------|--------|--------|--------|--------|--------|--------|--------|--------|
D#|--------|--------|--------|--------|--------|--------|--------|--------|--------|


D#|--------|--------|--------|--------|--------|--------|--------|--------|--------|
A#|--------|--------|--------|--------|--------|--------|--------|--------|--------|
F#|--------|--------|--------|--------|--------|--------|--------|--------|--------|
C#|--------|--------|--------|--------|--------|--------|--------|--------|--------|
G#|--------|--------|--------|--------|--------|--------|--------|--------|--------|
D#|--------|--------|--------|--------|--------|--------|--------|--------|--------|


D#|--------|--------|--------|--------|--------|--------|--------|--------|--------|
A#|--------|--------|--------|--------|--------|--------|--------|--------|--------|
F#|--------|--------|--------|--------|--------|--------|--------|--------|--------|
C#|--------|--------|--------|--------|--------|--------|--------|--------|--------|
G#|--------|--------|--------|--------|--------|--------|--------|--------|--------|
D#|--------|--------|--------|--------|--------|--------|--------|--------|--------|


D#|--------|--------|--------|--------|--------|--------|--------|--------|--------|
A#|--------|--------|--------|--------|--------|--------|--------|--------|--------|
F#|--------|--------|--------|--------|--------|--------|--------|--------|--------|
C#|--------|--------|--------|--------|--------|--------|--------|--------|--------|
G#|--------|--------|--------|--------|--------|--------|--------|--------|--------|
D#|--------|--------|--------|--------|--------|--------|--------|--------|--------|


D#|--------|--------|--------|--------|--------|--------|--------|--------|--------|
A#|--------|--------|--------|--------|--------|--------|--------|--------|--------|
F#|--------|--------|--------|--------|--------|--------|--------|--------|--------|
C#|--------|--------|--------|--------|--------|--------|--------|--------|--------|
G#|--------|--------|--------|--------|--------|--------|--------|--------|--------|
D#|--------|--------|--------|--------|--------|--------|--------|--------|--------|


D#|--------|
A#|--------|
F#|--------|
C#|--------|
G#|--------|
D#|--------|





Track 6: guitar L

D#|--------|--------|--------|--------|--------|--------|--------|--------|--------|
A#|--------|--------|--------|--------|--------|--------|--------|--------|--------|
F#|--------|--------|--------|--------|--------|--------|--------|--------|--------|
C#|--------|--------|--------|--------|--------|--------|--------|--------|--------|
G#|--------|--------|--------|--------|--------|--------|--------|--------|--------|
D#|--------|--------|--------|--------|--------|--------|--------|--------|--------|


D#|--------|--------|--------|--------|--------|--------|--------|--------|--------|
A#|--------|--------|--------|--------|--------|--------|--------|--------|--------|
F#|--------|--------|--------|--------|--------|--------|--------|--------|--------|
C#|--------|--------|--------|--------|--------|--------|--------|--------|--------|
G#|--------|--------|--------|--------|--------|--------|--------|--------|--------|
D#|--------|--------|--------|--------|--------|--------|--------|--------|--------|


D#|--------|--------|--------|--------|--------|--------|--------|--------|--------|
A#|--------|--------|--------|--------|--------|--------|--------|--------|--------|
F#|--------|--------|--------|--------|--------|--------|--------|--------|--------|
C#|--------|--------|--------|--------|--------|--------|--------|--------|--------|
G#|--------|--------|--------|--------|--------|--------|--------|--------|--------|
D#|--------|--------|--------|--------|--------|--------|--------|--------|--------|


D#|--------|--------|--------|--------|--------|--------|--------|--------|--------|
A#|--------|--------|--------|--------|--------|--------|--------|--------|--------|
F#|--------|--------|--------|--------|--------|--------|--------|--------|--------|
C#|--------|--------|--------|--------|--------|--------|--------|--------|--------|
G#|--------|--------|--------|--------|--------|--------|--------|--------|--------|
D#|--------|--------|--------|--------|--------|--------|--------|--------|--------|


D#|--------|--------|--------|--------|--------|--------|--------|--------|--------|
A#|--------|--------|--------|--------|--------|--------|--------|--------|--------|
F#|--------|--------|--------|--------|--------|--------|--------|--------|--------|
C#|--------|--------|--------|--------|--------|--------|--------|--------|--------|
G#|--------|--------|--------|--------|--------|--------|--------|--------|--------|
D#|--------|--------|--------|--------|--------|--------|--------|--------|--------|


D#|--------|--------|--------|--------|--------|--------|--------|--------|--------|
A#|--------|--------|--------|--------|--------|--------|--------|--------|--------|
F#|--------|--------|--------|--------|--------|--------|--------|--------|--------|
C#|--------|--------|--------|--------|--------|--------|--------|--------|--------|
G#|--------|--------|--------|--------|--------|--------|--------|--------|--------|
D#|--------|--------|--------|--------|--------|--------|--------|--------|--------|


D#|--------|--------|--------|--------|--------|--------|--------|--------|--------|
A#|--------|--------|--------|--------|--------|--------|--------|--------|--------|
F#|--------|--------|--------|--------|--------|--------|--------|--------|--------|
C#|--------|--------|--------|--------|--------|--------|--------|--------|--------|
G#|--------|--------|--------|--------|--------|--------|--------|--------|--------|
D#|--------|--------|--------|--------|--------|--------|--------|--------|--------|


D#|--------|--------|--------|--------|--------|--------|--------|--------|--------|
A#|--------|--------|--------|--------|--------|--------|--------|--------|--------|
F#|--------|--------|--------|--------|--------|--------|--------|--------|--------|
C#|--------|--------|--------|--------|--------|--------|--------|--------|--------|
G#|--------|--------|--------|--------|--------|--------|--------|--------|--------|
D#|--------|--------|--------|--------|--------|--------|--------|--------|--------|


D#|--------|--------|--------|--------|--------|--------|--------|--------|-15---15-----|
A#|--------|--------|--------|--------|--------|--------|--------|--------|-15---15-----|
F#|--------|--------|--------|--------|--------|--------|--------|--------|-0----0------|
C#|--------|--------|--------|--------|--------|--------|--------|--------|-------------|
G#|--------|--------|--------|--------|--------|--------|--------|--------|-------------|
D#|--------|--------|--------|--------|--------|--------|--------|--------|-------------|


D#|--------|--------|--------|--------|--------|--------|--------|--------|--------|
A#|--------|--------|--------|--------|--------|--------|--------|--------|--------|
F#|--------|--------|--------|--------|--------|--------|--------|--------|--------|
C#|--------|--------|--------|--------|--------|--------|--------|--------|--------|
G#|--------|--------|--------|--------|--------|--------|--------|--------|--------|
D#|--------|--------|--------|--------|--------|--------|--------|--------|--------|


D#|--------|--------|--------|--------|--------|--------|--------|--------|--------|
A#|--------|--------|--------|--------|--------|--------|--------|--------|--------|
F#|--------|--------|--------|--------|--------|--------|--------|--------|--------|
C#|--------|--------|--------|--------|--------|--------|--------|--------|--------|
G#|--------|--------|--------|--------|--------|--------|--------|--------|--------|
D#|--------|--------|--------|--------|--------|--------|--------|--------|--------|


D#|--------|--------|--------|--------|--------|--------|--------|--------|--------|
A#|--------|--------|--------|--------|--------|--------|--------|--------|--------|
F#|--------|--------|--------|--------|--------|--------|--------|--------|--------|
C#|--------|--------|--------|--------|--------|--------|--------|--------|--------|
G#|--------|--------|--------|--------|--------|--------|--------|--------|--------|
D#|--------|--------|--------|--------|--------|--------|--------|--------|--------|


D#|--------|
A#|--------|
F#|--------|
C#|--------|
G#|--------|
D#|--------|





Track 7: Bass

F#|--------|--------|--------|--------|--------|-------12--12-12-12---|-------------------9---11--12--12--|
C#|--------|--------|--------|--------|--------|----------------------|-----------------------------------|
G#|--------|--------|--------|--------|--------|----------------------|-7------7--7---7-------------------|
D#|--------|--------|--------|--------|--------|----------------------|-----------------------------------|


F#|-------------------------5---4-------|------------------------------------|---------------------------------|
C#|---------------------------------5---|------------------------------------|-----------------5----4--4-------|
G#|-5---5--5--5--5--5-------------------|-3------3--3-----2---3--------1--2--|-3----3--3---5---------------5---|
D#|-------------------------------------|------------------------------------|---------------------------------|


F#|-----------------9---11--12--12--|-------------------------5---4-------|------------------------------------|
C#|---------------------------------|---------------------------------5---|------------------------------------|
G#|-7-------------------------------|-5---5--5--5--5--5-------------------|-3---3--3--3--3--2---3--------1--2--|
D#|------0--0---0-------------------|-------------------------------------|------------------------------------|


F#|---------------------------------|-----------------9---11--12--12--|-----------------------5---4-------|
C#|-----------------5----4--4-------|---------------------------------|-------------------------------5---|
G#|-3----3--3---5---------------5---|-7-------------------------------|-5---5--5--5---5-------------------|
D#|---------------------------------|------0--0---0-------------------|-----------------------------------|


F#|------------------------------------|---------------------------------|-----------------9---11--12--12--|
C#|------------------------------------|-----------------5----4--4-------|---------------------------------|
G#|-3---3--3--3--3--2---3--------1--2--|-3----3--3---5---------------5---|-7-------------------------------|
D#|------------------------------------|---------------------------------|------0--0---0-------------------|


F#|-----------------------5---4-------|------------------------------------|---------------------------------|
C#|-------------------------------5---|------------------------------------|-----------------5----4--4-------|
G#|-5---5--5--5---5-------------------|-3---3--3--3--3--2---3--------1--2--|-3----3--3---5---------------5---|
D#|-----------------------------------|------------------------------------|---------------------------------|


F#|------------------------------|-----------------------5---4-------|------------------------------------|
C#|------------------------------|-------------------------------5---|------------------------------------|
G#|-7----------------------------|-5------5--5---5-------------------|-3---3--3--3--3--2---3--------1--2--|
D#|------0--0---0---0---2---3----|-----------------------------------|------------------------------------|


F#|---------------------------------|-----------------9---11--12--12--|-----------------------5---4-------|
C#|-----------------5----4--4-------|---------------------------------|-------------------------------5---|
G#|-3----3--3---5---------------5---|-7-------------------------------|-5---5--5--5---5-------------------|
D#|---------------------------------|------0--0---0-------------------|-----------------------------------|


F#|------------------------------------|---------------------------------|-----------------------------------------|
C#|------------------------------------|---------------------------------|-----------------------------------------|
G#|-3---3--3--3--3--2---3--------1--2--|-3----3--3---3---5----5--5---5---|-3---3--3--3---3--3--3---3--3--3---3--3--|
D#|------------------------------------|---------------------------------|-----------------------------------------|


F#|-----------------------------------------|-----------------------------------------|
C#|-----------------------------------------|-----------------------------------------|
G#|-5---5--5--5---5--5--5---5--5--5---5--5--|-7---7--7--7---7--7--7---7--7--7---7--7--|
D#|-----------------------------------------|-----------------------------------------|


F#|-----------------------------------------|-----------------------------------------|
C#|-----------------------------------------|-----------------------------------------|
G#|-----------------------------------------|-3---3--3--3---3--3--3---3--3--3---3--3--|
D#|-7---7--7--7---7--7--7---7--7--7---7--7--|-----------------------------------------|


F#|-----------------------------------------|---------------------------------|---------------------------------|
C#|-----------------------------------------|-5---5---5---5---4---4---4---4---|-2---2---2---2---0---0---0---0---|
G#|-5---5--5--5---5--5--5---5--5--5---5--5--|---------------------------------|---------------------------------|
D#|-----------------------------------------|---------------------------------|---------------------------------|


F#|---------------------------------|-----------------------------------|-------------------9---11--12--12--|
C#|---------------------------------|-----------------------------------|-----------------------------------|
G#|-3---3---3---3---3---3---3---3---|-5---5---5---5---17--17--17-17-12--|-7------7--7---7-------------------|
D#|---------------------------------|-----------------------------------|-----------------------------------|


F#|-------------------------5---4-------|------------------------------------|---------------------------------|
C#|---------------------------------5---|------------------------------------|-----------------5----4--4-------|
G#|-5---5--5--5--5--5-------------------|-3---3--3--3--3--2---3--------1--2--|-3----3--3---5---------------5---|
D#|-------------------------------------|------------------------------------|---------------------------------|


F#|-----------------9---11--12--12--|-------------------------5---4-------|------------------------------------|
C#|---------------------------------|---------------------------------5---|------------------------------------|
G#|-7-------------------------------|-5---5--5--5--5--5-------------------|-3---3--3--3--3--2---3--------1--2--|
D#|------0--0---0-------------------|-------------------------------------|------------------------------------|


F#|---------------------------------|-----------------9---11--12--12--|-----------------------5---4-------|
C#|-----------------5----4--4-------|---------------------------------|-------------------------------5---|
G#|-3----3--3---5---------------5---|-7-------------------------------|-5---5--5--5---5-------------------|
D#|---------------------------------|------0--0---0-------------------|-----------------------------------|


F#|------------------------------------|---------------------------------|-----------------9---11--12--12--|
C#|------------------------------------|-----------------5----4--4-------|---------------------------------|
G#|-3---3--3--3--3--2---3--------1--2--|-3----3--3---5---------------5---|-7-------------------------------|
D#|------------------------------------|---------------------------------|------0--0---0-------------------|


F#|-----------------------5---4-------|------------------------------------|---------------------------------|
C#|-------------------------------5---|------------------------------------|-----------------5----4--4-------|
G#|-5---5--5--5---5-------------------|-3---3--3--3--3--2---3--------1--2--|-3----3--3---5---------------5---|
D#|-----------------------------------|------------------------------------|---------------------------------|


F#|------------------------------|-----------------------5---4-------|------------------------------------|
C#|------------------------------|-------------------------------5---|------------------------------------|
G#|-7----------------------------|-5------5--5---5-------------------|-3---3--3--3--3--2---3--------1--2--|
D#|------0--0---0---0---2---3----|-----------------------------------|------------------------------------|


F#|---------------------------------|-----------------9---11--12--12--|-----------------------5---4-------|
C#|-----------------5----4--4-------|---------------------------------|-------------------------------5---|
G#|-3----3--3---5---------------5---|-7-------------------------------|-5---5--5--5---5-------------------|
D#|---------------------------------|------0--0---0-------------------|-----------------------------------|


F#|------------------------------------|---------------------------------|-----------------------------------------|
C#|------------------------------------|---------------------------------|-----------------------------------------|
G#|-3---3--3--3--3--2---3--------1--2--|-3----3--3---3---5----5--5---5---|-3---3--3--3---3--3--3---3--3--3---3--3--|
D#|------------------------------------|---------------------------------|-----------------------------------------|


F#|-----------------------------------------|-----------------------------------------|
C#|-----------------------------------------|-----------------------------------------|
G#|-5---5--5--5---5--5--5---5--5--5---5--5--|-7---7--7--7---7--7--7---7--7--7---7--7--|
D#|-----------------------------------------|-----------------------------------------|


F#|-----------------------------------------|-----------------------------------------|
C#|-----------------------------------------|-----------------------------------------|
G#|-----------------------------------------|-3---3--3--3---3--3--3---3--3--3---3--3--|
D#|-7---7--7--7---7--7--7---7--7--7---7--7--|-----------------------------------------|


F#|-----------------------------------------|---------------------------------|---------------------------------|
C#|-----------------------------------------|-5---5---5---5---4---4---4---4---|-2---2---2---2---0---0---0---0---|
G#|-5---5--5--5---5--5--5---5--5--5---5--5--|---------------------------------|---------------------------------|
D#|-----------------------------------------|---------------------------------|---------------------------------|


F#|---------------------------------|---------------------------------|-----------------------------------------|
C#|---------------------------------|---------------------------------|-----------------------------------------|
G#|-3---3---3---3---3---3---3---3---|-5---5---5---5---5---5---5---5---|-3---3--3--3---3--3--3---3--3--3---3--3--|
D#|---------------------------------|---------------------------------|-----------------------------------------|


F#|-----------------------------------------|---------------------------------|---------------------------------|
C#|-----------------------------------------|-5---5---5---5---4---4---4---4---|-2---2---2---2---0---0---0---0---|
G#|-5---5--5--5---5--5--5---5--5--5---5--5--|---------------------------------|---------------------------------|
D#|-----------------------------------------|---------------------------------|---------------------------------|


F#|---------------------------------|-----------------------------------|--------|
C#|---------------------------------|-----------------------------------|--------|
G#|-3---3---3---3---3---3---3---3---|-5---5---5---5---17--17--17-17-12--|--------|
D#|---------------------------------|-----------------------------------|-0------|


F#|--------|--------5--5--|-5------------------|--------|--------|--------|-----------12--12--12--|
C#|--------|--------------|-----5--------------|--------|--------|--------|-----------------------|
G#|--------|--------------|----------7---7-----|-7------|-7------|--------|-----------------------|
D#|-0------|-0------------|--------------------|--------|--------|--------|-----------------------|


F#|-------------------9---11--12--12--|-----------------------5---4-------|------------------------------------|
C#|-----------------------------------|-------------------------------5---|------------------------------------|
G#|-7------7--7---7-------------------|-5---5--5--5---5-------------------|-3---3--3--3--3--2---3--------1--2--|
D#|-----------------------------------|-----------------------------------|------------------------------------|


F#|---------------------------------|-----------------9---11--12--12--|-----------------------5---4-------|
C#|-----------------5----4--4-------|---------------------------------|-------------------------------5---|
G#|-3----3--3---5---------------5---|-7-------------------------------|-5---5--5--5---5-------------------|
D#|---------------------------------|------0--0---0-------------------|-----------------------------------|


F#|------------------------------------|---------------------------------|------------------------------|
C#|------------------------------------|-----------------5----4--4-------|------------------------------|
G#|-3---3--3--3--3--2---3--------1--2--|-3----3--3---5---------------5---|-7----------------------------|
D#|------------------------------------|---------------------------------|------0--0---0---0---2---3----|


F#|-----------------------5---4-------|------------------------------------|---------------------------------|
C#|-------------------------------5---|------------------------------------|-----------------5----4--4-------|
G#|-5------5--5---5-------------------|-3---3--3--3--3--2---3--------1--2--|-3----3--3---5---------------5---|
D#|-----------------------------------|------------------------------------|---------------------------------|


F#|-----------------9---11--12--12--|-----------------------5---4-------|------------------------------------|
C#|---------------------------------|-------------------------------5---|------------------------------------|
G#|-7-------------------------------|-5---5--5--5---5-------------------|-3---3--3--3--3--2---3--------1--2--|
D#|------0--0---0-------------------|-----------------------------------|------------------------------------|


F#|---------------------------------|--------|--------|--------|--------|--------|
C#|---------------------------------|--------|--------|--------|--------|--------|
G#|-3----3--3---3---5----5--5---5---|-7------|-7------|-7------|-7------|--------|
D#|---------------------------------|--------|--------|--------|--------|--------|