Menu:

 

Search:

 

the killers - jenny was a friend of mine:

 



Title: Jenny Was a Friend of Mine
Artist: 
Album: Hot Fuss
Author: 


Track 1: Distorted Guitar

D#|--------|--------|--------|--------|--------|--------|--------|-------------------------------|
A#|--------|--------|--------|--------|--------|--------|--------|-------------------------------|
F#|--------|--------|--------|--------|--------|--------|--------|-------9--9--9--9--9--9--9--9--|
C#|--------|--------|--------|--------|--------|--------|--------|-------9--9--9--9--9--9--9--9--|
G#|--------|--------|--------|--------|--------|--------|--------|-------7--7--7--7--7--7--7--7--|
D#|--------|--------|--------|--------|--------|--------|--------|-------------------------------|


D#|-------------------------------------------------|-------------------------------------------------|
A#|-------------------------------------------------|-------------------------------------------------|
F#|-9--9--9--9--9--9--9--9--9--9--9--9--9--9--9--9--|-9--9--9--9--9--9--9--9--9--9--9--9--9--9--9--9--|
C#|-9--9--9--9--9--9--9--9--9--9--9--9--9--9--9--9--|-9--9--9--9--9--9--9--9--9--9--9--9--9--9--9--9--|
G#|-7--7--7--7--7--7--7--7--7--7--7--7--7--7--7--7--|-7--7--7--7--7--7--7--7--7--7--7--7--7--7--7--7--|
D#|-------------------------------------------------|-------------------------------------------------|


D#|-------------------------------------------------|-------------------------------------------------|
A#|-------------------------------------------------|-------------------------------------------------|
F#|-9--9--9--9--9--9--9--9--9--9--9--9--9--9--9--9--|-9--9--9--9--9--9--9--9--9--9--9--9--9--9--9--9--|
C#|-9--9--9--9--9--9--9--9--9--9--9--9--9--9--9--9--|-9--9--9--9--9--9--9--9--9--9--9--9--9--9--9--9--|
G#|-7--7--7--7--7--7--7--7--7--7--7--7--7--7--7--7--|-7--7--7--7--7--7--7--7--7--7--7--7--7--7--7--7--|
D#|-------------------------------------------------|-------------------------------------------------|


D#|-------------------------------------------------|-------------------------------------------------|
A#|-------------------------------------------------|-------------------------------------------------|
F#|-9--9--9--9--9--9--9--9--7--7--7--7--7--7--7--7--|-7--7--7--7--7--7--9--9--9--9--9--9--9--9--9--9--|
C#|-9--9--9--9--9--9--9--9--7--7--7--7--7--7--7--7--|-7--7--7--7--7--7--9--9--9--9--9--9--9--9--9--9--|
G#|-7--7--7--7--7--7--7--7--5--5--5--5--5--5--5--5--|-5--5--5--5--5--5--7--7--7--7--7--7--7--7--7--7--|
D#|-------------------------------------------------|-------------------------------------------------|


D#|-------------------------------------------------|-------------------------------------------------|
A#|-------------------------------------------------|-------------------------------------------------|
F#|-9--9--9--9--9--9--9--9--9--9--9--9--9--9--9--9--|-9--9--9--9--9--9--9--9--9--9--9--9--9--9--9--9--|
C#|-9--9--9--9--9--9--9--9--9--9--9--9--9--9--9--9--|-9--9--9--9--9--9--9--9--9--9--9--9--9--9--9--9--|
G#|-7--7--7--7--7--7--7--7--7--7--7--7--7--7--7--7--|-7--7--7--7--7--7--7--7--7--7--7--7--7--7--7--7--|
D#|-------------------------------------------------|-------------------------------------------------|


D#|-------------------------------------------------|-------------------------------------------------|
A#|-------------------------------------------------|-------------------------------------------------|
F#|-9--9--9--9--9--9--9--9--7--7--7--7--7--7--7--7--|-7--7--7--7--7--7--9--9--9--9--9--9--9--9--9--9--|
C#|-9--9--9--9--9--9--9--9--7--7--7--7--7--7--7--7--|-7--7--7--7--7--7--9--9--9--9--9--9--9--9--9--9--|
G#|-7--7--7--7--7--7--7--7--5--5--5--5--5--5--5--5--|-5--5--5--5--5--5--7--7--7--7--7--7--7--7--7--7--|
D#|-------------------------------------------------|-------------------------------------------------|


D#|-------------------------------------------------|-------------------------------|
A#|-------------------------------------------------|-------------------------------|
F#|-9--9--9--9--9--9--9--9--9--9--9--9--9--9--9--9--|-9--9--9--9--9--9--9--9--------|
C#|-9--9--9--9--9--9--9--9--9--9--9--9--9--9--9--9--|-9--9--9--9--9--9--9--9--------|
G#|-7--7--7--7--7--7--7--7--7--7--7--7--7--7--7--7--|-7--7--7--7--7--7--7--7--------|
D#|-------------------------------------------------|-------------------------------|


D#|--------|--------|--------|--------|--------|--------|--------|--------|--------|
A#|--------|--------|--------|--------|--------|--------|--------|--------|--------|
F#|--------|--------|--------|--------|--------|--------|--------|--------|--------|
C#|--------|--------|--------|--------|--------|--------|--------|--------|--------|
G#|--------|--------|--------|--------|--------|--------|--------|--------|--------|
D#|--------|--------|--------|--------|--------|--------|--------|--------|--------|


D#|--------|--------|--------|--------|--------|--------|--------|--------|--------|
A#|--------|--------|--------|--------|--------|--------|--------|--------|--------|
F#|--------|--------|--------|--------|--------|--------|--------|--------|--------|
C#|--------|--------|--------|--------|--------|--------|--------|--------|--------|
G#|--------|--------|--------|--------|--------|--------|--------|--------|--------|
D#|--------|--------|--------|--------|--------|--------|--------|--------|--------|


D#|--------|--------|--------|--------|--------|--------|--------|--------|--------|
A#|--------|--------|--------|--------|--------|--------|--------|--------|--------|
F#|--------|--------|--------|--------|--------|--------|--------|--------|--------|
C#|--------|--------|--------|--------|--------|--------|--------|--------|--------|
G#|--------|--------|--------|--------|--------|--------|--------|--------|--------|
D#|--------|--------|--------|--------|--------|--------|--------|--------|--------|


D#|--------|--------|--------|--------|--------|--------|--------|--------|--------|
A#|--------|--------|--------|--------|--------|--------|--------|--------|--------|
F#|--------|--------|--------|--------|--------|--------|--------|--------|--------|
C#|--------|--------|--------|--------|--------|--------|--------|--------|--------|
G#|--------|--------|--------|--------|--------|--------|--------|--------|--------|
D#|--------|--------|--------|--------|--------|--------|--------|--------|--------|


D#|--------|--------|--------|--------|--------|--------|--------|--------|--------|
A#|--------|--------|--------|--------|--------|--------|--------|--------|--------|
F#|--------|--------|--------|--------|--------|--------|--------|--------|--------|
C#|--------|--------|--------|--------|--------|--------|--------|--------|--------|
G#|--------|--------|--------|--------|--------|--------|--------|--------|--------|
D#|--------|--------|--------|--------|--------|--------|--------|--------|--------|


D#|--------|--------|--------|--------|--------|--------|--------|--------|--------|
A#|--------|--------|--------|--------|--------|--------|--------|--------|--------|
F#|--------|--------|--------|--------|--------|--------|--------|--------|--------|
C#|--------|--------|--------|--------|--------|--------|--------|--------|--------|
G#|--------|--------|--------|--------|--------|--------|--------|--------|--------|
D#|--------|--------|--------|--------|--------|--------|--------|--------|--------|


D#|--------|--------|--------|--------|--------|--------|--------|--------|--------|
A#|--------|--------|--------|--------|--------|--------|--------|--------|--------|
F#|--------|--------|--------|--------|--------|--------|--------|--------|--------|
C#|--------|--------|--------|--------|--------|--------|--------|--------|--------|
G#|--------|--------|--------|--------|--------|--------|--------|--------|--------|
D#|--------|--------|--------|--------|--------|--------|--------|--------|--------|


D#|--------|--------|--------|--------|--------|--------|--------|--------|--------|
A#|--------|--------|--------|--------|--------|--------|--------|--------|--------|
F#|--------|--------|--------|--------|--------|--------|--------|--------|--------|
C#|--------|--------|--------|--------|--------|--------|--------|--------|--------|
G#|--------|--------|--------|--------|--------|--------|--------|--------|--------|
D#|--------|--------|--------|--------|--------|--------|--------|--------|--------|


D#|--------|--------|--------|--------|--------|--------|--------|--------|--------|
A#|--------|--------|--------|--------|--------|--------|--------|--------|--------|
F#|--------|--------|--------|--------|--------|--------|--------|--------|--------|
C#|--------|--------|--------|--------|--------|--------|--------|--------|--------|
G#|--------|--------|--------|--------|--------|--------|--------|--------|--------|
D#|--------|--------|--------|--------|--------|--------|--------|--------|--------|


D#|--------|--------|--------|--------|--------|--------|--------|--------|--------|
A#|--------|--------|--------|--------|--------|--------|--------|--------|--------|
F#|--------|--------|--------|--------|--------|--------|--------|--------|--------|
C#|--------|--------|--------|--------|--------|--------|--------|--------|--------|
G#|--------|--------|--------|--------|--------|--------|--------|--------|--------|
D#|--------|--------|--------|--------|--------|--------|--------|--------|--------|


D#|--------|--------|--------|--------|--------|
A#|--------|--------|--------|--------|--------|
F#|--------|--------|--------|--------|--------|
C#|--------|--------|--------|--------|--------|
G#|--------|--------|--------|--------|--------|
D#|--------|--------|--------|--------|--------|





Track 2: Helicopter

D#|--------|--------|--------|--------|--------|--------|--------|-------------|--------|
A#|--------|--------|--------|--------|--------|--------|--------|-------------|--------|
F#|--------|--------|--------|--------|--------|--------|--------|-------------|--------|
C#|--------|--------|--------|--------|--------|--------|--------|-------------|--------|
G#|--------|--------|--------|--------|--------|--------|--------|-------------|--------|
D#|--------|--------|--------|-0------|-0------|-0------|-0------|-0-----------|--------|


D#|--------|--------|--------|--------|--------|--------|--------|--------|--------|
A#|--------|--------|--------|--------|--------|--------|--------|--------|--------|
F#|--------|--------|--------|--------|--------|--------|--------|--------|--------|
C#|--------|--------|--------|--------|--------|--------|--------|--------|--------|
G#|--------|--------|--------|--------|--------|--------|--------|--------|--------|
D#|--------|--------|--------|--------|--------|--------|--------|--------|--------|


D#|--------|--------|--------|--------|--------|--------|--------|--------|--------|
A#|--------|--------|--------|--------|--------|--------|--------|--------|--------|
F#|--------|--------|--------|--------|--------|--------|--------|--------|--------|
C#|--------|--------|--------|--------|--------|--------|--------|--------|--------|
G#|--------|--------|--------|--------|--------|--------|--------|--------|--------|
D#|--------|--------|--------|--------|--------|--------|--------|--------|--------|


D#|--------|--------|--------|--------|--------|--------|--------|--------|--------|
A#|--------|--------|--------|--------|--------|--------|--------|--------|--------|
F#|--------|--------|--------|--------|--------|--------|--------|--------|--------|
C#|--------|--------|--------|--------|--------|--------|--------|--------|--------|
G#|--------|--------|--------|--------|--------|--------|--------|--------|--------|
D#|--------|--------|--------|--------|--------|--------|--------|--------|--------|


D#|--------|--------|--------|--------|--------|--------|--------|--------|--------|
A#|--------|--------|--------|--------|--------|--------|--------|--------|--------|
F#|--------|--------|--------|--------|--------|--------|--------|--------|--------|
C#|--------|--------|--------|--------|--------|--------|--------|--------|--------|
G#|--------|--------|--------|--------|--------|--------|--------|--------|--------|
D#|--------|--------|--------|--------|--------|--------|--------|--------|--------|


D#|--------|--------|--------|--------|--------|--------|--------|--------|--------|
A#|--------|--------|--------|--------|--------|--------|--------|--------|--------|
F#|--------|--------|--------|--------|--------|--------|--------|--------|--------|
C#|--------|--------|--------|--------|--------|--------|--------|--------|--------|
G#|--------|--------|--------|--------|--------|--------|--------|--------|--------|
D#|--------|--------|--------|--------|--------|--------|--------|--------|--------|


D#|--------|--------|--------|--------|--------|--------|--------|--------|--------|
A#|--------|--------|--------|--------|--------|--------|--------|--------|--------|
F#|--------|--------|--------|--------|--------|--------|--------|--------|--------|
C#|--------|--------|--------|--------|--------|--------|--------|--------|--------|
G#|--------|--------|--------|--------|--------|--------|--------|--------|--------|
D#|--------|--------|--------|--------|--------|--------|--------|--------|--------|


D#|--------|--------|--------|--------|--------|--------|--------|--------|--------|
A#|--------|--------|--------|--------|--------|--------|--------|--------|--------|
F#|--------|--------|--------|--------|--------|--------|--------|--------|--------|
C#|--------|--------|--------|--------|--------|--------|--------|--------|--------|
G#|--------|--------|--------|--------|--------|--------|--------|--------|--------|
D#|--------|--------|--------|--------|--------|--------|--------|--------|--------|


D#|--------|--------|--------|--------|--------|--------|--------|--------|--------|
A#|--------|--------|--------|--------|--------|--------|--------|--------|--------|
F#|--------|--------|--------|--------|--------|--------|--------|--------|--------|
C#|--------|--------|--------|--------|--------|--------|--------|--------|--------|
G#|--------|--------|--------|--------|--------|--------|--------|--------|--------|
D#|--------|--------|--------|--------|--------|--------|--------|--------|--------|


D#|--------|--------|--------|--------|--------|--------|--------|--------|--------|
A#|--------|--------|--------|--------|--------|--------|--------|--------|--------|
F#|--------|--------|--------|--------|--------|--------|--------|--------|--------|
C#|--------|--------|--------|--------|--------|--------|--------|--------|--------|
G#|--------|--------|--------|--------|--------|--------|--------|--------|--------|
D#|--------|--------|--------|--------|--------|--------|--------|--------|--------|


D#|--------|--------|--------|--------|--------|--------|--------|--------|--------|
A#|--------|--------|--------|--------|--------|--------|--------|--------|--------|
F#|--------|--------|--------|--------|--------|--------|--------|--------|--------|
C#|--------|--------|--------|--------|--------|--------|--------|--------|--------|
G#|--------|--------|--------|--------|--------|--------|--------|--------|--------|
D#|--------|--------|--------|--------|--------|--------|--------|--------|--------|


D#|--------|--------|--------|--------|--------|--------|--------|--------|--------|
A#|--------|--------|--------|--------|--------|--------|--------|--------|--------|
F#|--------|--------|--------|--------|--------|--------|--------|--------|--------|
C#|--------|--------|--------|--------|--------|--------|--------|--------|--------|
G#|--------|--------|--------|--------|--------|--------|--------|--------|--------|
D#|--------|--------|--------|--------|--------|--------|--------|--------|--------|


D#|--------|--------|--------|--------|--------|--------|--------|
A#|--------|--------|--------|--------|--------|--------|--------|
F#|--------|--------|--------|--------|--------|--------|--------|
C#|--------|--------|--------|--------|--------|--------|--------|
G#|--------|--------|--------|--------|--------|--------|--------|
D#|--------|--------|--------|--------|--------|--------|--------|





Track 3: Synth

D#|--------|--------|--------|--------|--------|--------|--------|--------|--------|
A#|--------|--------|--------|--------|--------|--------|--------|--------|--------|
F#|--------|--------|--------|--------|--------|--------|--------|--------|--------|
C#|--------|--------|--------|--------|--------|--------|--------|--------|--------|
G#|--------|--------|--------|--------|--------|--------|--------|--------|--------|
D#|--------|--------|--------|--------|--------|--------|--------|--------|--------|


D#|--------|--------|--------|--------|--------|--------|--------|--------|--------|
A#|--------|--------|--------|--------|--------|--------|--------|--------|--------|
F#|--------|--------|--------|--------|--------|--------|--------|--------|--------|
C#|--------|--------|--------|--------|--------|--------|--------|--------|--------|
G#|--------|--------|--------|--------|--------|--------|--------|--------|--------|
D#|--------|--------|--------|--------|--------|--------|--------|--------|--------|


D#|--------|-------------|-------------|-------------|-----------------|-----------------|
A#|--------|-------------|-------12----|-------------|-------10--------|-----------------|
F#|--------|-------9-----|-------------|-------12----|------------12---|-11--------9-----|
C#|--------|-------------|-------9-----|-------------|-------7---------|------12---------|
G#|--------|-------7-----|-------------|-------10----|------------10---|-9---------7-----|
D#|--------|-------------|-------------|-------------|-----------------|------10---------|


D#|-------------|-------------|---------------------------|-----------------|-------------|
A#|-------12----|-------------|-10--12--10------10--------|-----------------|-------12----|
F#|-------------|-------9-----|----------------------12---|-11--------9-----|-------------|
C#|-------9-----|-------------|-7---9---7---12--7---------|------12---------|-------9-----|
G#|-------------|-------7-----|----------------------10---|-9---------7-----|-------------|
D#|-------------|-------------|-------------10------------|------10---------|-------------|


D#|-------------|-----------------|-----------------|-------------|-------------|---------------------------|
A#|-------------|-------10--------|-----------------|-------12----|-------------|-10--12--10----------------|
F#|-------12----|------------12---|-11--------9-----|-------------|-------9-----|-----------------12---11---|
C#|-------------|-------7---------|------12---------|-------9-----|-------------|-7---9---7---12------------|
G#|-------10----|------------10---|-9---------7-----|-------------|-------7-----|-----------------10---9----|
D#|-------------|-----------------|------10---------|-------------|-------------|-------------10------------|


D#|-----------------|--------|--------|--------|--------|--------|--------|--------|
A#|------10---------|--------|--------|--------|--------|--------|--------|--------|
F#|-12--------------|--------|--------|--------|--------|--------|--------|--------|
C#|------7----------|--------|--------|--------|--------|--------|--------|--------|
G#|-10--------------|--------|--------|--------|--------|--------|--------|--------|
D#|-----------------|--------|--------|--------|--------|--------|--------|--------|


D#|--------|--------|--------|--------|--------|--------|--------|--------|--------|
A#|--------|--------|--------|--------|--------|--------|--------|--------|--------|
F#|--------|--------|--------|--------|--------|--------|--------|--------|--------|
C#|--------|--------|--------|--------|--------|--------|--------|--------|--------|
G#|--------|--------|--------|--------|--------|--------|--------|--------|--------|
D#|--------|--------|--------|--------|--------|--------|--------|--------|--------|


D#|--------|-------------|-------------|-------------|-----------------|-----------------|
A#|--------|-------------|-------12----|-------------|-------10--------|-----------------|
F#|--------|-------9-----|-------------|-------12----|------------12---|-11--------9-----|
C#|--------|-------------|-------9-----|-------------|-------7---------|------12---------|
G#|--------|-------7-----|-------------|-------10----|------------10---|-9---------7-----|
D#|--------|-------------|-------------|-------------|-----------------|------10---------|


D#|-------------|-------------|---------------------------|-----------------|-------------|
A#|-------12----|-------------|-10--12--10------10--------|-----------------|-------12----|
F#|-------------|-------9-----|----------------------12---|-11--------9-----|-------------|
C#|-------9-----|-------------|-7---9---7---12--7---------|------12---------|-------9-----|
G#|-------------|-------7-----|----------------------10---|-9---------7-----|-------------|
D#|-------------|-------------|-------------10------------|------10---------|-------------|


D#|-------------|-----------------|-----------------|-------------|-------------|---------------------------|
A#|-------------|-------10--------|-----------------|-------12----|-------------|-10--12--10----------------|
F#|-------12----|------------12---|-11--------9-----|-------------|-------9-----|-----------------12---11---|
C#|-------------|-------7---------|------12---------|-------9-----|-------------|-7---9---7---12------------|
G#|-------10----|------------10---|-9---------7-----|-------------|-------7-----|-----------------10---9----|
D#|-------------|-----------------|------10---------|-------------|-------------|-------------10------------|


D#|-----------------|--------|--------|--------|--------|--------|--------|--------|
A#|------10---------|--------|--------|--------|--------|--------|--------|--------|
F#|-12--------------|--------|--------|--------|--------|--------|--------|--------|
C#|------7----------|--------|--------|--------|--------|--------|--------|--------|
G#|-10--------------|--------|--------|--------|--------|--------|--------|--------|
D#|-----------------|--------|--------|--------|--------|--------|--------|--------|


D#|--------|--------|--------|--------|--------|--------|--------|--------|-------------|
A#|--------|--------|--------|--------|--------|--------|--------|--------|-------------|
F#|--------|--------|--------|--------|--------|--------|--------|--------|-------------|
C#|--------|--------|--------|--------|--------|--------|--------|--------|-------------|
G#|--------|--------|--------|--------|--------|--------|--------|--------|-------------|
D#|--------|--------|--------|--------|--------|--------|--------|--------|-------------|


D#|-------------|-------------|-------------|-------------|-----------------|-----------------|
A#|-------------|-------------|-------12----|-------------|-------10--------|-----------------|
F#|-------------|-------9-----|-------------|-------12----|------------12---|-11--------9-----|
C#|-------------|-------------|-------9-----|-------------|-------7---------|------12---------|
G#|-------------|-------7-----|-------------|-------10----|------------10---|-9---------7-----|
D#|-------------|-------------|-------------|-------------|-----------------|------10---------|


D#|-----------------|---------------------|------------------------------|---------------------------|
A#|-------12---12---|-12---12-------------|-10--12--10-------------------|---------10----------------|
F#|-----------------|-----------9----9----|------------------------------|-11--12--------------------|
C#|-------9----9----|-9----9--------------|-7---9---7---12--12--12---12--|---------7----10---10--10--|
G#|-----------------|-----------7----7----|------------------------------|-9---10--------------------|
D#|-----------------|---------------------|-------------10--10--10---10--|--------------8----8---8---|


D#|---------------------------|---------------------|------------------------------|
A#|---------------------------|-12---10-------------|-10--12--10-------------------|
F#|---------------------------|-----------9----9----|------------------------------|
C#|-----9----10--10--10---10--|-9----7--------------|-7---9---7---12--12--12---12--|
G#|---------------------------|-----------7----7----|------------------------------|
D#|-----7----8---8---8----8---|---------------------|-------------10--10--10---10--|


D#|---------------------------|---------------------------|---------------------|------------------------------|
A#|---------10----------------|---------------------------|-12---10-------------|-10--12--10-------------------|
F#|-11--12--------------------|---------------------------|-----------9----9----|------------------------------|
C#|---------7----10---10--10--|-----9----10--10--10---10--|-9----7--------------|-7---9---7---12--12--12---12--|
G#|-9---10--------------------|---------------------------|-----------7----7----|------------------------------|
D#|--------------8----8---8---|-----7----8---8---8----8---|---------------------|-------------10--10--10---10--|


D#|---------------------------|---------------------------|---------------------|------------------------------|
A#|-12--10--------------------|---------------------------|-12---10-------------|-10--12--10-------------------|
F#|---------12----------------|---------------------------|-----------9----9----|------------------------------|
C#|-9---7--------10---10--10--|-----9----10--10--10---10--|-9----7--------------|-7---9---7---12--12--12---12--|
G#|---------10----------------|---------------------------|-----------7----7----|------------------------------|
D#|--------------8----8---8---|-----7----8---8---8----8---|---------------------|-------------10--10--10---10--|


D#|---------------------------|---------------------------|-----------------|-------------|
A#|---------10----------------|---------------------------|-12---10---12----|-------12----|
F#|-11--12--------------------|---------------------------|-----------------|-------------|
C#|---------7----10---10--10--|-----9----10--10--10---10--|-9----7----9-----|-------9-----|
G#|-9---10--------------------|---------------------------|-----------------|-------------|
D#|--------------8----8---8---|-----7----8---8---8----8---|-----------------|-------------|


D#|-------------|-------------|-------------|-------------|
A#|-------12----|-------------|-------------|-------------|
F#|-------------|-------------|-------------|-------------|
C#|-------9-----|-------------|-------------|-------------|
G#|-------------|-------------|-------------|-------------|
D#|-------------|-------------|-------------|-------------|





Track 4: Clean Guitar

D#|--------|--------|--------|--------|--------|--------|--------|--------|--------|
A#|--------|--------|--------|--------|--------|--------|--------|--------|--------|
F#|--------|--------|--------|--------|--------|--------|--------|--------|--------|
C#|--------|--------|--------|--------|--------|--------|--------|--------|--------|
G#|--------|--------|--------|--------|--------|--------|--------|--------|--------|
D#|--------|--------|--------|--------|--------|--------|--------|--------|--------|


D#|--------|--------|--------|--------|--------|--------|--------|--------|--------|
A#|--------|--------|--------|--------|--------|--------|--------|--------|--------|
F#|--------|--------|--------|--------|--------|--------|--------|--------|--------|
C#|--------|--------|--------|--------|--------|--------|--------|--------|--------|
G#|--------|--------|--------|--------|--------|--------|--------|--------|--------|
D#|--------|--------|--------|--------|--------|--------|--------|--------|--------|


D#|--------|--------|--------|--------|--------|--------|--------|--------|--------|
A#|--------|--------|--------|--------|--------|--------|--------|--------|--------|
F#|--------|--------|--------|--------|--------|--------|--------|--------|--------|
C#|--------|--------|--------|--------|--------|--------|--------|--------|--------|
G#|--------|--------|--------|--------|--------|--------|--------|--------|--------|
D#|--------|--------|--------|--------|--------|--------|--------|--------|--------|


D#|--------|--------|--------|--------|--------|--------|--------|--------|------------5----|
A#|--------|--------|--------|--------|--------|--------|--------|--------|-------8---------|
F#|--------|--------|--------|--------|--------|--------|--------|--------|-----------------|
C#|--------|--------|--------|--------|--------|--------|--------|--------|-----------------|
G#|--------|--------|--------|--------|--------|--------|--------|--------|-----------------|
D#|--------|--------|--------|--------|--------|--------|--------|--------|-----------------|


D#|------5---------5----|-7----5---------5----|------5---------5----|-7----5---------5----|
A#|-8---------8---------|-----------8---------|-8---------8---------|-----------8---------|
F#|---------------------|---------------------|---------------------|---------------------|
C#|---------------------|---------------------|---------------------|---------------------|
G#|---------------------|---------------------|---------------------|---------------------|
D#|---------------------|---------------------|---------------------|---------------------|


D#|------5---------5----|-7----8----7-----|-------------|-------------|-------------|
A#|-8---------8---------|-----------------|-8-----8-----|-------8-----|-------8-----|
F#|---------------------|-----------------|-------------|-------------|-------------|
C#|---------------------|-----------------|-------------|-------------|-------------|
G#|---------------------|-----------------|-------------|-------------|-------------|
D#|---------------------|-----------------|-------------|-------------|-------------|


D#|-------------------------------|-------------------------------------------------|
A#|-------------------------------|-------------------------------------------------|
F#|-------9--9--9--9--9--9--9--9--|-9--9--9--9--9--9--9--9--7--7--7--7--7--7--7--7--|
C#|-------9--9--9--9--9--9--9--9--|-9--9--9--9--9--9--9--9--7--7--7--7--7--7--7--7--|
G#|-------7--7--7--7--7--7--7--7--|-7--7--7--7--7--7--7--7--5--5--5--5--5--5--5--5--|
D#|-------------------------------|-------------------------------------------------|


D#|-------------------------------------------------|-------------------------------------------------|
A#|-------------------------------------------------|-------------------------------------------------|
F#|-7--7--7--7--7--7--9--9--9--9--9--9--9--9--9--9--|-9--9--9--9--9--9--9--9--9--9--9--9--9--9--9--9--|
C#|-7--7--7--7--7--7--9--9--9--9--9--9--9--9--9--9--|-9--9--9--9--9--9--9--9--9--9--9--9--9--9--9--9--|
G#|-5--5--5--5--5--5--7--7--7--7--7--7--7--7--7--7--|-7--7--7--7--7--7--7--7--7--7--7--7--7--7--7--7--|
D#|-------------------------------------------------|-------------------------------------------------|


D#|-------------------------------------------------|-------------------------------------------------|
A#|-------------------------------------------------|-------------------------------------------------|
F#|-9--9--9--9--9--9--9--9--9--9--9--9--9--9--9--9--|-9--9--9--9--9--9--9--9--7--7--7--7--7--7--7--7--|
C#|-9--9--9--9--9--9--9--9--9--9--9--9--9--9--9--9--|-9--9--9--9--9--9--9--9--7--7--7--7--7--7--7--7--|
G#|-7--7--7--7--7--7--7--7--7--7--7--7--7--7--7--7--|-7--7--7--7--7--7--7--7--5--5--5--5--5--5--5--5--|
D#|-------------------------------------------------|-------------------------------------------------|


D#|-------------------------------------------------|-------------------------------------------------|
A#|-------------------------------------------------|-------------------------------------------------|
F#|-7--7--7--7--7--7--9--9--9--9--9--9--9--9--9--9--|-9--9--9--9--9--9--9--9--9--9--9--9--9--9--9--9--|
C#|-7--7--7--7--7--7--9--9--9--9--9--9--9--9--9--9--|-9--9--9--9--9--9--9--9--9--9--9--9--9--9--9--9--|
G#|-5--5--5--5--5--5--7--7--7--7--7--7--7--7--7--7--|-7--7--7--7--7--7--7--7--7--7--7--7--7--7--7--7--|
D#|-------------------------------------------------|-------------------------------------------------|


D#|-------------------------------|--------|--------|--------|--------|--------|--------|
A#|-------------------------------|--------|--------|--------|--------|--------|--------|
F#|-9--9--9--9--9--9--9--9--------|--------|--------|--------|--------|--------|--------|
C#|-9--9--9--9--9--9--9--9--------|--------|--------|--------|--------|--------|--------|
G#|-7--7--7--7--7--7--7--7--------|--------|--------|--------|--------|--------|--------|
D#|-------------------------------|--------|--------|--------|--------|--------|--------|


D#|--------|--------|--------|--------|--------|--------|--------|--------|--------|
A#|--------|--------|--------|--------|--------|--------|--------|--------|--------|
F#|--------|--------|--------|--------|--------|--------|--------|--------|--------|
C#|--------|--------|--------|--------|--------|--------|--------|--------|--------|
G#|--------|--------|--------|--------|--------|--------|--------|--------|--------|
D#|--------|--------|--------|--------|--------|--------|--------|--------|--------|


D#|------------5----|------5---------5----|-7----5---------5----|------5---------5----|
A#|-------8---------|-8---------8---------|-----------8---------|-8---------8---------|
F#|-----------------|---------------------|---------------------|---------------------|
C#|-----------------|---------------------|---------------------|---------------------|
G#|-----------------|---------------------|---------------------|---------------------|
D#|-----------------|---------------------|---------------------|---------------------|


D#|-7----5---------5----|------5---------5----|-7----8----7-----|-------------|-------------|
A#|-----------8---------|-8---------8---------|-----------------|-8-----8-----|-------8-----|
F#|---------------------|---------------------|-----------------|-------------|-------------|
C#|---------------------|---------------------|-----------------|-------------|-------------|
G#|---------------------|---------------------|-----------------|-------------|-------------|
D#|---------------------|---------------------|-----------------|-------------|-------------|


D#|-------------|------------5----|------5---------5----|-7----8----7-----|-------------|
A#|-------8-----|-------8---------|-8---------8---------|-----------------|-8-----8-----|
F#|-------------|-----------------|---------------------|-----------------|-------------|
C#|-------------|-----------------|---------------------|-----------------|-------------|
G#|-------------|-----------------|---------------------|-----------------|-------------|
D#|-------------|-----------------|---------------------|-----------------|-------------|


D#|-------------|-------------|--------|--------|--------|--------|--------|--------|
A#|-------8-----|-------8-----|--------|--------|--------|--------|--------|--------|
F#|-------------|-------------|--------|--------|--------|--------|--------|--------|
C#|-------------|-------------|--------|--------|--------|--------|--------|--------|
G#|-------------|-------------|--------|--------|--------|--------|--------|--------|
D#|-------------|-------------|--------|--------|--------|--------|--------|--------|


D#|--------|--------|--------|--------|--------|--------|--------|--------|--------|
A#|--------|--------|--------|--------|--------|--------|--------|--------|--------|
F#|--------|--------|--------|--------|--------|--------|--------|--------|--------|
C#|--------|--------|--------|--------|--------|--------|--------|--------|--------|
G#|--------|--------|--------|--------|--------|--------|--------|--------|--------|
D#|--------|--------|--------|--------|--------|--------|--------|--------|--------|


D#|--------|--------|--------|--------|--------|--------|--------|--------|--------|
A#|--------|--------|--------|--------|--------|--------|--------|--------|--------|
F#|--------|--------|--------|--------|--------|--------|--------|--------|--------|
C#|--------|--------|--------|--------|--------|--------|--------|--------|--------|
G#|--------|--------|--------|--------|--------|--------|--------|--------|--------|
D#|--------|--------|--------|--------|--------|--------|--------|--------|--------|


D#|--------|--------|--------|--------|--------|--------|
A#|--------|--------|--------|--------|--------|--------|
F#|--------|--------|--------|--------|--------|--------|
C#|--------|--------|--------|--------|--------|--------|
G#|--------|--------|--------|--------|--------|--------|
D#|--------|--------|--------|--------|--------|--------|





Track 5: Bass

F#|--------|--------|--------|--------|--------|--------|--------|-------------|--------|
C#|--------|--------|--------|--------|--------|--------|--------|-------------|--------|
G#|--------|--------|--------|--------|--------|--------|--------|-------------|--------|
D#|--------|--------|--------|--------|--------|--------|--------|-------------|--------|


F#|--------|-------------|-12--12-12-12---------------------|-9---11--12---------------------|
C#|--------|-------------|----------------------------------|--------------------------------|
G#|--------|-------------|----------------7---7--7---7--7---|--------------5---5--5---5--5---|
D#|--------|-------------|----------------------------------|--------------------------------|


F#|-----5---4-------------------------|----------------------------------|-------------------------------------|
C#|-------------5---------------------|----------------------------------|-5----4------------------------------|
G#|-5---------------3---3--3---3--3---|-3--------2--2--3---3--3---3--5---|-----------5---7--7--7--7--7--7--7---|
D#|-----------------------------------|----------------------------------|-------------------------------------|


F#|-9---11--12-------------------------|-----5---4-------------------------|----------------------------------|
C#|------------------------------------|-------------5---------------------|----------------------------------|
G#|--------------5--5--5--5--5--5--5---|-5---------------3---3--3---3--3---|-3--------2--2--3---3--3---3--5---|
D#|------------------------------------|-----------------------------------|----------------------------------|


F#|-----------------------------|-9---11--12-----------------------|-----5---4-------------------------|
C#|-5----4----------------------|----------------------------------|-------------5---------------------|
G#|-----------5---7-------------|--------------5---5--5--5--5--5---|-5---------------3---3--3---3--3---|
D#|--------------------0----0---|----------------------------------|-----------------------------------|


F#|----------------------------------|-----------------------------|-9---11--12-----------------------|
C#|----------------------------------|-5----4----------------------|----------------------------------|
G#|-3--------2--2--3---3--3---3--5---|-----------5---7-------------|--------------5---5--5--5--5--5---|
D#|----------------------------------|--------------------0----0---|----------------------------------|


F#|-----5---4-------------------------|----------------------------------|-----------------------------|
C#|-------------5---------------------|----------------------------------|-5----4----------------------|
G#|-5---------------3---3--3---3--3---|-3--------2--2--3---3--3---3--5---|-----------5---7-------------|
D#|-----------------------------------|----------------------------------|--------------------0----0---|


F#|-9---11--12-----------------------|-----5---4-------------------------|----------------------------------|
C#|----------------------------------|-------------5---------------------|----------------------------------|
G#|--------------5---5--5--5--5--5---|-5---------------3---3--3---3--3---|-3--------2--2--3---3--3---3--5---|
D#|----------------------------------|-----------------------------------|----------------------------------|


F#|-----------------------------|-9---11--12-----------------------|-----5---4-------------------------|
C#|-5----4----------------------|----------------------------------|-------------5---------------------|
G#|-----------5---7-------------|--------------5---5--5--5--5--5---|-5---------------3---3--3---3--3---|
D#|--------------------0----0---|----------------------------------|-----------------------------------|


F#|----------------------------------|-------------------------------------|-------------------------------------|
C#|----------------------------------|-------------------------------------|-------------------------------------|
G#|-3--------2--2--3---3--3---3--3---|-5---5--5---5--5---3---3---3---3--3--|-3---3---3---3--3--5---5---5---5--5--|
D#|----------------------------------|-------------------------------------|-------------------------------------|


F#|-------------------------------------|-------------------------------------|-------------------------------------|
C#|-------------------------------------|-------------------------------------|-------------------------------------|
G#|-5---5---5---5--5--7---7---7---7--7--|-7---7---7---7--7--------------------|-------------------3---3---3---3--3--|
D#|-------------------------------------|-------------------7---7---7---7--7--|-7---7---7---7--7--------------------|


F#|-------------------------------------|-----------------------------------|---------------------------------|
C#|-------------------------------------|-------------------5---5---5---5---|-4---4---4---4-------------------|
G#|-3---3---3---3--3--5---5---5---5--5--|-5---5---5---5--5------------------|-----------------7---7---7---7---|
D#|-------------------------------------|-----------------------------------|---------------------------------|


F#|---------------------------------|---------------------------------|-----------------------------------------|
C#|---------------------------------|---------------------------------|-----------------------------------------|
G#|-5---5---5---5---3---3---3---3---|-3---3---3---3---5---5---5---5---|-5--17-17-17-17-17-7---7---7--7---7--7---|
D#|---------------------------------|---------------------------------|-----------------------------------------|


F#|-9---11--12---------------------|-----5---4-------------------------|----------------------------------|
C#|--------------------------------|-------------5---------------------|----------------------------------|
G#|--------------5---5--5---5--5---|-5---------------3---3--3---3--3---|-3--------2--2--3---3--3---3--5---|
D#|--------------------------------|-----------------------------------|----------------------------------|


F#|-------------------------------------|-9---11--12-------------------------|-----5---4-------------------------|
C#|-5----4------------------------------|------------------------------------|-------------5---------------------|
G#|-----------5---7--7--7--7--7--7--7---|--------------5--5--5--5--5--5--5---|-5---------------3---3--3---3--3---|
D#|-------------------------------------|------------------------------------|-----------------------------------|


F#|----------------------------------|-----------------------------|-9---11--12-----------------------|
C#|----------------------------------|-5----4----------------------|----------------------------------|
G#|-3--------2--2--3---3--3---3--5---|-----------5---7-------------|--------------5---5--5--5--5--5---|
D#|----------------------------------|--------------------0----0---|----------------------------------|


F#|-----5---4-------------------------|----------------------------------|-----------------------------|
C#|-------------5---------------------|----------------------------------|-5----4----------------------|
G#|-5---------------3---3--3---3--3---|-3--------2--2--3---3--3---3--5---|-----------5---7-------------|
D#|-----------------------------------|----------------------------------|--------------------0----0---|


F#|-9---11--12-----------------------|-----5---4-------------------------|----------------------------------|
C#|----------------------------------|-------------5---------------------|----------------------------------|
G#|--------------5---5--5--5--5--5---|-5---------------3---3--3---3--3---|-3--------2--2--3---3--3---3--5---|
D#|----------------------------------|-----------------------------------|----------------------------------|


F#|-----------------------------|-9---11--12-----------------------|-----5---4-------------------------|
C#|-5----4----------------------|----------------------------------|-------------5---------------------|
G#|-----------5---7-------------|--------------5---5--5--5--5--5---|-5---------------3---3--3---3--3---|
D#|--------------------0----0---|----------------------------------|-----------------------------------|


F#|----------------------------------|-----------------------------|-9---11--12-----------------------|
C#|----------------------------------|-5----4----------------------|----------------------------------|
G#|-3--------2--2--3---3--3---3--5---|-----------5---7-------------|--------------5---5--5--5--5--5---|
D#|----------------------------------|--------------------0----0---|----------------------------------|


F#|-----5---4-------------------------|----------------------------------|-------------------------------------|
C#|-------------5---------------------|----------------------------------|-------------------------------------|
G#|-5---------------3---3--3---3--3---|-3--------2--2--3---3--3---3--3---|-5---5--5---5--5---3---3---3---3--3--|
D#|-----------------------------------|----------------------------------|-------------------------------------|


F#|-------------------------------------|-------------------------------------|-------------------------------------|
C#|-------------------------------------|-------------------------------------|-------------------------------------|
G#|-3---3---3---3--3--5---5---5---5--5--|-5---5---5---5--5--7---7---7---7--7--|-7---7---7---7--7--------------------|
D#|-------------------------------------|-------------------------------------|-------------------7---7---7---7--7--|


F#|-------------------------------------|-------------------------------------|-----------------------------------|
C#|-------------------------------------|-------------------------------------|-------------------5---5---5---5---|
G#|-------------------3---3---3---3--3--|-3---3---3---3--3--5---5---5---5--5--|-5---5---5---5--5------------------|
D#|-7---7---7---7--7--------------------|-------------------------------------|-----------------------------------|


F#|---------------------------------|-----------------------------------|-------------------------------------|
C#|-4---4---4---4-------------------|-----------------------------------|-------------------------------------|
G#|-----------------7---7---7---7---|-5---5---5---5---3---3---3---3--3--|-3---3---3---3--3--5---5---5---5--5--|
D#|---------------------------------|-----------------------------------|-------------------------------------|


F#|-------------------------------------|-------------------------------------|-----------------------------------|
C#|-------------------------------------|-------------------------------------|-------------------5---5---5---5---|
G#|-5---5---5---5--5--3---3---3---3--3--|-3---3---3---3--3--5---5---5---5--5--|-5---5---5---5--5------------------|
D#|-------------------------------------|-------------------------------------|-----------------------------------|


F#|---------------------------------|---------------------------------|---------------------------------|
C#|-4---4---4---4-------------------|---------------------------------|---------------------------------|
G#|-----------------7---7---7---7---|-5---5---5---5---3---3---3---3---|-3---3---3---3---5---5---5---5---|
D#|---------------------------------|---------------------------------|---------------------------------|


F#|-----------------------------|-------------|-------------|-------------|--------|
C#|-----------------------------|-------------|-------------|-------------|--------|
G#|-5--17-17-17-17-17-7---------|-------------|-------------|-------------|--------|
D#|-----------------------0-----|-------0-----|-------0-----|-------0-----|--------|


F#|--------|--------|-------------|-----12--12---------------------|-9---11--12-----------------------|
C#|--------|--------|-------------|--------------------------------|----------------------------------|
G#|--------|--------|-------------|--------------7---7--7---7--7---|--------------5---5--5--5--5--5---|
D#|--------|--------|-------------|--------------------------------|----------------------------------|


F#|-----5---4-------------------------|----------------------------------|-----------------------------|
C#|-------------5---------------------|----------------------------------|-5----4----------------------|
G#|-5---------------3---3--3---3--3---|-3--------2--2--3---3--3---3--5---|-----------5---7-------------|
D#|-----------------------------------|----------------------------------|--------------------0----0---|


F#|-9---11--12-----------------------|-----5---4-------------------------|----------------------------------|
C#|----------------------------------|-------------5---------------------|----------------------------------|
G#|--------------5---5--5--5--5--5---|-5---------------3---3--3---3--3---|-3--------2--2--3---3--3---3--5---|
D#|----------------------------------|-----------------------------------|----------------------------------|


F#|-----------------------------|-9---11--12-----------------------|-----5---4-------------------------|
C#|-5----4----------------------|----------------------------------|-------------5---------------------|
G#|-----------5---7-------------|--------------5---5--5--5--5--5---|-5---------------3---3--3---3--3---|
D#|--------------------0----0---|----------------------------------|-----------------------------------|


F#|----------------------------------|-----------------------------|-9---11--12-----------------------|
C#|----------------------------------|-5----4----------------------|----------------------------------|
G#|-3--------2--2--3---3--3---3--5---|-----------5---7-------------|--------------5---5--5--5--5--5---|
D#|----------------------------------|--------------------0----0---|----------------------------------|


F#|-----5---4-------------------------|--------------------------------|-----------------------|
C#|-------------5---------------------|--------------------------------|-----------------------|
G#|-5---------------3---3--3---3--3---|-3--------2--2--3---3---3---3---|-5---5---5---5---7-----|
D#|-----------------------------------|--------------------------------|-----------------------|


F#|-------------|-------------|-------------|-------------|-------------|
C#|-------------|-------------|-------------|-------------|-------------|
G#|-------7-----|-------7-----|-------7-----|-------7-----|-------7-----|
D#|-------------|-------------|-------------|-------------|-------------|