Menu:

 

Search:

 

the killers - everything will be alright:

 



Title: Everything Will Be Alright
Artist: 
Album: Hot Fuss
Author: Brandon Flowers


Track 1: ebow w/ dist

D#|--------|-------------|----------------|-------------|-------------|-------------|
A#|--------|-------------|----------------|-------------|-------------|-------------|
F#|--------|-------------|----------------|-------------|-------------|-------------|
C#|--------|-9-----8-----|-7-----6-----6--|-9-----8-----|-7-----6-----|-9-----8-----|
G#|--------|-------------|----------------|-------------|-------------|-------------|
D#|--------|-------------|----------------|-------------|-------------|-------------|


D#|----------------|-------------|-------------|-------------|-------------|-------------|
A#|----------------|-------------|-------------|-------------|-------------|-------------|
F#|----------------|-------------|-------------|-------8-----|-------9-----|-------9-----|
C#|-7-----6-----6--|-9-----8-----|-7-----6-----|-6-----------|-------------|-------------|
G#|----------------|-------------|-------------|-------------|-------------|-------------|
D#|----------------|-------------|-------------|-------------|-------------|-------------|


D#|-----------------|-------------|-------------|-------------|-------------|-------------|
A#|-----------------|-------------|-------------|-------------|-------------|-------------|
F#|-------8---9-----|-------8-----|-------9-----|-------9-----|-------9-----|-------11----|
C#|-----------------|-------------|-------------|-------------|-------------|-------------|
G#|-----------------|-------------|-------------|-------------|-------------|-------------|
D#|-----------------|-------------|-------------|-------------|-------------|-------------|


D#|-------------|-------------|-------------|-------------------|-------------|-------------|
A#|-------------|-------------|-------------|-------------------|-------------|-------------|
F#|-------11----|-------13----|-------13----|-------13-11-11----|-9-----9-----|-------9-----|
C#|-------------|-------------|-------------|-------------------|-------------|-------------|
G#|-------------|-------------|-------------|-------------------|-------------|-------------|
D#|-------------|-------------|-------------|-------------------|-------------|-------------|


D#|-------------|-------------|-------------|-----------------|-------------|-------------|
A#|-------------|-------------|-------------|-----------------|-------------|-------------|
F#|-------8-----|-------9-----|-------9-----|-------9---13----|-------11----|-------11----|
C#|-------------|-------------|-------------|-----------------|-------------|-------------|
G#|-------------|-------------|-------------|-----------------|-------------|-------------|
D#|-------------|-------------|-------------|-----------------|-------------|-------------|


D#|-------------|-------------|-------------|-------------|--------|--------|--------|
A#|-------------|-------------|-------------|-------------|--------|--------|--------|
F#|-------11----|-------11----|-------11----|-------11----|--------|--------|--------|
C#|-------------|-------------|-------------|-------------|--------|--------|--------|
G#|-------------|-------------|-------------|-------------|--------|--------|--------|
D#|-------------|-------------|-------------|-------------|--------|--------|--------|


D#|--------|--------|--------|--------|--------|--------|--------|--------|--------|
A#|--------|--------|--------|--------|--------|--------|--------|--------|--------|
F#|--------|--------|--------|--------|--------|--------|--------|--------|--------|
C#|--------|--------|--------|--------|--------|--------|--------|--------|--------|
G#|--------|--------|--------|--------|--------|--------|--------|--------|--------|
D#|--------|--------|--------|--------|--------|--------|--------|--------|--------|


D#|--------|--------|--------|--------|--------|--------|--------|--------|-------------|
A#|--------|--------|--------|--------|--------|--------|--------|--------|-------------|
F#|--------|--------|--------|--------|--------|--------|--------|--------|-------13----|
C#|--------|--------|--------|--------|--------|--------|--------|--------|-------------|
G#|--------|--------|--------|--------|--------|--------|--------|--------|-------------|
D#|--------|--------|--------|--------|--------|--------|--------|--------|-------------|


D#|-------------|-------------|-------------|-------------|-------------|--------------------|
A#|-------------|-------------|-------------|-------------|-------------|--------------------|
F#|-------13----|-------16----|-------16----|-------13----|-------13----|-13---11-11---9-----|
C#|-------------|-------------|-------------|-------------|-------------|--------------------|
G#|-------------|-------------|-------------|-------------|-------------|--------------------|
D#|-------------|-------------|-------------|-------------|-------------|--------------------|


D#|-----------------|-----------------|---------------------|--------------------|
A#|-----------------|-----------------|---------------------|--------------------|
F#|------8----9-----|------11---13----|------14---13---11---|------9--11---9-----|
C#|-----------------|-----------------|---------------------|--------------------|
G#|-----------------|-----------------|---------------------|--------------------|
D#|-----------------|-----------------|---------------------|--------------------|


D#|-----------------|-------------|---------------------|-------------|-----------------|
A#|-----------------|-------------|---------------------|-------------|-----------------|
F#|------8----9-----|-11----13----|------14---13---11---|-------9-----|------8----9-----|
C#|-----------------|-------------|---------------------|-------------|-----------------|
G#|-----------------|-------------|---------------------|-------------|-----------------|
D#|-----------------|-------------|---------------------|-------------|-----------------|


D#|-----------------------|-------------|-------------|-------------|-----------------------|
A#|-----------------------|-------------|-------------|-------------|-----------------------|
F#|-9---9---4----4--9-----|-------8-----|-------9-----|-------9-----|-9---9---13--13--13----|
C#|-----------------------|-------------|-------------|-------------|-----------------------|
G#|-----------------------|-------------|-------------|-------------|-----------------------|
D#|-----------------------|-------------|-------------|-------------|-----------------------|


D#|---------------------|-------------|-------------|---------------------------|-----------------|
A#|---------------------|-------------|-------------|---------------------------|-----------------|
F#|------14---13---11---|-------9-----|-------9-----|------8---8---2---4---4----|------2----4-----|
C#|---------------------|-------------|-------------|---------------------------|-----------------|
G#|---------------------|-------------|-------------|---------------------------|-----------------|
D#|---------------------|-------------|-------------|---------------------------|-----------------|


D#|-------------|-------------|-----------------|-----------------|-------------|--------------------|
A#|-------------|-------------|-----------------|-----------------|-------------|--------------------|
F#|-------6-----|-------6-----|------8----9-----|-------9----8----|-------9-----|------9---13--14----|
C#|-------------|-------------|-----------------|-----------------|-------------|--------------------|
G#|-------------|-------------|-----------------|-----------------|-------------|--------------------|
D#|-------------|-------------|-----------------|-----------------|-------------|--------------------|


D#|-------------|-------------|-------------|-------------|
A#|-------------|-------------|-------------|-------------|
F#|-------13----|-------13----|-------------|-------------|
C#|-------------|-------------|-------------|-------------|
G#|-------------|-------------|-------------|-------------|
D#|-------------|-------------|-------------|-------------|





Track 2: synth 1 (pad)

D#|--------|-------------|-------------|-------------|-------------|-------------|
A#|--------|-12----11----|-10----9-----|-12----11----|-10----9-----|-12----11----|
F#|--------|-9-----------|-9-----------|-9-----------|-9-----------|-9-----------|
C#|--------|-11----------|-11----------|-11----------|-11----------|-11----------|
G#|--------|-------------|-------------|-------------|-------------|-------------|
D#|--------|-------------|-------------|-------------|-------------|-------------|


D#|-------------|-------------|-------------|-------------|-------------|-------------|
A#|-10----9-----|-12----11----|-10----9-----|-9-----9-----|-------9-----|-------10----|
F#|-9-----------|-9-----------|-9-----9-----|-9-----8-----|-------9-----|-------9-----|
C#|-11----------|-11----------|-11----9-----|-9-----10----|-------11----|-------11----|
G#|-------------|-------------|-------------|-------------|-------------|-------------|
D#|-------------|-------------|-------------|-------------|-------------|-------------|


D#|-------------|-------------|-------------|-------------|-------------|-------------|
A#|-------9-----|-------9-----|-------9-----|-------10----|-------11----|-------12----|
F#|-------9-----|-------8-----|-------9-----|-------9-----|-------9-----|-------8-----|
C#|-------9-----|-------10----|-------11----|-------11----|-------11----|-------9-----|
G#|-------------|-------------|-------------|-------------|-------------|-------------|
D#|-------------|-------------|-------------|-------------|-------------|-------------|


D#|-------------|-------------|-------------|-------------|-------------|-------------|
A#|-------10----|-------9-----|-------9-----|-------9-----|-------10----|-------9-----|
F#|-------8-----|-------9-----|-------8-----|-------9-----|-------9-----|-------9-----|
C#|-------9-----|-------9-----|-------10----|-------11----|-------11----|-------9-----|
G#|-------------|-------------|-------------|-------------|-------------|-------------|
D#|-------------|-------------|-------------|-------------|-------------|-------------|


D#|-------------|-------------|-------------|-------------|-------------|-------------|
A#|-------9-----|-------9-----|-------10----|-------11----|-------12----|-11----10----|
F#|-------8-----|-------9-----|-------9-----|-------9-----|-------9-----|-------9-----|
C#|-------10----|-------11----|-------11----|-------11----|-------11----|-------11----|
G#|-------------|-------------|-------------|-------------|-------------|-------------|
D#|-------------|-------------|-------------|-------------|-------------|-------------|


D#|-------------|-------------|-------------|-------------|-------------|--------|
A#|-9-----12----|-11----10----|-9-----12----|-11----10----|-9-----------|--------|
F#|-------9-----|-------9-----|-------9-----|-------9-----|-------------|--------|
C#|-------11----|-------11----|-------11----|-------11----|-------------|--------|
G#|-------------|-------------|-------------|-------------|-------------|--------|
D#|-------------|-------------|-------------|-------------|-------------|--------|


D#|--------|--------|--------|--------|--------|--------|--------|--------|--------|
A#|--------|--------|--------|--------|--------|--------|--------|--------|--------|
F#|--------|--------|--------|--------|--------|--------|--------|--------|--------|
C#|--------|--------|--------|--------|--------|--------|--------|--------|--------|
G#|--------|--------|--------|--------|--------|--------|--------|--------|--------|
D#|--------|--------|--------|--------|--------|--------|--------|--------|--------|


D#|--------|--------|--------|--------|--------|--------|--------|--------|--------|
A#|--------|--------|--------|--------|--------|--------|--------|--------|--------|
F#|--------|--------|--------|--------|--------|--------|--------|--------|--------|
C#|--------|--------|--------|--------|--------|--------|--------|--------|--------|
G#|--------|--------|--------|--------|--------|--------|--------|--------|--------|
D#|--------|--------|--------|--------|--------|--------|--------|--------|--------|


D#|--------|--------|--------|--------|-------------|-------------|-------------|-------------|
A#|--------|--------|--------|--------|-------9-----|-------9-----|-------9-----|-------10----|
F#|--------|--------|--------|--------|-------9-----|-------8-----|-------9-----|-------9-----|
C#|--------|--------|--------|--------|-------9-----|-------10----|-------11----|-------11----|
G#|--------|--------|--------|--------|-------------|-------------|-------------|-------------|
D#|--------|--------|--------|--------|-------------|-------------|-------------|-------------|


D#|-------------|-------------|-------------|-------------|-------------|-------------|
A#|-------9-----|-------9-----|-------9-----|-------10----|-------9-----|-------9-----|
F#|-------9-----|-------8-----|-------9-----|-------9-----|-------9-----|-------8-----|
C#|-------9-----|-------10----|-------11----|-------11----|-------9-----|-------10----|
G#|-------------|-------------|-------------|-------------|-------------|-------------|
D#|-------------|-------------|-------------|-------------|-------------|-------------|


D#|-------------|-------------|-------------|-------------|-------------|-------------|
A#|-------9-----|-------10----|-------9-----|-------9-----|-------9-----|-------10----|
F#|-------9-----|-------9-----|-------9-----|-------8-----|-------9-----|-------9-----|
C#|-------11----|-------11----|-------9-----|-------10----|-------11----|-------11----|
G#|-------------|-------------|-------------|-------------|-------------|-------------|
D#|-------------|-------------|-------------|-------------|-------------|-------------|


D#|-------------|-------------|-------------|-------------|-------------|-------------|
A#|-------9-----|-------9-----|-------9-----|-------10----|-------9-----|-------9-----|
F#|-------9-----|-------8-----|-------9-----|-------9-----|-------9-----|-------8-----|
C#|-------9-----|-------10----|-------11----|-------11----|-------9-----|-------10----|
G#|-------------|-------------|-------------|-------------|-------------|-------------|
D#|-------------|-------------|-------------|-------------|-------------|-------------|


D#|-------------|-------------|-------------|-------------|-------------|-------------|
A#|-------9-----|-------10----|-------9-----|-------9-----|-------9-----|-------10----|
F#|-------9-----|-------9-----|-------9-----|-------8-----|-------9-----|-------9-----|
C#|-------11----|-------11----|-------9-----|-------10----|-------11----|-------11----|
G#|-------------|-------------|-------------|-------------|-------------|-------------|
D#|-------------|-------------|-------------|-------------|-------------|-------------|


D#|-------------|-------------|-------------|-------------|
A#|-------9-----|-------9-----|-------------|-------------|
F#|-------9-----|-------9-----|-------------|-------------|
C#|-------9-----|-------9-----|-------------|-------------|
G#|-------------|-------------|-------------|-------------|
D#|-------------|-------------|-------------|-------------|





Track 3: synth 2

D#|--------|-------------|-------------|-------------|-------------|-------------|
A#|--------|-12----11----|-10----9-----|-12----11----|-10----9-----|-12----11----|
F#|--------|-------------|-------------|-------------|-------------|-------------|
C#|--------|-------------|-------------|-------------|-------------|-------------|
G#|--------|-------------|-------------|-------------|-------------|-------------|
D#|--------|-------------|-------------|-------------|-------------|-------------|


D#|-------------|-------------|-------------|-------8-----|-------12----|-------------|
A#|-10----9-----|-12----11----|-10----------|-------------|-------------|-------10----|
F#|-------------|-------------|-------------|-------------|-------------|-------------|
C#|-------------|-------------|-------------|-------------|-------------|-------------|
G#|-------------|-------------|-------------|-------------|-------------|-------------|
D#|-------------|-------------|-------------|-------------|-------------|-------------|


D#|-------------|-------11----|-------12----|-------------|-------------|-------------|
A#|-------12----|-------------|-------------|-------10----|-------11----|-------12----|
F#|-------------|-------------|-------------|-------------|-------------|-------------|
C#|-------------|-------------|-------------|-------------|-------------|-------------|
G#|-------------|-------------|-------------|-------------|-------------|-------------|
D#|-------------|-------------|-------------|-------------|-------------|-------------|


D#|-------------|-------12----|-------------|-------12----|-------------|-------------|
A#|-------10----|-------------|-------13----|-------------|-------10----|-------12----|
F#|-------------|-------------|-------------|-------------|-------------|-------------|
C#|-------------|-------------|-------------|-------------|-------------|-------------|
G#|-------------|-------------|-------------|-------------|-------------|-------------|
D#|-------------|-------------|-------------|-------------|-------------|-------------|


D#|-------11----|-------12----|-------------|-------------|-------------|-------------|
A#|-------------|-------------|-------10----|-------11----|-------12----|-11----10----|
F#|-------------|-------------|-------------|-------------|-------------|-------------|
C#|-------------|-------------|-------------|-------------|-------------|-------------|
G#|-------------|-------------|-------------|-------------|-------------|-------------|
D#|-------------|-------------|-------------|-------------|-------------|-------------|


D#|-------------|-------------|-------------|-------------|-12----11--------|-----------------|
A#|-9-----12----|-11----10----|-9-----12----|-11----10----|-----------14----|-16---17---------|
F#|-------------|-------------|-------------|-------------|-----------------|-----------15----|
C#|-------------|-------------|-------------|-------------|-----------------|-----------------|
G#|-------------|-------------|-------------|-------------|-----------------|-----------------|
D#|-------------|-------------|-------------|-------------|-----------------|-----------------|


D#|-----------------------------|-----------------------------|------------21-----------|
A#|-14-16-17-17-17-14--16-16----|-14-16-17-17-17-14-----------|----------------17-------|
F#|-----------------------------|--------------------16-16----|--------------------18---|
C#|-----------------------------|-----------------------------|-------------------------|
G#|-----------------------------|-----------------------------|-------------------------|
D#|-----------------------------|-----------------------------|-------------------------|


D#|------21----------18-18----|-----------------------------|-----------------------------|
A#|----------17---------------|-14-16-17-17-17-14--16-16----|-14-16-17-17-17-14-----------|
F#|-18-----------18-----------|-----------------------------|--------------------16-16----|
C#|---------------------------|-----------------------------|-----------------------------|
G#|---------------------------|-----------------------------|-----------------------------|
D#|---------------------------|-----------------------------|-----------------------------|


D#|-------------|-----------14----|-----------------------------|-----------------------------|
A#|-------14----|-16---17---------|-14-16-17-17-17-14--16-16----|-14-16-17-17-17-14-----------|
F#|-------------|-----------------|-----------------------------|--------------------16-16----|
C#|-------------|-----------------|-----------------------------|-----------------------------|
G#|-------------|-----------------|-----------------------------|-----------------------------|
D#|-------------|-----------------|-----------------------------|-----------------------------|


D#|------------21-----------|------21----------18-18----|-----------------------------|
A#|----------------17-------|----------17---------------|-14-16-17-17-17-14--16-16----|
F#|--------------------18---|-18-----------18-----------|-----------------------------|
C#|-------------------------|---------------------------|-----------------------------|
G#|-------------------------|---------------------------|-----------------------------|
D#|-------------------------|---------------------------|-----------------------------|


D#|-----------------------------|------------21-----------|------21----------18-18----|
A#|-14-16-17-17-17-14-----------|----------------17-------|----------17---------------|
F#|--------------------16-16----|--------------------18---|-18-----------18-----------|
C#|-----------------------------|-------------------------|---------------------------|
G#|-----------------------------|-------------------------|---------------------------|
D#|-----------------------------|-------------------------|---------------------------|


D#|-----------------------------|-----------------------------|-------------|-----------------|
A#|-14-16-17-17-17-14--16-16----|-14-16-17-17-17-14-----------|-------14----|-16---17---------|
F#|-----------------------------|--------------------16-16----|-------------|-----------15----|
C#|-----------------------------|-----------------------------|-------------|-----------------|
G#|-----------------------------|-----------------------------|-------------|-----------------|
D#|-----------------------------|-----------------------------|-------------|-----------------|


D#|-------------|-----------------|-------12----|-------------|-------12----|-------------|
A#|-------14----|-16---17---------|-------------|-------13----|-------------|-------10----|
F#|-------------|-----------14----|-------------|-------------|-------------|-------------|
C#|-------------|-----------------|-------------|-------------|-------------|-------------|
G#|-------------|-----------------|-------------|-------------|-------------|-------------|
D#|-------------|-----------------|-------------|-------------|-------------|-------------|


D#|-------------|-------11----|-------12----|-------------|-------12----|-------------|
A#|-------12----|-------------|-------------|-------10----|-------------|-------13----|
F#|-------------|-------------|-------------|-------------|-------------|-------------|
C#|-------------|-------------|-------------|-------------|-------------|-------------|
G#|-------------|-------------|-------------|-------------|-------------|-------------|
D#|-------------|-------------|-------------|-------------|-------------|-------------|


D#|-------12----|-------------|-------------|-------11----|-------12----|-------------|
A#|-------------|-------10----|-------12----|-------------|-------------|-------10----|
F#|-------------|-------------|-------------|-------------|-------------|-------------|
C#|-------------|-------------|-------------|-------------|-------------|-------------|
G#|-------------|-------------|-------------|-------------|-------------|-------------|
D#|-------------|-------------|-------------|-------------|-------------|-------------|


D#|--------|--------|--------|--------|--------|--------|--------|--------|--------|
A#|--------|--------|--------|--------|--------|--------|--------|--------|--------|
F#|--------|--------|--------|--------|--------|--------|--------|--------|--------|
C#|--------|--------|--------|--------|--------|--------|--------|--------|--------|
G#|--------|--------|--------|--------|--------|--------|--------|--------|--------|
D#|--------|--------|--------|--------|--------|--------|--------|--------|--------|


D#|--------|--------|--------|--------|-------11----|-------11----|-------11----|
A#|--------|--------|--------|--------|-------------|-------------|-------------|
F#|--------|--------|--------|--------|-------------|-------------|-------------|
C#|--------|--------|--------|--------|-------------|-------------|-------------|
G#|--------|--------|--------|--------|-------------|-------------|-------------|
D#|--------|--------|--------|--------|-------------|-------------|-------------|





Track 4: bridge guitar

D#|--------|--------|--------|--------|--------|--------|--------|--------|--------|
A#|--------|--------|--------|--------|--------|--------|--------|--------|--------|
F#|--------|--------|--------|--------|--------|--------|--------|--------|--------|
C#|--------|--------|--------|--------|--------|--------|--------|--------|--------|
G#|--------|--------|--------|--------|--------|--------|--------|--------|--------|
D#|--------|--------|--------|--------|--------|--------|--------|--------|--------|


D#|--------|--------|--------|--------|--------|--------|--------|--------|--------|
A#|--------|--------|--------|--------|--------|--------|--------|--------|--------|
F#|--------|--------|--------|--------|--------|--------|--------|--------|--------|
C#|--------|--------|--------|--------|--------|--------|--------|--------|--------|
G#|--------|--------|--------|--------|--------|--------|--------|--------|--------|
D#|--------|--------|--------|--------|--------|--------|--------|--------|--------|


D#|--------|--------|--------|--------|--------|--------|--------|--------|--------|
A#|--------|--------|--------|--------|--------|--------|--------|--------|--------|
F#|--------|--------|--------|--------|--------|--------|--------|--------|--------|
C#|--------|--------|--------|--------|--------|--------|--------|--------|--------|
G#|--------|--------|--------|--------|--------|--------|--------|--------|--------|
D#|--------|--------|--------|--------|--------|--------|--------|--------|--------|


D#|--------|--------|--------|--------|--------|--------|--------|-------9---9---9---9---|
A#|--------|--------|--------|--------|--------|--------|--------|-------9---9---9---9---|
F#|--------|--------|--------|--------|--------|--------|--------|-------9---9---9---9---|
C#|--------|--------|--------|--------|--------|--------|--------|-----------------------|
G#|--------|--------|--------|--------|--------|--------|--------|-----------------------|
D#|--------|--------|--------|--------|--------|--------|--------|-----------------------|


D#|-9---9---9---9---------------------|-----------------------------------|---------------------------------|
A#|-9---9---9---9--0--11--11--11--11--|-11--11--11--11-0--7---7---7---7---|-7---7---7---7---4---4---4---4---|
F#|-9---9---9---9--0--11--11--11--11--|-11--11--11--11-0--8---8---8---8---|-8---8---8---8---4---4---4---4---|
C#|-------------------11--11--11--11--|-11--11--11--11----9---9---9---9---|-9---9---9---9---6---6---6---6---|
G#|-----------------------------------|-----------------------------------|---------------------------------|
D#|-----------------------------------|-----------------------------------|---------------------------------|


D#|-------------------9---9---9---9---|-9---9---9---9---------------------|-----------------------------------|
A#|-4---4---4---4-----9---9---9---9---|-9---9---9---9--0--11--11--11--11--|-11--11--11--11-0--8---8-------8---|
F#|-4---4---4---4--0--9---9---9---9---|-9---9---9---9--0--11--11--11--11--|-11--11--11--11-0--8---8-------8---|
C#|-6---6---6---6--0------------------|-------------------11--11--11--11--|-11--11--11--11----8---8-------8---|
G#|-----------------------------------|-----------------------------------|-----------------------------------|
D#|-----------------------------------|-----------------------------------|-----------------------------------|


D#|-----------------------------------|-------------------9---9---9---9---|-9---9---9---9---------------------|
A#|-----8-------8--0--4---4---4---4---|-4---4---4---4-----9---9---9---9---|-9---9---9---9--0--11--11--11--11--|
F#|-----8-------8--0--4---4---4---4---|-4---4---4---4--0--9---9---9---9---|-9---9---9---9--0--11--11--11--11--|
C#|-----8-------8-----6---6---6---6---|-6---6---6---6--0------------------|-------------------11--11--11--11--|
G#|-----------------------------------|-----------------------------------|-----------------------------------|
D#|-----------------------------------|-----------------------------------|-----------------------------------|


D#|-----------------------------------|---------------------------------|-------------------9---9---9---9---|
A#|-11--11--11--11-0--7---7---7---7---|-7---7---7---7---4---4---4---4---|-4---4---4---4-----9---9---9---9---|
F#|-11--11--11--11-0--8---8---8---8---|-8---8---8---8---4---4---4---4---|-4---4---4---4--0--9---9---9---9---|
C#|-11--11--11--11----9---9---9---9---|-9---9---9---9---6---6---6---6---|-6---6---6---6--0------------------|
G#|-----------------------------------|---------------------------------|-----------------------------------|
D#|-----------------------------------|---------------------------------|-----------------------------------|


D#|-9---9---9---9---------------------|-----------------------------------|-----------------------------------|
A#|-9---9---9---9--0--11--11--11--11--|-11--11--11--11-0--8---8-------8---|-----8-------8--0--4---4---4---4---|
F#|-9---9---9---9--0--11--11--11--11--|-11--11--11--11-0--8---8-------8---|-----8-------8--0--4---4---4---4---|
C#|-------------------11--11--11--11--|-11--11--11--11----8---8-------8---|-----8-------8-----6---6---6---6---|
G#|-----------------------------------|-----------------------------------|-----------------------------------|
D#|-----------------------------------|-----------------------------------|-----------------------------------|


D#|-------------------9---9---9---9---|-9---9---9---9---------------------|-----------------------------------|
A#|-4---4---4---4-----9---9---9---9---|-9---9---9---9--0--11--11--11--11--|-11--11--11--11-0--7---7---7---7---|
F#|-4---4---4---4--0--9---9---9---9---|-9---9---9---9--0--11--11--11--11--|-11--11--11--11-0--8---8---8---8---|
C#|-6---6---6---6--0------------------|-------------------11--11--11--11--|-11--11--11--11----9---9---9---9---|
G#|-----------------------------------|-----------------------------------|-----------------------------------|
D#|-----------------------------------|-----------------------------------|-----------------------------------|


D#|-----------------------------------|-------------------------|-------------|-------------|
A#|-7---7---7---7---4---4---4---4-----|-2---2---2---2-----6-----|-------------|-------------|
F#|-8---8---8---8---4---4---4---4--0--|-3---3---3---3--0--6-----|-------------|-------------|
C#|-9---9---9---9---6---6---6---6--0--|-4---4---4---4--0--6-----|-------------|-------------|
G#|-----------------------------------|-------------------4-----|-------------|-------------|
D#|-----------------------------------|-------------------------|-------------|-------------|


D#|-------------|--------|--------|--------|--------|--------|--------|--------|--------|
A#|-------------|--------|--------|--------|--------|--------|--------|--------|--------|
F#|-------------|--------|--------|--------|--------|--------|--------|--------|--------|
C#|-------------|--------|--------|--------|--------|--------|--------|--------|--------|
G#|-------------|--------|--------|--------|--------|--------|--------|--------|--------|
D#|-------------|--------|--------|--------|--------|--------|--------|--------|--------|


D#|--------|--------|--------|--------|--------|--------|--------|--------|--------|
A#|--------|--------|--------|--------|--------|--------|--------|--------|--------|
F#|--------|--------|--------|--------|--------|--------|--------|--------|--------|
C#|--------|--------|--------|--------|--------|--------|--------|--------|--------|
G#|--------|--------|--------|--------|--------|--------|--------|--------|--------|
D#|--------|--------|--------|--------|--------|--------|--------|--------|--------|


D#|--------|--------|--------|--------|--------|--------|--------|--------|--------|
A#|--------|--------|--------|--------|--------|--------|--------|--------|--------|
F#|--------|--------|--------|--------|--------|--------|--------|--------|--------|
C#|--------|--------|--------|--------|--------|--------|--------|--------|--------|
G#|--------|--------|--------|--------|--------|--------|--------|--------|--------|
D#|--------|--------|--------|--------|--------|--------|--------|--------|--------|


D#|--------|--------|--------|--------|--------|--------|
A#|--------|--------|--------|--------|--------|--------|
F#|--------|--------|--------|--------|--------|--------|
C#|--------|--------|--------|--------|--------|--------|
G#|--------|--------|--------|--------|--------|--------|
D#|--------|--------|--------|--------|--------|--------|





Track 5: Solo Guitar

D#|--------|--------|--------|--------|--------|--------|--------|--------|--------|
A#|--------|--------|--------|--------|--------|--------|--------|--------|--------|
F#|--------|--------|--------|--------|--------|--------|--------|--------|--------|
C#|--------|--------|--------|--------|--------|--------|--------|--------|--------|
G#|--------|--------|--------|--------|--------|--------|--------|--------|--------|
D#|--------|--------|--------|--------|--------|--------|--------|--------|--------|


D#|--------|--------|--------|--------|--------|--------|--------|--------|--------|
A#|--------|--------|--------|--------|--------|--------|--------|--------|--------|
F#|--------|--------|--------|--------|--------|--------|--------|--------|--------|
C#|--------|--------|--------|--------|--------|--------|--------|--------|--------|
G#|--------|--------|--------|--------|--------|--------|--------|--------|--------|
D#|--------|--------|--------|--------|--------|--------|--------|--------|--------|


D#|--------|--------|--------|--------|--------|--------|--------|--------|--------|
A#|--------|--------|--------|--------|--------|--------|--------|--------|--------|
F#|--------|--------|--------|--------|--------|--------|--------|--------|--------|
C#|--------|--------|--------|--------|--------|--------|--------|--------|--------|
G#|--------|--------|--------|--------|--------|--------|--------|--------|--------|
D#|--------|--------|--------|--------|--------|--------|--------|--------|--------|


D#|--------|--------|--------|--------|--------|--------|--------|--------|--------|
A#|--------|--------|--------|--------|--------|--------|--------|--------|--------|
F#|--------|--------|--------|--------|--------|--------|--------|--------|--------|
C#|--------|--------|--------|--------|--------|--------|--------|--------|--------|
G#|--------|--------|--------|--------|--------|--------|--------|--------|--------|
D#|--------|--------|--------|--------|--------|--------|--------|--------|--------|


D#|--------|--------|--------|--------|--------|--------|--------|--------|--------|
A#|--------|--------|--------|--------|--------|--------|--------|--------|--------|
F#|--------|--------|--------|--------|--------|--------|--------|--------|--------|
C#|--------|--------|--------|--------|--------|--------|--------|--------|--------|
G#|--------|--------|--------|--------|--------|--------|--------|--------|--------|
D#|--------|--------|--------|--------|--------|--------|--------|--------|--------|


D#|--------|--------|--------|--------|--------|--------|--------|--------|--------|
A#|--------|--------|--------|--------|--------|--------|--------|--------|--------|
F#|--------|--------|--------|--------|--------|--------|--------|--------|--------|
C#|--------|--------|--------|--------|--------|--------|--------|--------|--------|
G#|--------|--------|--------|--------|--------|--------|--------|--------|--------|
D#|--------|--------|--------|--------|--------|--------|--------|--------|--------|


D#|--------|--------|--------|--------|--------|--------|--------|--------|--------|
A#|--------|--------|--------|--------|--------|--------|--------|--------|--------|
F#|--------|--------|--------|--------|--------|--------|--------|--------|--------|
C#|--------|--------|--------|--------|--------|--------|--------|--------|--------|
G#|--------|--------|--------|--------|--------|--------|--------|--------|--------|
D#|--------|--------|--------|--------|--------|--------|--------|--------|--------|


D#|--------|--------|--------|--------|--------|--------|--------|--------|--------|
A#|--------|--------|--------|--------|--------|--------|--------|--------|--------|
F#|--------|--------|--------|--------|--------|--------|--------|--------|--------|
C#|--------|--------|--------|--------|--------|--------|--------|--------|--------|
G#|--------|--------|--------|--------|--------|--------|--------|--------|--------|
D#|--------|--------|--------|--------|--------|--------|--------|--------|--------|


D#|--------|--------|-------14----|-----14--14-14-12--14----|-----14--14-14-12--14---12---|
A#|--------|--------|-------------|-------------------------|-----------------------------|
F#|--------|--------|-------------|-------------------------|-----------------------------|
C#|--------|--------|-------------|-------------------------|-----------------------------|
G#|--------|--------|-------------|-------------------------|-----------------------------|
D#|--------|--------|-------------|-------------------------|-----------------------------|


D#|-9--12-9-----------------------------|----------------12---|----------12--------------------------|
A#|----------12--10-12-10-9---9----9----|------9----9---------|-9--10-12----12-10-9------------------|
F#|-------------------------------------|---------------------|----------------------11----11---11---|
C#|-------------------------------------|---------------------|--------------------------------------|
G#|-------------------------------------|---------------------|--------------------------------------|
D#|-------------------------------------|---------------------|--------------------------------------|


D#|----------------------------|---------------------------------|------------------------------|
A#|----------------------------|---------------------------------|------------------------------|
F#|------11--119-----11---9----|-9--11-9-------------------------|--------------9------9---9----|
C#|--------------11------------|----------11--9--11-9------------|-9----------------------------|
G#|----------------------------|-----------------------11--11----|------12---11-----11----------|
D#|----------------------------|---------------------------------|------------------------------|


D#|------------------------12-11-------|--------------------------------|--------------------------------------|
A#|-----------9---10--9----------9--12-|-12--9---9--10-9----------------|----------------------------9---9--10-|
F#|-11--9--11--------------------------|------------------11--11---11---|-11---11--119-----9---9--11-----------|
C#|------------------------------------|--------------------------------|--------------11----------------------|
G#|------------------------------------|--------------------------------|--------------------------------------|
D#|------------------------------------|--------------------------------|--------------------------------------|


D#|-----9-----11--11--12----|--------|--------|--------|
A#|-10-----10---------9-----|--------|--------|--------|
F#|-------------------------|--------|--------|--------|
C#|-------------------------|--------|--------|--------|
G#|-------------------------|--------|--------|--------|
D#|-------------------------|--------|--------|--------|





Track 6: synth arr. for bass

F#|--------|-------------|-------------|-------------|-------------|-------------|
C#|--------|-9-----8-----|-7-----6-----|-9-----8-----|-7-----6-----|-9-----8-----|
G#|--------|-------------|-------------|-------------|-------------|-------------|
D#|--------|-------------|-------------|-------------|-------------|-------------|


F#|-------------|-------------|-------------|-------------|-------------|-------------|
C#|-7-----6-----|-9-----8-----|-7-----------|-------------|-------------|-------------|
G#|-------------|-------------|-------7-----|-7-----------|-------------|-------------|
D#|-------------|-------------|-------------|-------8-----|-------9-----|-------5-----|


F#|-------------|-------------|-------------|-------------|-------------|-------------|
C#|-------------|-------------|-------------|-------------|-------------|-------------|
G#|-------7-----|-------------|-------------|-------------|-------------|-------------|
D#|-------------|-------8-----|-------9-----|-------5-----|-------6-----|-------7-----|


F#|-------------|-------------|-------------|-------------|-------------|-------------|
C#|-------------|-------------|-------------|-------------|-------------|-------------|
G#|-------------|-6-----7-----|-------------|-------------|-------------|-------7-----|
D#|-------5-----|-------------|-------8-----|-------9-----|-------5-----|-------------|


F#|-------------|-------------|-------------|-------------|-------------|-------------|
C#|-------------|-------------|-------------|-------------|-------------|-------------|
G#|-------------|-------------|-------------|-------------|-------------|-------------|
D#|-------8-----|-------9-----|-------5-----|-------6-----|-------7-----|-6-----5-----|


F#|-------------|-------------|-------------|-------------|-------------|-------------|
C#|-------------|-------------|-------------|-------------|-------------|-------------|
G#|-------------|-------------|-------------|-------------|-------4-----|-------------|
D#|-4-----7-----|-6-----5-----|-4-----7-----|-6-----5-----|-4-----------|-------2-----|


F#|-------------|-------------|-------------|-------------|-------------|-------------|
C#|-------------|-------------|-------------|-------------|-------------|-------------|
G#|-------2-----|-1-----------|-------4-----|-------------|-------6-----|-------------|
D#|-------------|-------4-----|-------------|-------2-----|-------------|-------4-----|


F#|-------------|-------------|-------------|-------------|-------------|-------------|
C#|-------------|-------------|-------------|-------------|-------------|-------------|
G#|-------4-----|-------------|-------2-----|-1-----------|-------4-----|-------------|
D#|-------------|-------2-----|-------------|-------4-----|-------------|-------2-----|


F#|-------------|-------------|-------------|-------------|-------4-----|-3-----------|
C#|-------------|-------------|-------------|-------------|-------------|-------6-----|
G#|-------6-----|-------------|-------4-----|-------------|-------2-----|-1-----------|
D#|-------------|-------4-----|-------------|-------2-----|-------------|-------4-----|


F#|-------------|-------------|-------------|-------------|-------------|-------------|
C#|-4-----3-----|-------3-----|-------3-----|-------3-----|-------------|-------------|
G#|-------------|-------------|-------------|-------------|-------7-----|-------------|
D#|-2-----------|-------------|-------------|-------------|-------------|-------8-----|


F#|-------------|-------------|-------------|-------------|-------------|-------------|
C#|-------------|-------------|-------------|-------------|-------------|-------------|
G#|-------------|-------------|-------7-----|-------------|-------------|-------------|
D#|-------9-----|-------5-----|-------------|-------8-----|-------9-----|-------5-----|


F#|-------------|-------------|-------------|-------------|-------------|-------------|
C#|-------------|-------------|-------------|-------------|-------------|-------------|
G#|-------7-----|-------------|-------------|-------------|-------7-----|-------------|
D#|-------------|-------8-----|-------9-----|-------5-----|-------------|-------8-----|


F#|-------------|-------------|-------------|-------------|-------------|-------------|
C#|-------------|-------------|-------------|-------------|-------------|-------------|
G#|-------------|-------------|-------7-----|-------------|-------------|-------------|
D#|-------9-----|-------5-----|-------------|-------8-----|-------9-----|-------5-----|


F#|-------------|-------------|-------------|-------------|-------------|-------------|
C#|-------------|-------------|-------------|-------------|-------------|-------------|
G#|-------7-----|-------------|-------------|-------------|-------7-----|-------------|
D#|-------------|-------8-----|-------9-----|-------5-----|-------------|-------8-----|


F#|-------------|-------------|-------------|-------------|-------------|-------------|
C#|-------------|-------------|-------------|-------------|-------------|-------------|
G#|-------------|-------------|-------7-----|-------7-----|-------------|-------------|
D#|-------9-----|-------5-----|-------------|-------------|-------------|-------------|