Menu:

 

Search:

 

the killers - change your mind:

 



Title: Change Your Mind
Artist: 
Album: Hot Fuss [US]
Author: Brandon Flowers and Dave Keuning


Track 1: rhythm 1 (L)

D#|------------------------------|---------------------------------|------------------------------|
A#|-7----7---6---7---6---6---7---|-7---6---6---7---7---6---7---6---|-7----7---6---7---6---6---7---|
F#|-6----6---6---6---6---6---6---|-6---6---6---6---6---6---6---6---|-6----6---6---6---6---6---6---|
C#|-8----8---8---8---8---8---8---|-8---8---8---8---8---8---8---8---|-8----8---8---8---8---8---8---|
G#|-9----9---9---9---9---9---9---|-9---9---9---9---9---9---9---9---|-9----9---9---9---9---9---9---|
D#|------------------------------|---------------------------------|------------------------------|


D#|---------------------------------|------------------------------|---------------------------------|
A#|-7---6---6---7---7---6---7---6---|-7----7---6---7---6---6---7---|-7---6---6---7---7---6---7---6---|
F#|-6---6---6---6---6---6---6---6---|-6----6---6---6---6---6---6---|-6---6---6---6---6---6---6---6---|
C#|-8---8---8---8---8---8---8---8---|-8----8---8---8---8---8---8---|-8---8---8---8---8---8---8---8---|
G#|-9---9---9---9---9---9---9---9---|-9----9---9---9---9---9---9---|-9---9---9---9---9---9---9---9---|
D#|---------------------------------|------------------------------|---------------------------------|


D#|------------------------------|---------------------------------|-6---6---6---6---6---6---6---6---|
A#|-7----7---6---7---6---6---7---|-7---6---6---7---7---6---7---6---|-7---7---7---7---7---7---7---7---|
F#|-6----6---6---6---6---6---6---|-6---6---6---6---6---6---6---6---|-8---8---8---8---8---8---8---8---|
C#|-8----8---8---8---8---8---8---|-8---8---8---8---8---8---8---8---|-8---8---8---8---8---8---8---8---|
G#|-9----9---9---9---9---9---9---|-9---9---9---9---9---9---9---9---|-6---6---6---6---6---6---6---6---|
D#|------------------------------|---------------------------------|---------------------------------|


D#|-7---7---7---7---7---7---7---7---|-9---9---9---9---9---9---9---9---|-9---9---9---9---9---9---9---9---|
A#|-7---7---7---7---7---7---7---7---|-9---9---9---9---9---9---9---9---|-9---9---9---9---9---9---9---9---|
F#|-8---8---8---8---8---8---8---8---|-10--10--10--10--10--10--10--10--|-10--10--10--10--10--10--10--10--|
C#|-9---9---9---9---9---9---9---9---|-11--11--11--11--11--11--11--11--|-11--11--11--11--11--11--11--11--|
G#|-9---9---9---9---9---9---9---9---|-11--11--11--11--11--11--11--11--|-11--11--11--11--11--11--11--11--|
D#|-7---7---7---7---7---7---7---7---|-9---9---9---9---9---9---9---9---|-9---9---9---9---9---9---9---9---|


D#|------------------------------|---------------------------------|------------------------------|
A#|-7----7---6---7---6---6---7---|-7---6---6---7---7---6---7---6---|-7----7---6---7---6---6---7---|
F#|-6----6---6---6---6---6---6---|-6---6---6---6---6---6---6---6---|-6----6---6---6---6---6---6---|
C#|-8----8---8---8---8---8---8---|-8---8---8---8---8---8---8---8---|-8----8---8---8---8---8---8---|
G#|-9----9---9---9---9---9---9---|-9---9---9---9---9---9---9---9---|-9----9---9---9---9---9---9---|
D#|------------------------------|---------------------------------|------------------------------|


D#|---------------------------------|-6---6---6---6---6---6---6---6---|-7---7---7---7---7---7---7---7---|
A#|-7---6---6---7---7---6---7---6---|-7---7---7---7---7---7---7---7---|-7---7---7---7---7---7---7---7---|
F#|-6---6---6---6---6---6---6---6---|-8---8---8---8---8---8---8---8---|-8---8---8---8---8---8---8---8---|
C#|-8---8---8---8---8---8---8---8---|-8---8---8---8---8---8---8---8---|-9---9---9---9---9---9---9---9---|
G#|-9---9---9---9---9---9---9---9---|-6---6---6---6---6---6---6---6---|-9---9---9---9---9---9---9---9---|
D#|---------------------------------|---------------------------------|-7---7---7---7---7---7---7---7---|


D#|-9---9---9---9---9---9---9---9---|-9---9---9---9---9---9---9---9---|------------------------------|
A#|-9---9---9---9---9---9---9---9---|-9---9---9---9---9---9---9---9---|-7----7---6---7---6---6---7---|
F#|-10--10--10--10--10--10--10--10--|-10--10--10--10--10--10--10--10--|-6----6---6---6---6---6---6---|
C#|-11--11--11--11--11--11--11--11--|-11--11--11--11--11--11--11--11--|-8----8---8---8---8---8---8---|
G#|-11--11--11--11--11--11--11--11--|-11--11--11--11--11--11--11--11--|-9----9---9---9---9---9---9---|
D#|-9---9---9---9---9---9---9---9---|-9---9---9---9---9---9---9---9---|------------------------------|


D#|---------------------------------|------------------------------|---------------------------------|
A#|-7---6---6---7---7---6---7---6---|-7----7---6---7---6---6---7---|-7---6---6---7---7---6---7---6---|
F#|-6---6---6---6---6---6---6---6---|-6----6---6---6---6---6---6---|-6---6---6---6---6---6---6---6---|
C#|-8---8---8---8---8---8---8---8---|-8----8---8---8---8---8---8---|-8---8---8---8---8---8---8---8---|
G#|-9---9---9---9---9---9---9---9---|-9----9---9---9---9---9---9---|-9---9---9---9---9---9---9---9---|
D#|---------------------------------|------------------------------|---------------------------------|


D#|-6---6---6---6---6---6---6---6---|-7---7---7---7---7---7---7---7---|-9---9---9---9---9---9---9---9---|
A#|-7---7---7---7---7---7---7---7---|-7---7---7---7---7---7---7---7---|-9---9---9---9---9---9---9---9---|
F#|-8---8---8---8---8---8---8---8---|-8---8---8---8---8---8---8---8---|-10--10--10--10--10--10--10--10--|
C#|-8---8---8---8---8---8---8---8---|-9---9---9---9---9---9---9---9---|-11--11--11--11--11--11--11--11--|
G#|-6---6---6---6---6---6---6---6---|-9---9---9---9---9---9---9---9---|-11--11--11--11--11--11--11--11--|
D#|---------------------------------|-7---7---7---7---7---7---7---7---|-9---9---9---9---9---9---9---9---|


D#|-9---9---9---9---9---9---9---9---|---------------------------------|---------------------------------|
A#|-9---9---9---9---9---9---9---9---|-7---7---7---7---7---7---7---7---|-7---7---7---7---7---7---7---7---|
F#|-10--10--10--10--10--10--10--10--|-8---8---8---8---8---8---8---8---|-8---8---8---8---8---8---8---8---|
C#|-11--11--11--11--11--11--11--11--|-9---9---9---9---9---9---9---9---|-9---9---9---9---9---9---9---9---|
G#|-11--11--11--11--11--11--11--11--|-9---9---9---9---9---9---9---9---|-9---9---9---9---9---9---9---9---|
D#|-9---9---9---9---9---9---9---9---|-7---7---7---7---7---7---7---7---|-7---7---7---7---7---7---7---7---|


D#|---------------------------------|---------------------------------|------------------------------|
A#|-9---9---9---9---9---9---9---9---|-9---9---9---9---9---9---9---9---|-7----7---6---7---6---6---7---|
F#|-10--10--10--10--10--10--10--10--|-10--10--10--10--10--10--10--10--|-6----6---6---6---6---6---6---|
C#|-11--11--11--11--11--11--11--11--|-11--11--11--11--11--11--11--11--|-8----8---8---8---8---8---8---|
G#|-11--11--11--11--11--11--11--11--|-11--11--11--11--11--11--11--11--|-9----9---9---9---9---9---9---|
D#|-9---9---9---9---9---9---9---9---|-9---9---9---9---9---9---9---9---|------------------------------|


D#|---------------------------------|------------------------------|---------------------------------|
A#|-7---6---6---7---7---6---7---6---|-7----7---6---7---6---6---7---|-7---6---6---7---7---6---7---6---|
F#|-6---6---6---6---6---6---6---6---|-6----6---6---6---6---6---6---|-6---6---6---6---6---6---6---6---|
C#|-8---8---8---8---8---8---8---8---|-8----8---8---8---8---8---8---|-8---8---8---8---8---8---8---8---|
G#|-9---9---9---9---9---9---9---9---|-9----9---9---9---9---9---9---|-9---9---9---9---9---9---9---9---|
D#|---------------------------------|------------------------------|---------------------------------|


D#|------------------------------|---------------------------------|------------------------------|
A#|-7----7---6---7---6---6---7---|-7---6---6---7---7---6---7---6---|-7----7---6---7---6---6---7---|
F#|-6----6---6---6---6---6---6---|-6---6---6---6---6---6---6---6---|-6----6---6---6---6---6---6---|
C#|-8----8---8---8---8---8---8---|-8---8---8---8---8---8---8---8---|-8----8---8---8---8---8---8---|
G#|-9----9---9---9---9---9---9---|-9---9---9---9---9---9---9---9---|-9----9---9---9---9---9---9---|
D#|------------------------------|---------------------------------|------------------------------|


D#|---------------------------------|-6---6---6---6---6---6---6---6---|-7---7---7---7---7---7---7---7---|
A#|-7---6---6---7---7---6---7---6---|-7---7---7---7---7---7---7---7---|-7---7---7---7---7---7---7---7---|
F#|-6---6---6---6---6---6---6---6---|-8---8---8---8---8---8---8---8---|-8---8---8---8---8---8---8---8---|
C#|-8---8---8---8---8---8---8---8---|-8---8---8---8---8---8---8---8---|-9---9---9---9---9---9---9---9---|
G#|-9---9---9---9---9---9---9---9---|-6---6---6---6---6---6---6---6---|-9---9---9---9---9---9---9---9---|
D#|---------------------------------|---------------------------------|-7---7---7---7---7---7---7---7---|


D#|-9---9---9---9---9---9---9---9---|-9---9---9---9---9---9---9---9---|------------------------------|
A#|-9---9---9---9---9---9---9---9---|-9---9---9---9---9---9---9---9---|-7----7---6---7---6---6---7---|
F#|-10--10--10--10--10--10--10--10--|-10--10--10--10--10--10--10--10--|-6----6---6---6---6---6---6---|
C#|-11--11--11--11--11--11--11--11--|-11--11--11--11--11--11--11--11--|-8----8---8---8---8---8---8---|
G#|-11--11--11--11--11--11--11--11--|-11--11--11--11--11--11--11--11--|-9----9---9---9---9---9---9---|
D#|-9---9---9---9---9---9---9---9---|-9---9---9---9---9---9---9---9---|------------------------------|


D#|---------------------------------|------------------------------|---------------------------------|
A#|-7---6---6---7---7---6---7---6---|-7----7---6---7---6---6---7---|-7---6---6---7---7---6---7---6---|
F#|-6---6---6---6---6---6---6---6---|-6----6---6---6---6---6---6---|-6---6---6---6---6---6---6---6---|
C#|-8---8---8---8---8---8---8---8---|-8----8---8---8---8---8---8---|-8---8---8---8---8---8---8---8---|
G#|-9---9---9---9---9---9---9---9---|-9----9---9---9---9---9---9---|-9---9---9---9---9---9---9---9---|
D#|---------------------------------|------------------------------|---------------------------------|


D#|-6---6---6---6---6---6---6---6---|-7---7---7---7---7---7---7---7---|-9---9---9---9---9---9---9---9---|
A#|-7---7---7---7---7---7---7---7---|-7---7---7---7---7---7---7---7---|-9---9---9---9---9---9---9---9---|
F#|-8---8---8---8---8---8---8---8---|-8---8---8---8---8---8---8---8---|-10--10--10--10--10--10--10--10--|
C#|-8---8---8---8---8---8---8---8---|-9---9---9---9---9---9---9---9---|-11--11--11--11--11--11--11--11--|
G#|-6---6---6---6---6---6---6---6---|-9---9---9---9---9---9---9---9---|-11--11--11--11--11--11--11--11--|
D#|---------------------------------|-7---7---7---7---7---7---7---7---|-9---9---9---9---9---9---9---9---|


D#|-9---9---9---9---9---9---9---9---|---------------------------------|---------------------------------|
A#|-9---9---9---9---9---9---9---9---|-7---7---7---7---7---7---7---7---|-7---7---7---7---7---7---7---7---|
F#|-10--10--10--10--10--10--10--10--|-8---8---8---8---8---8---8---8---|-8---8---8---8---8---8---8---8---|
C#|-11--11--11--11--11--11--11--11--|-9---9---9---9---9---9---9---9---|-9---9---9---9---9---9---9---9---|
G#|-11--11--11--11--11--11--11--11--|-9---9---9---9---9---9---9---9---|-9---9---9---9---9---9---9---9---|
D#|-9---9---9---9---9---9---9---9---|-7---7---7---7---7---7---7---7---|-7---7---7---7---7---7---7---7---|


D#|---------------------------------|---------------------------------|--------|--------|
A#|-9---9---9---9---9---9---9---9---|-9---9---9---9---9---9---9---9---|-7------|-7------|
F#|-10--10--10--10--10--10--10--10--|-10--10--10--10--10--10--10--10--|-6------|-6------|
C#|-11--11--11--11--11--11--11--11--|-11--11--11--11--11--11--11--11--|-8------|-8------|
G#|-11--11--11--11--11--11--11--11--|-11--11--11--11--11--11--11--11--|-9------|-9------|
D#|-9---9---9---9---9---9---9---9---|-9---9---9---9---9---9---9---9---|--------|--------|


D#|--------|--------|--------|--------|--------|--------|--------|--------|--------|
A#|-7------|-7------|--------|--------|--------|--------|--------|--------|--------|
F#|-6------|-6------|--------|--------|--------|--------|--------|--------|--------|
C#|-8------|-8------|--------|--------|--------|--------|--------|--------|--------|
G#|-9------|-9------|--------|--------|--------|--------|--------|--------|--------|
D#|--------|--------|--------|--------|--------|--------|--------|--------|--------|


D#|--------|--------|--------|--------|--------|--------|--------|--------|--------|
A#|--------|--------|--------|--------|--------|--------|--------|--------|--------|
F#|--------|--------|--------|--------|--------|--------|--------|--------|--------|
C#|--------|--------|--------|--------|--------|--------|--------|--------|--------|
G#|--------|--------|--------|--------|--------|--------|--------|--------|--------|
D#|--------|--------|--------|--------|--------|--------|--------|--------|--------|


D#|---------------------------------|---------------------------------|---------------------------------|
A#|-7---7---7---7---7---7---7---7---|-7---7---7---7---7---7---7---7---|-9---9---9---9---9---9---9---9---|
F#|-8---8---8---8---8---8---8---8---|-8---8---8---8---8---8---8---8---|-10--10--10--10--10--10--10--10--|
C#|-9---9---9---9---9---9---9---9---|-9---9---9---9---9---9---9---9---|-11--11--11--11--11--11--11--11--|
G#|-9---9---9---9---9---9---9---9---|-9---9---9---9---9---9---9---9---|-11--11--11--11--11--11--11--11--|
D#|-7---7---7---7---7---7---7---7---|-7---7---7---7---7---7---7---7---|-9---9---9---9---9---9---9---9---|


D#|---------------------------------|------------------------------|---------------------------------|
A#|-9---9---9---9---9---9---9---9---|-7----7---6---7---6---6---7---|-7---6---6---7---7---6---7---6---|
F#|-10--10--10--10--10--10--10--10--|-6----6---6---6---6---6---6---|-6---6---6---6---6---6---6---6---|
C#|-11--11--11--11--11--11--11--11--|-8----8---8---8---8---8---8---|-8---8---8---8---8---8---8---8---|
G#|-11--11--11--11--11--11--11--11--|-9----9---9---9---9---9---9---|-9---9---9---9---9---9---9---9---|
D#|-9---9---9---9---9---9---9---9---|------------------------------|---------------------------------|


D#|------------------------------|---------------------------------|------------------------------|
A#|-7----7---6---7---6---6---7---|-7---6---6---7---7---6---7---6---|-7----7---6---7---6---6---7---|
F#|-6----6---6---6---6---6---6---|-6---6---6---6---6---6---6---6---|-6----6---6---6---6---6---6---|
C#|-8----8---8---8---8---8---8---|-8---8---8---8---8---8---8---8---|-8----8---8---8---8---8---8---|
G#|-9----9---9---9---9---9---9---|-9---9---9---9---9---9---9---9---|-9----9---9---9---9---9---9---|
D#|------------------------------|---------------------------------|------------------------------|


D#|---------------------------------|------------------------------|---------------------------------|
A#|-7---6---6---7---7---6---7---6---|-7----7---6---7---6---6---7---|-7---6---6---7---7---6---7---6---|
F#|-6---6---6---6---6---6---6---6---|-6----6---6---6---6---6---6---|-6---6---6---6---6---6---6---6---|
C#|-8---8---8---8---8---8---8---8---|-8----8---8---8---8---8---8---|-8---8---8---8---8---8---8---8---|
G#|-9---9---9---9---9---9---9---9---|-9----9---9---9---9---9---9---|-9---9---9---9---9---9---9---9---|
D#|---------------------------------|------------------------------|---------------------------------|


D#|-6---6---6---6---6---6---6---6---|-7---7---7---7---7---7---7---7---|-9---9---9---9---9---9---9---9---|
A#|-7---7---7---7---7---7---7---7---|-7---7---7---7---7---7---7---7---|-9---9---9---9---9---9---9---9---|
F#|-8---8---8---8---8---8---8---8---|-8---8---8---8---8---8---8---8---|-10--10--10--10--10--10--10--10--|
C#|-8---8---8---8---8---8---8---8---|-9---9---9---9---9---9---9---9---|-11--11--11--11--11--11--11--11--|
G#|-6---6---6---6---6---6---6---6---|-9---9---9---9---9---9---9---9---|-11--11--11--11--11--11--11--11--|
D#|---------------------------------|-7---7---7---7---7---7---7---7---|-9---9---9---9---9---9---9---9---|


D#|-9---9---9---9---9---9---9---9---|------------------------------|---------------------------------|
A#|-9---9---9---9---9---9---9---9---|-7----7---6---7---6---6---7---|-7---6---6---7---7---6---7---6---|
F#|-10--10--10--10--10--10--10--10--|-6----6---6---6---6---6---6---|-6---6---6---6---6---6---6---6---|
C#|-11--11--11--11--11--11--11--11--|-8----8---8---8---8---8---8---|-8---8---8---8---8---8---8---8---|
G#|-11--11--11--11--11--11--11--11--|-9----9---9---9---9---9---9---|-9---9---9---9---9---9---9---9---|
D#|-9---9---9---9---9---9---9---9---|------------------------------|---------------------------------|


D#|------------------------------|---------------------------------|-6---6---6---6---6---6---6---6---|
A#|-7----7---6---7---6---6---7---|-7---6---6---7---7---6---7---6---|-7---7---7---7---7---7---7---7---|
F#|-6----6---6---6---6---6---6---|-6---6---6---6---6---6---6---6---|-8---8---8---8---8---8---8---8---|
C#|-8----8---8---8---8---8---8---|-8---8---8---8---8---8---8---8---|-8---8---8---8---8---8---8---8---|
G#|-9----9---9---9---9---9---9---|-9---9---9---9---9---9---9---9---|-6---6---6---6---6---6---6---6---|
D#|------------------------------|---------------------------------|---------------------------------|


D#|-7---7---7---7---7---7---7---7---|-9---9---9---9---9---9---9---9---|-9---9---9---9---9---9---9---9---|
A#|-7---7---7---7---7---7---7---7---|-9---9---9---9---9---9---9---9---|-9---9---9---9---9---9---9---9---|
F#|-8---8---8---8---8---8---8---8---|-10--10--10--10--10--10--10--10--|-10--10--10--10--10--10--10--10--|
C#|-9---9---9---9---9---9---9---9---|-11--11--11--11--11--11--11--11--|-11--11--11--11--11--11--11--11--|
G#|-9---9---9---9---9---9---9---9---|-11--11--11--11--11--11--11--11--|-11--11--11--11--11--11--11--11--|
D#|-7---7---7---7---7---7---7---7---|-9---9---9---9---9---9---9---9---|-9---9---9---9---9---9---9---9---|


D#|---------------------------------|---------------------------------|---------------------------------|
A#|-7---7---7---7---7---7---7---7---|-7---7---7---7---7---7---7---7---|-9---9---9---9---9---9---9---9---|
F#|-8---8---8---8---8---8---8---8---|-8---8---8---8---8---8---8---8---|-10--10--10--10--10--10--10--10--|
C#|-9---9---9---9---9---9---9---9---|-9---9---9---9---9---9---9---9---|-11--11--11--11--11--11--11--11--|
G#|-9---9---9---9---9---9---9---9---|-9---9---9---9---9---9---9---9---|-11--11--11--11--11--11--11--11--|
D#|-7---7---7---7---7---7---7---7---|-7---7---7---7---7---7---7---7---|-9---9---9---9---9---9---9---9---|


D#|---------------------------------|---------------------------------|---------------------------------|
A#|-9---9---9---9---9---9---9---9---|-7---7---7---7---7---7---7---7---|-7---7---7---7---7---7---7---7---|
F#|-10--10--10--10--10--10--10--10--|-8---8---8---8---8---8---8---8---|-8---8---8---8---8---8---8---8---|
C#|-11--11--11--11--11--11--11--11--|-9---9---9---9---9---9---9---9---|-9---9---9---9---9---9---9---9---|
G#|-11--11--11--11--11--11--11--11--|-9---9---9---9---9---9---9---9---|-9---9---9---9---9---9---9---9---|
D#|-9---9---9---9---9---9---9---9---|-7---7---7---7---7---7---7---7---|-7---7---7---7---7---7---7---7---|


D#|---------------------------------|---------------------------------|------------------------------|
A#|-9---9---9---9---9---9---9---9---|-9---9---9---9---9---9---9---9---|-7----7---6---7---6---6---7---|
F#|-10--10--10--10--10--10--10--10--|-10--10--10--10--10--10--10--10--|-6----6---6---6---6---6---6---|
C#|-11--11--11--11--11--11--11--11--|-11--11--11--11--11--11--11--11--|-8----8---8---8---8---8---8---|
G#|-11--11--11--11--11--11--11--11--|-11--11--11--11--11--11--11--11--|-9----9---9---9---9---9---9---|
D#|-9---9---9---9---9---9---9---9---|-9---9---9---9---9---9---9---9---|------------------------------|


D#|---------------------------------|------------------------------|---------------------------------|
A#|-7---6---6---7---7---6---7---6---|-7----7---6---7---6---6---7---|-7---6---6---7---7---6---7---6---|
F#|-6---6---6---6---6---6---6---6---|-6----6---6---6---6---6---6---|-6---6---6---6---6---6---6---6---|
C#|-8---8---8---8---8---8---8---8---|-8----8---8---8---8---8---8---|-8---8---8---8---8---8---8---8---|
G#|-9---9---9---9---9---9---9---9---|-9----9---9---9---9---9---9---|-9---9---9---9---9---9---9---9---|
D#|---------------------------------|------------------------------|---------------------------------|


D#|--------|--------|--------|--------|
A#|-7------|-7------|-7------|--------|
F#|-6------|-6------|-6------|--------|
C#|-8------|-8------|-8------|--------|
G#|-9------|-9------|-9------|--------|
D#|--------|--------|--------|--------|





Track 2: synth 1

D#|--------|--------|--------|--------|--------|--------|--------|--------|---------------------|
A#|--------|--------|--------|--------|--------|--------|--------|--------|------19---21---19---|
F#|--------|--------|--------|--------|--------|--------|--------|--------|-20------------------|
C#|--------|--------|--------|--------|--------|--------|--------|--------|---------------------|
G#|--------|--------|--------|--------|--------|--------|--------|--------|---------------------|
D#|--------|--------|--------|--------|--------|--------|--------|--------|---------------------|


D#|------18-------------|-------------|-21--------19---18---|--------|--------|--------|
A#|-21--------21---19---|--------19---|------21-------------|-19-----|-19-----|-19-----|
F#|---------------------|-------------|---------------------|--------|--------|--------|
C#|---------------------|-------------|---------------------|--------|--------|--------|
G#|---------------------|-------------|---------------------|--------|--------|--------|
D#|---------------------|-------------|---------------------|--------|--------|--------|


D#|--------|---------------------|------18-------------|-------------|-21--------19---18---|
A#|-19-----|------19---21---19---|-21--------21---19---|--------19---|------21-------------|
F#|--------|-20------------------|---------------------|-------------|---------------------|
C#|--------|---------------------|---------------------|-------------|---------------------|
G#|--------|---------------------|---------------------|-------------|---------------------|
D#|--------|---------------------|---------------------|-------------|---------------------|


D#|--------|--------|--------|--------|---------------------|------18-------------|
A#|-19-----|-19-----|-19-----|-19-----|------19---21---19---|-21--------21---19---|
F#|--------|--------|--------|--------|-20------------------|---------------------|
C#|--------|--------|--------|--------|---------------------|---------------------|
G#|--------|--------|--------|--------|---------------------|---------------------|
D#|--------|--------|--------|--------|---------------------|---------------------|


D#|-------------|-21--------19---18---|--------|--------|--------|--------|--------|
A#|--------19---|------21-------------|--------|--------|--------|--------|--------|
F#|-------------|---------------------|--------|--------|--------|--------|--------|
C#|-------------|---------------------|--------|--------|--------|--------|--------|
G#|-------------|---------------------|--------|--------|--------|--------|--------|
D#|-------------|---------------------|--------|--------|--------|--------|--------|


D#|--------|--------|--------|--------|--------|--------|--------|---------------------|
A#|--------|--------|--------|-19-----|-19-----|-19-----|-19-----|------19---21---19---|
F#|--------|--------|--------|--------|--------|--------|--------|-20------------------|
C#|--------|--------|--------|--------|--------|--------|--------|---------------------|
G#|--------|--------|--------|--------|--------|--------|--------|---------------------|
D#|--------|--------|--------|--------|--------|--------|--------|---------------------|


D#|------18-------------|-------------|-21--------19---18---|--------|--------|--------|
A#|-21--------21---19---|--------19---|------21-------------|-19-----|-19-----|-19-----|
F#|---------------------|-------------|---------------------|--------|--------|--------|
C#|---------------------|-------------|---------------------|--------|--------|--------|
G#|---------------------|-------------|---------------------|--------|--------|--------|
D#|---------------------|-------------|---------------------|--------|--------|--------|


D#|--------|---------------------|------18-------------|-------------|-21--------19---18---|
A#|-19-----|------19---21---19---|-21--------21---19---|--------19---|------21-------------|
F#|--------|-20------------------|---------------------|-------------|---------------------|
C#|--------|---------------------|---------------------|-------------|---------------------|
G#|--------|---------------------|---------------------|-------------|---------------------|
D#|--------|---------------------|---------------------|-------------|---------------------|


D#|--------|-------18----|--------|-------18----|--------|--------|--------|--------|
A#|-19-----|-18----------|-18-----|-18----------|--------|--------|--------|--------|
F#|--------|-------------|--------|-------------|--------|--------|--------|--------|
C#|--------|-------------|--------|-------------|--------|--------|--------|--------|
G#|--------|-------------|--------|-------------|--------|--------|--------|--------|
D#|--------|-------------|--------|-------------|--------|--------|--------|--------|


D#|--------|--------|--------|--------|--------|--------|--------|--------|--------|
A#|--------|--------|--------|--------|--------|--------|--------|--------|--------|
F#|--------|--------|--------|--------|--------|--------|--------|--------|--------|
C#|--------|--------|--------|--------|--------|--------|--------|--------|--------|
G#|--------|--------|--------|--------|--------|--------|--------|--------|--------|
D#|--------|--------|--------|--------|--------|--------|--------|--------|--------|


D#|--------|--------|--------|--------|--------|--------|-21--------19---18---|--------|
A#|--------|--------|--------|--------|--------|--------|------21-------------|--------|
F#|--------|--------|--------|--------|--------|--------|---------------------|--------|
C#|--------|--------|--------|--------|--------|--------|---------------------|--------|
G#|--------|--------|--------|--------|--------|--------|---------------------|--------|
D#|--------|--------|--------|--------|--------|--------|---------------------|--------|


D#|--------|--------|--------|--------|--------|--------|--------|--------|--------|
A#|--------|--------|--------|--------|--------|--------|--------|-19-----|-19-----|
F#|--------|--------|--------|--------|--------|--------|--------|--------|--------|
C#|--------|--------|--------|--------|--------|--------|--------|--------|--------|
G#|--------|--------|--------|--------|--------|--------|--------|--------|--------|
D#|--------|--------|--------|--------|--------|--------|--------|--------|--------|


D#|--------|--------|---------------------|------18-------------|-------------|-21--------19---18---|
A#|-19-----|-19-----|------19---21---19---|-21--------21---19---|--------19---|------21-------------|
F#|--------|--------|-20------------------|---------------------|-------------|---------------------|
C#|--------|--------|---------------------|---------------------|-------------|---------------------|
G#|--------|--------|---------------------|---------------------|-------------|---------------------|
D#|--------|--------|---------------------|---------------------|-------------|---------------------|


D#|--------|--------|--------|--------|---------------------|------18-------------|
A#|-19-----|-19-----|-19-----|-19-----|------19---21---19---|-21--------21---19---|
F#|--------|--------|--------|--------|-20------------------|---------------------|
C#|--------|--------|--------|--------|---------------------|---------------------|
G#|--------|--------|--------|--------|---------------------|---------------------|
D#|--------|--------|--------|--------|---------------------|---------------------|


D#|-------------|-21--------19---18---|--------|--------|--------|--------|--------|
A#|--------19---|------21-------------|--------|--------|--------|--------|--------|
F#|-------------|---------------------|--------|--------|--------|--------|--------|
C#|-------------|---------------------|--------|--------|--------|--------|--------|
G#|-------------|---------------------|--------|--------|--------|--------|--------|
D#|-------------|---------------------|--------|--------|--------|--------|--------|


D#|--------|--------|--------|-21----18----|-23----21----|-------------|-19----18----|
A#|--------|--------|--------|-------------|-------------|-21----19----|-------------|
F#|--------|--------|--------|-------------|-------------|-------------|-------------|
C#|--------|--------|--------|-------------|-------------|-------------|-------------|
G#|--------|--------|--------|-------------|-------------|-------------|-------------|
D#|--------|--------|--------|-------------|-------------|-------------|-------------|


D#|--------|--------|--------|--------|
A#|-19-----|-19-----|-19-----|-19-----|
F#|--------|--------|--------|--------|
C#|--------|--------|--------|--------|
G#|--------|--------|--------|--------|
D#|--------|--------|--------|--------|





Track 3: center overdub

D#|--------|--------|--------|--------|--------|--------|--------|--------|--------|
A#|--------|--------|--------|--------|--------|--------|--------|--------|--------|
F#|--------|--------|--------|--------|--------|--------|--------|--------|--------|
C#|--------|--------|--------|--------|--------|--------|--------|--------|--------|
G#|--------|--------|--------|--------|--------|--------|--------|--------|--------|
D#|--------|--------|--------|--------|--------|--------|--------|--------|--------|


D#|--------|--------|--------|--------|--------|--------|--------|--------|--------|
A#|--------|--------|--------|--------|--------|--------|--------|--------|--------|
F#|--------|--------|--------|--------|--------|--------|--------|--------|--------|
C#|--------|--------|--------|--------|--------|--------|--------|--------|--------|
G#|--------|--------|--------|--------|--------|--------|--------|--------|--------|
D#|--------|--------|--------|--------|--------|--------|--------|--------|--------|


D#|--------|--------|--------|--------|--------|--------|--------|--------|--------|
A#|--------|--------|--------|--------|--------|--------|--------|--------|--------|
F#|--------|--------|--------|--------|--------|--------|--------|--------|--------|
C#|--------|--------|--------|--------|--------|--------|--------|--------|--------|
G#|--------|--------|--------|--------|--------|--------|--------|--------|--------|
D#|--------|--------|--------|--------|--------|--------|--------|--------|--------|


D#|--------|-14--14--14--14--14--14--14--14--|-13--13--13--13--14--14--14--14--|---------------------------------|
A#|--------|-13--13--13--13--13--13--13--13--|-12--12--12--12--12--12--12--12--|-14--14--14--14--14--14--14--14--|
F#|--------|-11--11--11--11--11--11--11--11--|-10--10--10--10--11--11--11--11--|-13--13--13--13--13--13--13--13--|
C#|--------|---------------------------------|---------------------------------|-11--11--11--11--11--11--11--11--|
G#|--------|---------------------------------|---------------------------------|---------------------------------|
D#|--------|---------------------------------|---------------------------------|---------------------------------|


D#|---------------------------------|--------|--------|--------|--------|--------|
A#|-12--12--12--12--11--11--11--11--|--------|--------|--------|--------|--------|
F#|-11--11--11--11--10--10--10--10--|-11-----|-11-----|--------|--------|--------|
C#|-9---9---9---9---8---8---8---8---|--------|--------|--------|--------|--------|
G#|---------------------------------|-9------|-9------|--------|--------|--------|
D#|---------------------------------|--------|--------|--------|--------|--------|


D#|--------|--------|--------|--------|--------|--------|--------|--------|--------|
A#|--------|--------|--------|--------|--------|--------|--------|--------|--------|
F#|--------|--------|--------|--------|--------|--------|--------|--------|--------|
C#|--------|--------|--------|--------|--------|--------|--------|--------|--------|
G#|--------|--------|--------|--------|--------|--------|--------|--------|--------|
D#|--------|--------|--------|--------|--------|--------|--------|--------|--------|


D#|--------|--------|--------|--------|--------|--------|-14--14--14--14--14--14--14--14--|
A#|--------|--------|--------|--------|--------|--------|-13--13--13--13--13--13--13--13--|
F#|--------|--------|--------|--------|--------|--------|-11--11--11--11--11--11--11--11--|
C#|--------|--------|--------|--------|--------|--------|---------------------------------|
G#|--------|--------|--------|--------|--------|--------|---------------------------------|
D#|--------|--------|--------|--------|--------|--------|---------------------------------|


D#|-13--13--13--13--14--14--14--14--|---------------------------------|---------------------------------|
A#|-12--12--12--12--12--12--12--12--|-14--14--14--14--14--14--14--14--|-12--12--12--12--11--11--11--11--|
F#|-10--10--10--10--11--11--11--11--|-13--13--13--13--13--13--13--13--|-11--11--11--11--10--10--10--10--|
C#|---------------------------------|-11--11--11--11--11--11--11--11--|-9---9---9---9---8---8---8---8---|
G#|---------------------------------|---------------------------------|---------------------------------|
D#|---------------------------------|---------------------------------|---------------------------------|


D#|--------|--------|--------|--------|------------|------------|------------|------------|
A#|--------|--------|--------|--------|-16-----16--|-7------7---|-14-----14--|-12-----12--|
F#|--------|--------|--------|--------|------------|------------|------------|------------|
C#|--------|--------|--------|--------|------------|------------|------------|------------|
G#|--------|--------|--------|--------|------------|------------|------------|------------|
D#|--------|--------|--------|--------|------------|------------|------------|------------|


D#|------------|------------|------------|------------|------------|------------|------------|
A#|-16-----16--|-7------7---|-14-----14--|-12-----12--|-16-----16--|-7------7---|-14-----14--|
F#|------------|------------|------------|------------|------------|------------|------------|
C#|------------|------------|------------|------------|------------|------------|------------|
G#|------------|------------|------------|------------|------------|------------|------------|
D#|------------|------------|------------|------------|------------|------------|------------|


D#|------------|------------|------------|------------|--------|-14--14--14--14--14--14--14--14--|
A#|-12-----12--|-16-----16--|-7------7---|-14-----14--|-12-----|-13--13--13--13--13--13--13--13--|
F#|------------|------------|------------|------------|--------|-11--11--11--11--11--11--11--11--|
C#|------------|------------|------------|------------|--------|---------------------------------|
G#|------------|------------|------------|------------|--------|---------------------------------|
D#|------------|------------|------------|------------|--------|---------------------------------|


D#|-13--13--13--13--14--14--14--14--|---------------------------------|---------------------------------|
A#|-12--12--12--12--12--12--12--12--|-14--14--14--14--14--14--14--14--|-12--12--12--12--11--11--11--11--|
F#|-10--10--10--10--11--11--11--11--|-13--13--13--13--13--13--13--13--|-11--11--11--11--10--10--10--10--|
C#|---------------------------------|-11--11--11--11--11--11--11--11--|-9---9---9---9---8---8---8---8---|
G#|---------------------------------|---------------------------------|---------------------------------|
D#|---------------------------------|---------------------------------|---------------------------------|


D#|--------|--------|--------|--------|--------|--------|--------|--------|--------|
A#|--------|--------|--------|--------|--------|--------|--------|--------|--------|
F#|--------|--------|--------|--------|--------|--------|--------|--------|--------|
C#|--------|--------|--------|--------|--------|--------|--------|--------|--------|
G#|--------|--------|--------|--------|--------|--------|--------|--------|--------|
D#|--------|--------|--------|--------|--------|--------|--------|--------|--------|


D#|--------|--------|--------|--------|--------|--------|--------|--------|--------|
A#|--------|--------|--------|--------|--------|--------|--------|--------|--------|
F#|--------|--------|--------|--------|--------|--------|--------|--------|--------|
C#|--------|--------|--------|--------|--------|--------|--------|--------|--------|
G#|--------|--------|--------|--------|--------|--------|--------|--------|--------|
D#|--------|--------|--------|--------|--------|--------|--------|--------|--------|


D#|--------|--------|-14--14--14--14--14--14--14--14--|-13--13--13--13--14--14--14--14--|
A#|--------|--------|-13--13--13--13--13--13--13--13--|-12--12--12--12--12--12--12--12--|
F#|--------|--------|-11--11--11--11--11--11--11--11--|-10--10--10--10--11--11--11--11--|
C#|--------|--------|---------------------------------|---------------------------------|
G#|--------|--------|---------------------------------|---------------------------------|
D#|--------|--------|---------------------------------|---------------------------------|


D#|---------------------------------|---------------------------------|-14--14--14--14--14--14--14--14--|
A#|-14--14--14--14--14--14--14--14--|-12--12--12--12--11--11--11--11--|-13--13--13--13--13--13--13--13--|
F#|-13--13--13--13--13--13--13--13--|-11--11--11--11--10--10--10--10--|-11--11--11--11--11--11--11--11--|
C#|-11--11--11--11--11--11--11--11--|-9---9---9---9---8---8---8---8---|---------------------------------|
G#|---------------------------------|---------------------------------|---------------------------------|
D#|---------------------------------|---------------------------------|---------------------------------|


D#|-13--13--13--13--14--14--14--14--|---------------------------------|---------------------------------|
A#|-12--12--12--12--12--12--12--12--|-14--14--14--14--14--14--14--14--|-12--12--12--12--11--11--11--11--|
F#|-10--10--10--10--11--11--11--11--|-13--13--13--13--13--13--13--13--|-11--11--11--11--10--10--10--10--|
C#|---------------------------------|-11--11--11--11--11--11--11--11--|-9---9---9---9---8---8---8---8---|
G#|---------------------------------|---------------------------------|---------------------------------|
D#|---------------------------------|---------------------------------|---------------------------------|


D#|--------|--------|--------|--------|--------|--------|--------|--------|
A#|--------|--------|--------|--------|--------|--------|--------|--------|
F#|--------|--------|--------|--------|--------|--------|--------|--------|
C#|--------|--------|--------|--------|--------|--------|--------|--------|
G#|--------|--------|--------|--------|--------|--------|--------|--------|
D#|--------|--------|--------|--------|--------|--------|--------|--------|





Track 4: Synth 2

D#|--------|--------|--------|--------|--------|--------|--------|--------|--------|
A#|--------|--------|--------|--------|--------|--------|--------|--------|--------|
F#|--------|--------|--------|--------|--------|--------|--------|--------|--------|
C#|--------|--------|--------|--------|--------|--------|--------|--------|--------|
G#|--------|--------|--------|--------|--------|--------|--------|--------|--------|
D#|--------|--------|--------|--------|--------|--------|--------|--------|--------|


D#|--------|--------|--------|--------|--------|--------|--------|--------|--------|
A#|--------|--------|--------|--------|--------|--------|--------|--------|--------|
F#|--------|--------|--------|--------|--------|--------|--------|--------|--------|
C#|--------|--------|--------|--------|--------|--------|--------|--------|--------|
G#|--------|--------|--------|--------|--------|--------|--------|--------|--------|
D#|--------|--------|--------|--------|--------|--------|--------|--------|--------|


D#|--------|--------|--------|--------|--------|--------|--------|--------|--------|
A#|--------|--------|--------|--------|--------|--------|--------|--------|--------|
F#|--------|--------|--------|--------|--------|--------|--------|--------|--------|
C#|--------|--------|--------|--------|--------|--------|--------|--------|--------|
G#|--------|--------|--------|--------|--------|--------|--------|--------|--------|
D#|--------|--------|--------|--------|--------|--------|--------|--------|--------|


D#|--------|--------|--------|--------|--------|--------|--------|--------|--------|
A#|--------|--------|--------|--------|--------|--------|--------|--------|--------|
F#|--------|--------|--------|--------|--------|--------|--------|--------|--------|
C#|--------|--------|--------|--------|--------|--------|--------|--------|--------|
G#|--------|--------|--------|--------|--------|--------|--------|--------|--------|
D#|--------|--------|--------|--------|--------|--------|--------|--------|--------|


D#|--------|--------|--------|--------|--------|--------|--------|--------|--------|
A#|--------|--------|--------|--------|--------|--------|--------|--------|--------|
F#|--------|--------|--------|--------|--------|--------|--------|--------|--------|
C#|--------|--------|--------|--------|--------|--------|--------|--------|--------|
G#|--------|--------|--------|--------|--------|--------|--------|--------|--------|
D#|--------|--------|--------|--------|--------|--------|--------|--------|--------|


D#|--------|--------|--------|--------|--------|--------|--------|--------|--------|
A#|--------|--------|--------|--------|--------|--------|--------|--------|--------|
F#|--------|--------|--------|--------|--------|--------|--------|--------|--------|
C#|--------|--------|--------|--------|--------|--------|--------|--------|--------|
G#|--------|--------|--------|--------|--------|--------|--------|--------|--------|
D#|--------|--------|--------|--------|--------|--------|--------|--------|--------|


D#|--------|--------|--------|--------|--------|--------|--------|--------|--------|
A#|--------|--------|--------|--------|--------|--------|--------|--------|--------|
F#|--------|--------|-11-----|-11-----|-11-----|-11-----|--------|--------|--------|
C#|--------|--------|--------|--------|--------|--------|--------|--------|--------|
G#|--------|--------|-9------|-9------|-9------|-9------|--------|--------|--------|
D#|--------|--------|--------|--------|--------|--------|--------|--------|--------|


D#|--------|--------|--------|--------|--------|--------|--------|--------|--------|
A#|--------|--------|--------|--------|--------|--------|--------|--------|--------|
F#|--------|--------|--------|--------|--------|--------|--------|--------|--------|
C#|--------|--------|--------|--------|--------|--------|--------|--------|--------|
G#|--------|--------|--------|--------|--------|--------|--------|--------|--------|
D#|--------|--------|--------|--------|--------|--------|--------|--------|--------|


D#|--------|--------|--------|--------|--------|--------|--------|--------|--------|
A#|--------|--------|--------|--------|--------|--------|--------|--------|--------|
F#|--------|--------|--------|--------|--------|--------|--------|--------|--------|
C#|--------|--------|--------|--------|--------|--------|--------|--------|--------|
G#|--------|--------|--------|--------|--------|--------|--------|--------|--------|
D#|--------|--------|--------|--------|--------|--------|--------|--------|--------|


D#|--------|--------|--------|--------|--------|--------|--------|--------|--------|
A#|--------|--------|--------|--------|--------|--------|--------|--------|--------|
F#|--------|--------|--------|--------|--------|--------|--------|--------|--------|
C#|--------|--------|--------|--------|--------|--------|--------|--------|--------|
G#|--------|--------|--------|--------|--------|--------|--------|--------|--------|
D#|--------|--------|--------|--------|--------|--------|--------|--------|--------|


D#|--------|--------|--------|--------|--------|--------|--------|--------|--------|
A#|--------|--------|--------|--------|--------|--------|--------|--------|--------|
F#|--------|--------|--------|--------|--------|--------|--------|--------|--------|
C#|--------|--------|--------|--------|--------|--------|--------|--------|--------|
G#|--------|--------|--------|--------|--------|--------|--------|--------|--------|
D#|--------|--------|--------|--------|--------|--------|--------|--------|--------|


D#|--------|--------|--------|--------|--------|--------|--------|--------|--------|
A#|--------|--------|--------|--------|--------|--------|--------|--------|--------|
F#|--------|--------|--------|--------|--------|--------|--------|--------|--------|
C#|--------|--------|--------|--------|--------|--------|--------|--------|--------|
G#|--------|--------|--------|--------|--------|--------|--------|--------|--------|
D#|--------|--------|--------|--------|--------|--------|--------|--------|--------|


D#|--------|--------|--------|--------|--------|--------|--------|--------|
A#|--------|--------|--------|--------|--------|--------|--------|--------|
F#|--------|--------|--------|--------|--------|--------|--------|--------|
C#|--------|--------|--------|--------|--------|--------|--------|--------|
G#|--------|--------|--------|--------|--------|--------|--------|--------|
D#|--------|--------|--------|--------|--------|--------|--------|--------|





Track 5: rhythm 1 (L)

D#|--------|--------|--------|--------|--------|--------|--------|--------|--------|
A#|--------|--------|--------|--------|--------|--------|--------|--------|--------|
F#|--------|--------|--------|--------|--------|--------|--------|--------|--------|
C#|--------|--------|--------|--------|--------|--------|--------|--------|--------|
G#|--------|--------|--------|--------|--------|--------|--------|--------|--------|
D#|--------|--------|--------|--------|--------|--------|--------|--------|--------|


D#|--------|--------|--------|--------|--------|--------|--------|--------|--------|
A#|--------|--------|--------|--------|--------|--------|--------|--------|--------|
F#|--------|--------|--------|--------|--------|--------|--------|--------|--------|
C#|--------|--------|--------|--------|--------|--------|--------|--------|--------|
G#|--------|--------|--------|--------|--------|--------|--------|--------|--------|
D#|--------|--------|--------|--------|--------|--------|--------|--------|--------|


D#|--------|--------|--------|--------|--------|--------|--------|--------|--------|
A#|--------|--------|--------|--------|--------|--------|--------|--------|--------|
F#|--------|--------|--------|--------|--------|--------|--------|--------|--------|
C#|--------|--------|--------|--------|--------|--------|--------|--------|--------|
G#|--------|--------|--------|--------|--------|--------|--------|--------|--------|
D#|--------|--------|--------|--------|--------|--------|--------|--------|--------|


D#|--------|--------|--------|--------|--------|--------|--------|--------|--------|
A#|--------|--------|--------|--------|--------|--------|--------|--------|--------|
F#|--------|--------|--------|--------|--------|--------|--------|--------|--------|
C#|--------|--------|--------|--------|--------|--------|--------|--------|--------|
G#|--------|--------|--------|--------|--------|--------|--------|--------|--------|
D#|--------|--------|--------|--------|--------|--------|--------|--------|--------|


D#|--------|--------|--------|--------|--------|--------|--------|--------|--------|
A#|--------|--------|--------|--------|--------|--------|--------|--------|--------|
F#|--------|--------|--------|--------|--------|--------|--------|--------|--------|
C#|--------|--------|--------|--------|--------|--------|--------|--------|--------|
G#|--------|--------|--------|--------|--------|--------|--------|--------|--------|
D#|--------|--------|--------|--------|--------|--------|--------|--------|--------|


D#|--------|--------|--------|--------|--------|--------|--------|--------|--------|
A#|--------|--------|--------|--------|--------|--------|--------|--------|--------|
F#|--------|--------|--------|--------|--------|--------|--------|--------|--------|
C#|--------|--------|--------|--------|--------|--------|--------|--------|--------|
G#|--------|--------|--------|--------|--------|--------|--------|--------|--------|
D#|--------|--------|--------|--------|--------|--------|--------|--------|--------|


D#|--------|--------|--------|--------|--------|--------|--------|--------|--------|
A#|--------|--------|-19-----|-19-----|-19-----|--------|--------|--------|--------|
F#|--------|--------|--------|--------|--------|--------|--------|--------|--------|
C#|--------|--------|--------|--------|--------|--------|--------|--------|--------|
G#|--------|--------|--------|--------|--------|--------|--------|--------|--------|
D#|--------|--------|--------|--------|--------|--------|--------|--------|--------|


D#|--------|--------|--------|--------|--------|--------|--------|--------|--------|
A#|--------|--------|--------|--------|--------|--------|--------|--------|--------|
F#|--------|--------|--------|--------|--------|--------|--------|--------|--------|
C#|--------|--------|--------|--------|--------|--------|--------|--------|--------|
G#|--------|--------|--------|--------|--------|--------|--------|--------|--------|
D#|--------|--------|--------|--------|--------|--------|--------|--------|--------|


D#|--------|--------|--------|--------|--------|--------|--------|--------|--------|
A#|--------|--------|--------|--------|--------|--------|--------|--------|--------|
F#|--------|--------|--------|--------|--------|--------|--------|--------|--------|
C#|--------|--------|--------|--------|--------|--------|--------|--------|--------|
G#|--------|--------|--------|--------|--------|--------|--------|--------|--------|
D#|--------|--------|--------|--------|--------|--------|--------|--------|--------|


D#|--------|--------|--------|--------|--------|--------|--------|--------|--------|
A#|--------|--------|--------|--------|--------|--------|--------|--------|--------|
F#|--------|--------|--------|--------|--------|--------|--------|--------|--------|
C#|--------|--------|--------|--------|--------|--------|--------|--------|--------|
G#|--------|--------|--------|--------|--------|--------|--------|--------|--------|
D#|--------|--------|--------|--------|--------|--------|--------|--------|--------|


D#|--------|--------|--------|--------|--------|--------|--------|--------|--------|
A#|--------|--------|--------|--------|--------|--------|--------|--------|--------|
F#|--------|--------|--------|--------|--------|--------|--------|--------|--------|
C#|--------|--------|--------|--------|--------|--------|--------|--------|--------|
G#|--------|--------|--------|--------|--------|--------|--------|--------|--------|
D#|--------|--------|--------|--------|--------|--------|--------|--------|--------|


D#|--------|--------|--------|--------|--------|--------|--------|--------|--------|
A#|--------|--------|--------|--------|--------|--------|--------|--------|--------|
F#|--------|--------|--------|--------|--------|--------|--------|--------|--------|
C#|--------|--------|--------|--------|--------|--------|--------|--------|--------|
G#|--------|--------|--------|--------|--------|--------|--------|--------|--------|
D#|--------|--------|--------|--------|--------|--------|--------|--------|--------|


D#|--------|--------|--------|--------|--------|--------|--------|--------|
A#|--------|--------|--------|--------|--------|--------|--------|--------|
F#|--------|--------|--------|--------|--------|--------|--------|--------|
C#|--------|--------|--------|--------|--------|--------|--------|--------|
G#|--------|--------|--------|--------|--------|--------|--------|--------|
D#|--------|--------|--------|--------|--------|--------|--------|--------|





Track 6: rhythm 1 (L)

D#|--------|--------|--------|--------|--------|--------|--------|--------|--------|
A#|--------|--------|--------|--------|--------|--------|--------|--------|--------|
F#|--------|--------|--------|--------|--------|--------|--------|--------|--------|
C#|--------|--------|--------|--------|--------|--------|--------|--------|--------|
G#|--------|--------|--------|--------|--------|--------|--------|--------|--------|
D#|--------|--------|--------|--------|--------|--------|--------|--------|--------|


D#|--------|--------|--------|--------|--------|--------|--------|--------|--------|
A#|--------|--------|--------|--------|--------|--------|--------|--------|--------|
F#|--------|--------|--------|--------|--------|--------|--------|--------|--------|
C#|--------|--------|--------|--------|--------|--------|--------|--------|--------|
G#|--------|--------|--------|--------|--------|--------|--------|--------|--------|
D#|--------|--------|--------|--------|--------|--------|--------|--------|--------|


D#|--------|--------|--------|--------|--------|--------|--------|--------|--------|
A#|--------|--------|--------|--------|--------|--------|--------|--------|--------|
F#|--------|--------|--------|--------|--------|--------|--------|--------|--------|
C#|--------|--------|--------|--------|--------|--------|--------|--------|--------|
G#|--------|--------|--------|--------|--------|--------|--------|--------|--------|
D#|--------|--------|--------|--------|--------|--------|--------|--------|--------|


D#|--------|--------|--------|--------|--------|--------|--------|--------|--------|
A#|--------|--------|--------|--------|--------|--------|--------|--------|--------|
F#|--------|--------|--------|--------|--------|--------|--------|--------|--------|
C#|--------|--------|--------|--------|--------|--------|--------|--------|--------|
G#|--------|--------|--------|--------|--------|--------|--------|--------|--------|
D#|--------|--------|--------|--------|--------|--------|--------|--------|--------|


D#|--------|--------|--------|--------|--------|--------|--------|--------|--------|
A#|--------|--------|--------|--------|--------|--------|--------|--------|--------|
F#|--------|--------|--------|--------|--------|--------|--------|--------|--------|
C#|--------|--------|--------|--------|--------|--------|--------|--------|--------|
G#|--------|--------|--------|--------|--------|--------|--------|--------|--------|
D#|--------|--------|--------|--------|--------|--------|--------|--------|--------|


D#|--------|--------|--------|--------|--------|--------|--------|--------|--------|
A#|--------|--------|--------|--------|--------|--------|--------|--------|--------|
F#|--------|--------|--------|--------|--------|--------|--------|--------|--------|
C#|--------|--------|--------|--------|--------|--------|--------|--------|--------|
G#|--------|--------|--------|--------|--------|--------|--------|--------|--------|
D#|--------|--------|--------|--------|--------|--------|--------|--------|--------|


D#|--------|--------|--------|--------|--------|--------|---------------------|---------------------|
A#|--------|--------|--------|--------|--------|--------|----------------11---|-11---9----9---------|
F#|--------|--------|--------|--------|--------|--------|-----------11--------|----------------11---|
C#|--------|--------|--------|--------|--------|--------|------11-------------|---------------------|
G#|--------|--------|--------|--------|--------|--------|-11------------------|-9-------------------|
D#|--------|--------|--------|--------|--------|--------|---------------------|---------------------|


D#|---------------------|---------------------|---------------------|---------------------|
A#|----------------12---|-12---11---11--------|-12-------------11---|-11---9----9---------|
F#|-11--------11--------|----------------13---|-----------11--------|----------------11---|
C#|------11-------------|---------------------|------11-------------|---------------------|
G#|-14------------------|-13------------------|-11------------------|-9-------------------|
D#|---------------------|---------------------|---------------------|---------------------|


D#|---------------------|-9-------------------|---------------------|---------------------|
A#|----------------11---|------9----12---11---|-11-------------11---|-11---9----9---------|
F#|-11--------11--------|---------------------|-----------11--------|----------------11---|
C#|------11-------------|---------------------|------11-------------|---------------------|
G#|---------------------|---------------------|-11------------------|-9-------------------|
D#|-9-------------------|-9-------------------|---------------------|---------------------|


D#|---------------------|---------------------|---------------------|---------------------|
A#|----------------12---|-12---11---11--------|-12-------------11---|-11---9----9---------|
F#|-11--------11--------|----------------13---|-----------11--------|----------------11---|
C#|------11-------------|---------------------|------11-------------|---------------------|
G#|-14------------------|-13------------------|-11------------------|-9-------------------|
D#|---------------------|---------------------|---------------------|---------------------|


D#|---------------------|-9-------------------|--------|--------|--------|--------|
A#|----------------11---|------9----12---11---|--------|--------|--------|--------|
F#|-11--------11--------|---------------------|--------|--------|--------|--------|
C#|------11-------------|---------------------|--------|--------|--------|--------|
G#|---------------------|---------------------|--------|--------|--------|--------|
D#|-9-------------------|-9-------------------|--------|--------|--------|--------|


D#|--------|--------|--------|--------|--------|--------|--------|--------|--------|
A#|--------|--------|--------|--------|--------|--------|--------|--------|--------|
F#|--------|--------|--------|--------|--------|--------|--------|--------|--------|
C#|--------|--------|--------|--------|--------|--------|--------|--------|--------|
G#|--------|--------|--------|--------|--------|--------|--------|--------|--------|
D#|--------|--------|--------|--------|--------|--------|--------|--------|--------|


D#|--------|--------|--------|--------|--------|--------|--------|--------|--------|
A#|--------|--------|--------|--------|--------|--------|--------|--------|--------|
F#|--------|--------|--------|--------|--------|--------|--------|--------|--------|
C#|--------|--------|--------|--------|--------|--------|--------|--------|--------|
G#|--------|--------|--------|--------|--------|--------|--------|--------|--------|
D#|--------|--------|--------|--------|--------|--------|--------|--------|--------|


D#|--------|--------|--------|--------|--------|--------|--------|--------|--------|
A#|--------|--------|--------|--------|--------|--------|--------|--------|--------|
F#|--------|--------|--------|--------|--------|--------|--------|--------|--------|
C#|--------|--------|--------|--------|--------|--------|--------|--------|--------|
G#|--------|--------|--------|--------|--------|--------|--------|--------|--------|
D#|--------|--------|--------|--------|--------|--------|--------|--------|--------|


D#|--------|--------|--------|--------|--------|--------|--------|--------|--------|
A#|--------|--------|--------|--------|--------|--------|--------|--------|--------|
F#|--------|--------|--------|--------|--------|--------|--------|--------|--------|
C#|--------|--------|--------|--------|--------|--------|--------|--------|--------|
G#|--------|--------|--------|--------|--------|--------|--------|--------|--------|
D#|--------|--------|--------|--------|--------|--------|--------|--------|--------|





Track 7: rhythm 1 (L)

D#|--------|--------|--------|--------|--------|--------|--------|--------|--------|
A#|--------|--------|--------|--------|--------|--------|--------|--------|--------|
F#|--------|--------|--------|--------|--------|--------|--------|--------|--------|
C#|--------|--------|--------|--------|--------|--------|--------|--------|--------|
G#|--------|--------|--------|--------|--------|--------|--------|--------|--------|
D#|--------|--------|--------|--------|--------|--------|--------|--------|--------|


D#|--------|--------|--------|--------|--------|--------|--------|--------|--------|
A#|--------|--------|--------|--------|--------|--------|--------|--------|--------|
F#|--------|--------|--------|--------|--------|--------|--------|--------|--------|
C#|--------|--------|--------|--------|--------|--------|--------|--------|--------|
G#|--------|--------|--------|--------|--------|--------|--------|--------|--------|
D#|--------|--------|--------|--------|--------|--------|--------|--------|--------|


D#|--------|--------|--------|--------|--------|--------|--------|--------|--------|
A#|--------|--------|--------|--------|--------|--------|--------|--------|--------|
F#|--------|--------|--------|--------|--------|--------|--------|--------|--------|
C#|--------|--------|--------|--------|--------|--------|--------|--------|--------|
G#|--------|--------|--------|--------|--------|--------|--------|--------|--------|
D#|--------|--------|--------|--------|--------|--------|--------|--------|--------|


D#|--------|--------|--------|--------|--------|--------|--------|--------|--------|
A#|--------|--------|--------|--------|--------|--------|--------|--------|--------|
F#|--------|--------|--------|--------|--------|--------|--------|--------|--------|
C#|--------|--------|--------|--------|--------|--------|--------|--------|--------|
G#|--------|--------|--------|--------|--------|--------|--------|--------|--------|
D#|--------|--------|--------|--------|--------|--------|--------|--------|--------|


D#|--------|--------|--------|--------|--------|--------|--------|--------|--------|
A#|--------|--------|--------|--------|--------|--------|--------|--------|--------|
F#|--------|--------|--------|--------|--------|--------|--------|--------|--------|
C#|--------|--------|--------|--------|--------|--------|--------|--------|--------|
G#|--------|--------|--------|--------|--------|--------|--------|--------|--------|
D#|--------|--------|--------|--------|--------|--------|--------|--------|--------|


D#|--------|--------|--------|--------|--------|--------|--------|--------|--------|
A#|--------|--------|--------|--------|--------|--------|--------|--------|--------|
F#|--------|--------|--------|--------|--------|--------|--------|--------|--------|
C#|--------|--------|--------|--------|--------|--------|--------|--------|--------|
G#|--------|--------|--------|--------|--------|--------|--------|--------|--------|
D#|--------|--------|--------|--------|--------|--------|--------|--------|--------|


D#|--------|--------|--------|--------|--------|--------|--------|--------|--------|
A#|--------|--------|--------|--------|--------|--------|--------|--------|--------|
F#|--------|--------|--------|--------|--------|--------|--------|--------|--------|
C#|--------|--------|--------|--------|--------|--------|--------|--------|--------|
G#|--------|--------|--------|--------|--------|--------|--------|--------|--------|
D#|--------|--------|--------|--------|--------|--------|--------|--------|--------|


D#|--------|--------|--------|--------|--------|--------|--------|--------|--------|
A#|--------|--------|--------|--------|--------|--------|--------|--------|--------|
F#|--------|--------|--------|--------|--------|--------|--------|--------|--------|
C#|--------|--------|--------|--------|--------|--------|--------|--------|--------|
G#|--------|--------|--------|--------|--------|--------|--------|--------|--------|
D#|--------|--------|--------|--------|--------|--------|--------|--------|--------|


D#|--------|--------|--------|--------|--------|--------|--------|--------|--------|
A#|--------|--------|--------|--------|--------|--------|--------|--------|--------|
F#|--------|--------|--------|--------|--------|--------|--------|--------|--------|
C#|--------|--------|--------|--------|--------|--------|--------|--------|--------|
G#|--------|--------|--------|--------|--------|--------|--------|--------|--------|
D#|--------|--------|--------|--------|--------|--------|--------|--------|--------|


D#|--------|--------|--------|--------|--------|--------|--------|--------|--------|
A#|--------|--------|--------|--------|--------|--------|--------|--------|--------|
F#|--------|--------|--------|--------|--------|--------|--------|--------|--------|
C#|--------|--------|--------|--------|--------|--------|--------|--------|--------|
G#|--------|--------|--------|--------|--------|--------|--------|--------|--------|
D#|--------|--------|--------|--------|--------|--------|--------|--------|--------|


D#|--------|--------|--------|--------|--------|--------|--------|--------|--------|
A#|--------|--------|--------|--------|--------|--------|--------|--------|--------|
F#|--------|--------|--------|--------|--------|--------|--------|--------|--------|
C#|--------|--------|--------|--------|--------|--------|--------|--------|--------|
G#|--------|--------|--------|--------|--------|--------|--------|--------|--------|
D#|--------|--------|--------|--------|--------|--------|--------|--------|--------|


D#|--------|--------|--------|--------|--------|--------|--------|--------|--------|
A#|--------|--------|--------|--------|--------|--------|--------|--------|--------|
F#|--------|--------|--------|--------|--------|--------|--------|--------|--------|
C#|--------|--------|--------|--------|--------|--------|--------|--------|--------|
G#|--------|--------|--------|--------|--------|--------|--------|--------|--------|
D#|--------|--------|--------|--------|--------|--------|--------|--------|--------|


D#|--------|--------|--------|--------|--------|--------|--------|--------|
A#|--------|--------|--------|--------|--------|--------|--------|--------|
F#|--------|--------|--------|--------|--------|--------|--------|--------|
C#|--------|--------|--------|--------|--------|--------|--------|--------|
G#|--------|--------|--------|--------|--------|--------|--------|--------|
D#|--------|--------|--------|--------|--------|--------|--------|--------|





Track 8: rhythm 1 (L)

D#|--------|--------|--------|--------|--------|--------|--------|--------|--------|
A#|--------|--------|--------|--------|--------|--------|--------|--------|--------|
F#|--------|--------|--------|--------|--------|--------|--------|--------|--------|
C#|--------|--------|--------|--------|--------|--------|--------|--------|--------|
G#|--------|--------|--------|--------|--------|--------|--------|--------|--------|
D#|--------|--------|--------|--------|--------|--------|--------|--------|--------|


D#|--------|--------|--------|--------|--------|--------|--------|--------|--------|
A#|--------|--------|--------|--------|--------|--------|--------|--------|--------|
F#|--------|--------|--------|--------|--------|--------|--------|--------|--------|
C#|--------|--------|--------|--------|--------|--------|--------|--------|--------|
G#|--------|--------|--------|--------|--------|--------|--------|--------|--------|
D#|--------|--------|--------|--------|--------|--------|--------|--------|--------|


D#|--------|--------|--------|--------|--------|--------|--------|--------|--------|
A#|--------|--------|--------|--------|--------|--------|--------|--------|--------|
F#|--------|--------|--------|--------|--------|--------|--------|--------|--------|
C#|--------|--------|--------|--------|--------|--------|--------|--------|--------|
G#|--------|--------|--------|--------|--------|--------|--------|--------|--------|
D#|--------|--------|--------|--------|--------|--------|--------|--------|--------|


D#|--------|--------|--------|--------|--------|--------|--------|--------|--------|
A#|--------|--------|--------|--------|--------|--------|--------|--------|--------|
F#|--------|--------|--------|--------|--------|--------|--------|--------|--------|
C#|--------|--------|--------|--------|--------|--------|--------|--------|--------|
G#|--------|--------|--------|--------|--------|--------|--------|--------|--------|
D#|--------|--------|--------|--------|--------|--------|--------|--------|--------|


D#|--------|--------|--------|--------|--------|--------|--------|--------|--------|
A#|--------|--------|--------|--------|--------|--------|--------|--------|--------|
F#|--------|--------|--------|--------|--------|--------|--------|--------|--------|
C#|--------|--------|--------|--------|--------|--------|--------|--------|--------|
G#|--------|--------|--------|--------|--------|--------|--------|--------|--------|
D#|--------|--------|--------|--------|--------|--------|--------|--------|--------|


D#|--------|--------|--------|--------|--------|--------|--------|--------|--------|
A#|--------|--------|--------|--------|--------|--------|--------|--------|--------|
F#|--------|--------|--------|--------|--------|--------|--------|--------|--------|
C#|--------|--------|--------|--------|--------|--------|--------|--------|--------|
G#|--------|--------|--------|--------|--------|--------|--------|--------|--------|
D#|--------|--------|--------|--------|--------|--------|--------|--------|--------|


D#|--------|--------|--------|--------|--------|--------|--------|--------|--------|
A#|--------|--------|--------|--------|--------|--------|--------|--------|--------|
F#|--------|--------|--------|--------|--------|--------|--------|--------|--------|
C#|--------|--------|--------|--------|--------|--------|--------|--------|--------|
G#|--------|--------|--------|--------|--------|--------|--------|--------|--------|
D#|--------|--------|--------|--------|--------|--------|--------|--------|--------|


D#|--------|--------|--------|--------|--------|--------|--------|--------|--------|
A#|--------|--------|--------|--------|--------|--------|--------|--------|--------|
F#|--------|--------|--------|--------|--------|--------|--------|--------|--------|
C#|--------|--------|--------|--------|--------|--------|--------|--------|--------|
G#|--------|--------|--------|--------|--------|--------|--------|--------|--------|
D#|--------|--------|--------|--------|--------|--------|--------|--------|--------|


D#|--------|--------|--------|--------|--------|--------|--------|--------|--------|
A#|--------|--------|--------|--------|-19-----|-19-----|--------|--------|--------|
F#|--------|--------|--------|--------|--------|--------|--------|--------|--------|
C#|--------|--------|--------|--------|--------|--------|--------|--------|--------|
G#|--------|--------|--------|--------|--------|--------|--------|--------|--------|
D#|--------|--------|--------|--------|--------|--------|--------|--------|--------|


D#|--------|--------|--------|--------|--------|--------|--------|--------|--------|
A#|--------|--------|--------|--------|--------|--------|--------|--------|--------|
F#|--------|--------|--------|--------|--------|--------|--------|--------|--------|
C#|--------|--------|--------|--------|--------|--------|--------|--------|--------|
G#|--------|--------|--------|--------|--------|--------|--------|--------|--------|
D#|--------|--------|--------|--------|--------|--------|--------|--------|--------|


D#|--------|--------|--------|--------|--------|--------|--------|--------|--------|
A#|--------|--------|--------|--------|--------|--------|--------|--------|--------|
F#|--------|--------|--------|--------|--------|--------|--------|--------|--------|
C#|--------|--------|--------|--------|--------|--------|--------|--------|--------|
G#|--------|--------|--------|--------|--------|--------|--------|--------|--------|
D#|--------|--------|--------|--------|--------|--------|--------|--------|--------|


D#|--------|--------|--------|--------|--------|--------|--------|--------|--------|
A#|--------|--------|--------|--------|--------|--------|--------|--------|--------|
F#|--------|--------|--------|--------|--------|--------|--------|--------|--------|
C#|--------|--------|--------|--------|--------|--------|--------|--------|--------|
G#|--------|--------|--------|--------|--------|--------|--------|--------|--------|
D#|--------|--------|--------|--------|--------|--------|--------|--------|--------|


D#|--------|--------|--------|--------|--------|--------|--------|--------|
A#|--------|--------|--------|--------|--------|--------|--------|--------|
F#|--------|--------|--------|--------|--------|--------|--------|--------|
C#|--------|--------|--------|--------|--------|--------|--------|--------|
G#|--------|--------|--------|--------|--------|--------|--------|--------|
D#|--------|--------|--------|--------|--------|--------|--------|--------|





Track 9: bass

F#|--------|--------|--------|-------------|---------------------------------|---------------------------------|
C#|--------|--------|--------|-------------|---------------------------------|---------------------------------|
G#|--------|--------|--------|--------4----|-9---9-------9---9---9-------9---|-9---9-------9---9---9-------9---|
D#|--------|--------|--------|-------------|---------------------------------|---------------------------------|


F#|---------------------------------|---------------------------------|---------------------------------|
C#|---------------------------------|---------------------------------|---------------------------------|
G#|-9---9-------9---9---9-------9---|-9---9-------9---9---9-------9---|-6---6-------6---6---6-------6---|
D#|---------------------------------|---------------------------------|---------------------------------|


F#|---------------------------------|---------------------------------|---------------------------------|
C#|---------------------------------|---------------------------------|---------------------------------|
G#|---------------------------------|---------------------------------|---------------------------------|
D#|-7---7-------7---7---7-------7---|-9---9-------9---9---9-------9---|-9---9-------9---9---9-------9---|


F#|---------------------------------|---------------------------------|---------------------------------|
C#|---------------------------------|---------------------------------|---------------------------------|
G#|-9---9-------9---9---9-------9---|-9---9-------9---9---9-------9---|-9---9-------9---9---9-------9---|
D#|---------------------------------|---------------------------------|---------------------------------|


F#|---------------------------------|---------------------------------|---------------------------------|
C#|---------------------------------|---------------------------------|---------------------------------|
G#|-9---9-------9---9---9-------9---|-6---6-------6---6---6-------6---|---------------------------------|
D#|---------------------------------|---------------------------------|-7---7-------7---7---7-------7---|


F#|---------------------------------|---------------------------------|---------------------------------|
C#|---------------------------------|---------------------------------|---------------------------------|
G#|---------------------------------|---------------------------------|-9---9-------9---9---9-------9---|
D#|-9---9-------9---9---9-------9---|-9---9-------9---9---9-------9---|---------------------------------|


F#|---------------------------------|---------------------------------|---------------------------------|
C#|---------------------------------|---------------------------------|---------------------------------|
G#|-9---9-------9---9---9-------9---|-9---9-------9---9---9-------9---|-9---9-------9---9---9-------9---|
D#|---------------------------------|---------------------------------|---------------------------------|


F#|---------------------------------|---------------------------------|---------------------------------|
C#|---------------------------------|---------------------------------|---------------------------------|
G#|-6---6-------6---6---6-------6---|---------------------------------|---------------------------------|
D#|---------------------------------|-7---7-------7---7---7-------7---|-9---9-------9---9---9-------9---|


F#|---------------------------------|---------------------------------|---------------------------------|
C#|---------------------------------|---------------------------------|---------------------------------|
G#|---------------------------------|---------------------------------|---------------------------------|
D#|-9---9-------9---9---9-------9---|-7---7---7---7---7---7---7---7---|-7---7---7---7---7---7---7---7---|


F#|---------------------------------|---------------------------------|---------------------------------|
C#|---------------------------------|---------------------------------|---------------------------------|
G#|---------------------------------|---------------------------------|-9---9-------9---9---9-------9---|
D#|-9---9---9---9---9---9---9---9---|-9---9---9---9---9---9---9---9---|---------------------------------|


F#|---------------------------------|---------------------------------|---------------------------------|
C#|---------------------------------|---------------------------------|---------------------------------|
G#|-9---9-------9---9---9-------9---|-9---9-------9---9---9-------9---|-9---9-------9---9---9-------9---|
D#|---------------------------------|---------------------------------|---------------------------------|


F#|---------------------------------|---------------------------------|---------------------------------|
C#|---------------------------------|---------------------------------|---------------------------------|
G#|-9---9-------9---9---9-------9---|-9---9-------9---9---9-------9---|-9---9-------9---9---9-------9---|
D#|---------------------------------|---------------------------------|---------------------------------|


F#|---------------------------------|---------------------------------|---------------------------------|
C#|---------------------------------|---------------------------------|---------------------------------|
G#|-9---9-------9---9---9-------9---|-6---6-------6---6---6-------6---|---------------------------------|
D#|---------------------------------|---------------------------------|-7---7-------7---7---7-------7---|


F#|---------------------------------|---------------------------------|---------------------------------|
C#|---------------------------------|---------------------------------|---------------------------------|
G#|---------------------------------|---------------------------------|-9---9-------9---9---9-------9---|
D#|-9---9-------9---9---9-------9---|-9---9-------9---9---9-------9---|---------------------------------|


F#|---------------------------------|---------------------------------|---------------------------------|
C#|---------------------------------|---------------------------------|---------------------------------|
G#|-9---9-------9---9---9-------9---|-9---9-------9---9---9-------9---|-9---9-------9---9---9-------9---|
D#|---------------------------------|---------------------------------|---------------------------------|


F#|---------------------------------|---------------------------------|---------------------------------|
C#|---------------------------------|---------------------------------|---------------------------------|
G#|-6---6-------6---6---6-------6---|---------------------------------|---------------------------------|
D#|---------------------------------|-7---7-------7---7---7-------7---|-9---9-------9---9---9-------9---|


F#|---------------------------------|---------------------------------|---------------------------------|
C#|---------------------------------|---------------------------------|---------------------------------|
G#|---------------------------------|---------------------------------|---------------------------------|
D#|-9---9-------9---9---9-------9---|-7---7---7---7---7---7---7---7---|-7---7---7---7---7---7---7---7---|


F#|---------------------------------|---------------------------------|---------------------------------|
C#|---------------------------------|---------------------------------|---------------------------------|
G#|---------------------------------|---------------------------------|-9---9-------9---9---9-------9---|
D#|-9---9---9---9---9---9---9---9---|-9---9---9---9---9---9---9---9---|---------------------------------|


F#|---------------------------------|---------------------------------|---------------------------------|
C#|---------------------------------|---------------------------------|---------------------------------|
G#|-9---9-------9---9---9-------9---|---------------------------------|---------------------------------|
D#|---------------------------------|-2---2-------2---2---2-------2---|-2---2-------2---2---2-------2---|


F#|---------------------------------|---------------------------------|---------------------------------|
C#|---------------------------------|---------------------------------|---------------------------------|
G#|-6---6-------6---6---6-------6---|-9---9-------9---9---9-------9---|-6---6-------6---6---6-------6---|
D#|---------------------------------|---------------------------------|---------------------------------|


F#|---------------------------------|---------------------------------|---------------------------------|
C#|---------------------------------|---------------------------------|---------------------------------|
G#|-9---9-------9---9---9-------9---|-6---6-------6---6---6-------6---|-9---9-------9---9---9-------9---|
D#|---------------------------------|---------------------------------|---------------------------------|


F#|---------------------------------|---------------------------------|---------------------------------|
C#|---------------------------------|---------------------------------|---------------------------------|
G#|---------------------------------|---------------------------------|-6---6-------6---6---6-------6---|
D#|-9---9-------9---9---9-------9---|-9---9-------9---9---9-------9---|---------------------------------|


F#|---------------------------------|---------------------------------|---------------------------------|
C#|---------------------------------|---------------------------------|---------------------------------|
G#|-9---9-------9---9---9-------9---|-6---6-------6---6---6-------6---|-9---9-------9---9---9-------9---|
D#|---------------------------------|---------------------------------|---------------------------------|


F#|---------------------------------|---------------------------------|---------------------------------|
C#|---------------------------------|---------------------------------|---------------------------------|
G#|-6---6-------6---6---6-------6---|-9---9-------9---9---9-------9---|---------------------------------|
D#|---------------------------------|---------------------------------|-9---9-------9---9---9-------9---|


F#|---------------------------------|---------------------------------|---------------------------------|
C#|---------------------------------|---------------------------------|---------------------------------|
G#|---------------------------------|---------------------------------|---------------------------------|
D#|-9---9-------9---9---9-------9---|-7---7---7---7---7---7---7---7---|-7---7---7---7---7---7---7---7---|


F#|---------------------------------|---------------------------------|--------|-------------|
C#|---------------------------------|---------------------------------|--------|-------------|
G#|---------------------------------|---------------------------------|-9------|-9------9----|
D#|-9---9---9---9---9---9---9---9---|-9---9---9---9---9---9---9---9---|--------|-------------|


F#|--------|-------------|---------------------------------|---------------------------------|
C#|--------|-------------|---------------------------------|---------------------------------|
G#|--------|-------------|-9---9-------9---9---9-------9---|-9---9-------9---9---9-------9---|
D#|-2------|-2------2----|---------------------------------|---------------------------------|


F#|---------------------------------|---------------------------------|---------------------------------|
C#|---------------------------------|---------------------------------|---------------------------------|
G#|-9---9-------9---9---9-------9---|-9---9-------9---9---9-------9---|-6---6-------6---6---6-------6---|
D#|---------------------------------|---------------------------------|---------------------------------|


F#|---------------------------------|---------------------------------|---------------------------------|
C#|---------------------------------|---------------------------------|---------------------------------|
G#|---------------------------------|---------------------------------|---------------------------------|
D#|-7---7-------7---7---7-------7---|-9---9-------9---9---9-------9---|-9---9-------9---9---9-------9---|


F#|---------------------------------|---------------------------------|---------------------------------|
C#|---------------------------------|---------------------------------|---------------------------------|
G#|-9---9-------9---9---9-------9---|-9---9-------9---9---9-------9---|-9---9-------9---9---9-------9---|
D#|---------------------------------|---------------------------------|---------------------------------|


F#|---------------------------------|---------------------------------|---------------------------------|
C#|---------------------------------|---------------------------------|---------------------------------|
G#|-9---9-------9---9---9-------9---|-6---6-------6---6---6-------6---|---------------------------------|
D#|---------------------------------|---------------------------------|-7---7-------7---7---7-------7---|


F#|---------------------------------|---------------------------------|---------------------------------|
C#|---------------------------------|---------------------------------|---------------------------------|
G#|---------------------------------|---------------------------------|---------------------------------|
D#|-9---9-------9---9---9-------9---|-9---9-------9---9---9-------9---|-7---7---7---7---7---7---7---7---|


F#|---------------------------------|---------------------------------|---------------------------------|
C#|---------------------------------|---------------------------------|---------------------------------|
G#|---------------------------------|---------------------------------|---------------------------------|
D#|-7---7---7---7---7---7---7---7---|-9---9---9---9---9---9---9---9---|-9---9---9---9---9---9---9---9---|


F#|---------------------------------|---------------------------------|---------------------------------|
C#|---------------------------------|---------------------------------|---------------------------------|
G#|---------------------------------|---------------------------------|---------------------------------|
D#|-7---7---7---7---7---7---7---7---|-7---7---7---7---7---7---7---7---|-9---9---9---9---9---9---9---9---|


F#|---------------------------------|---------------------------------|---------------------------------|
C#|---------------------------------|---------------------------------|---------------------------------|
G#|---------------------------------|-9---9-------9---9---9-------9---|-9---9-------9---9---9-------9---|
D#|-9---9---9---9---9---9---9---9---|---------------------------------|---------------------------------|


F#|---------------------------------|---------------------------------|--------|--------|
C#|---------------------------------|---------------------------------|--------|--------|
G#|---------------------------------|---------------------------------|--------|--------|
D#|-2---2-------2---2---2-------2---|-2---2-------2---2---2-------2---|-2------|-2------|


F#|--------|--------|
C#|--------|--------|
G#|--------|--------|
D#|-2------|-2------|