Menu:

 

Search:

 

the jam - town called malice:

 



Title: Town Called Malice
Artist: 
Album: The Gift
Author: Paul Weller


Track 1: Paul Weller - Rhythm

E|--------|--------|--------|--------|-10---10---10---10--10--|-----10---7----7--------|
B|--------|--------|--------|--------|-7----7----7----7---7---|-----7----8----7--------|
G|--------|--------|--------|--------|-7----7----7----7---7---|-----7----9----7--------|
D|--------|--------|--------|--------|------------------------|------------------------|
A|--------|--------|--------|--------|------------------------|------------------------|
E|--------|--------|--------|--------|------------------------|------------------------|


E|-10---10---10---10--10--|-----10---7----7--------|-10---10---10---10--10--|-----10---7----7--------|
B|-7----7----7----7---7---|-----7----8----7--------|-7----7----7----7---7---|-----7----8----7--------|
G|-7----7----7----7---7---|-----7----9----7--------|-7----7----7----7---7---|-----7----9----7--------|
D|------------------------|------------------------|------------------------|------------------------|
A|------------------------|------------------------|------------------------|------------------------|
E|------------------------|------------------------|------------------------|------------------------|


E|-10---10---10---10--10--|-----10---7----7--------|-9----9----9--------9---|-----9----9----9---9---9---|
B|-7----7----7----7---7---|-----7----8----7--------|-10---10---10-------10--|-----10---12---10--10--10--|
G|-7----7----7----7---7---|-----7----9----7--------|-11---11---11-------11--|-----11---11---11--11--11--|
D|------------------------|------------------------|------------------------|---------------------------|
A|------------------------|------------------------|------------------------|---------------------------|
E|------------------------|------------------------|------------------------|---------------------------|


E|-7----7----7--------7---|-----7----7----7---7---7---|-9----9----9--------9---|-----9----9----9---9---9---|
B|-8----8----8--------8---|-----8----10---8---8---8---|-10---10---10-------10--|-----10---12---10--10--10--|
G|-9----9----9--------9---|-----9----9----9---9---9---|-11---11---11-------11--|-----11---11---11--11--11--|
D|------------------------|---------------------------|------------------------|---------------------------|
A|------------------------|---------------------------|------------------------|---------------------------|
E|------------------------|---------------------------|------------------------|---------------------------|


E|-7----7----7--------7---|-----7----7----7---7---7---|-7----7----7--------7---|-----7---7---9----7---7-------|
B|-8----8----8--------8---|-----8----10---8---8---8---|-8----8----8--------8---|-----8---8---8----8---8-------|
G|-9----9----9--------9---|-----9----9----9---9---9---|-7----7----7--------7---|-----7---7---7----7---7-------|
D|------------------------|---------------------------|------------------------|------------------------------|
A|------------------------|---------------------------|------------------------|------------------------------|
E|------------------------|---------------------------|------------------------|------------------------------|


E|-9----9----9--------9---|-----9----9----9--------|--------|--------|--------|--------|
B|-10---10---10-------10--|-----10---10---10-------|--------|--------|--------|--------|
G|-9----9----9--------9---|-----11---11---11-------|--------|--------|--------|--------|
D|------------------------|------------------------|--------|--------|--------|--------|
A|------------------------|------------------------|--------|--------|--------|--------|
E|------------------------|------------------------|--------|--------|--------|--------|


E|-10---10---10---10--10--|-----10---7----7--------|-10---10---10---10--10--|-----10---7----7--------|
B|-7----7----7----7---7---|-----7----8----7--------|-7----7----7----7---7---|-----7----8----7--------|
G|-7----7----7----7---7---|-----7----9----7--------|-7----7----7----7---7---|-----7----9----7--------|
D|------------------------|------------------------|------------------------|------------------------|
A|------------------------|------------------------|------------------------|------------------------|
E|------------------------|------------------------|------------------------|------------------------|


E|-10---10---10---10--10--|-----10---7----7--------|-10---10---10---10--10--|-----10---7----7--------|
B|-7----7----7----7---7---|-----7----8----7--------|-7----7----7----7---7---|-----7----8----7--------|
G|-7----7----7----7---7---|-----7----9----7--------|-7----7----7----7---7---|-----7----9----7--------|
D|------------------------|------------------------|------------------------|------------------------|
A|------------------------|------------------------|------------------------|------------------------|
E|------------------------|------------------------|------------------------|------------------------|


E|-9----9----9--------9---|-----9----9----9---9---9---|-7----7----7--------7---|-----7----7----7---7---7---|
B|-10---10---10-------10--|-----10---12---10--10--10--|-8----8----8--------8---|-----8----10---8---8---8---|
G|-11---11---11-------11--|-----11---11---11--11--11--|-9----9----9--------9---|-----9----9----9---9---9---|
D|------------------------|---------------------------|------------------------|---------------------------|
A|------------------------|---------------------------|------------------------|---------------------------|
E|------------------------|---------------------------|------------------------|---------------------------|


E|-9----9----9--------9---|-----9----9----9---9---9---|-7----7----7--------7---|-----7----7----7---7---7---|
B|-10---10---10-------10--|-----10---12---10--10--10--|-8----8----8--------8---|-----8----10---8---8---8---|
G|-11---11---11-------11--|-----11---11---11--11--11--|-9----9----9--------9---|-----9----9----9---9---9---|
D|------------------------|---------------------------|------------------------|---------------------------|
A|------------------------|---------------------------|------------------------|---------------------------|
E|------------------------|---------------------------|------------------------|---------------------------|


E|-7----7----7--------7---|-----7---7---9----7---7-------|-9----9----9--------9---|
B|-8----8----8--------8---|-----8---8---8----8---8-------|-10---10---10-------10--|
G|-7----7----7--------7---|-----7---7---7----7---7-------|-9----9----9--------9---|
D|------------------------|------------------------------|------------------------|
A|------------------------|------------------------------|------------------------|
E|------------------------|------------------------------|------------------------|


E|-----9----9----9--------|--------|--------|--------|--------|-10---10---10---10--10--|
B|-----10---10---10-------|--------|--------|--------|--------|-7----7----7----7---7---|
G|-----11---11---11-------|--------|--------|--------|--------|-7----7----7----7---7---|
D|------------------------|--------|--------|--------|--------|------------------------|
A|------------------------|--------|--------|--------|--------|------------------------|
E|------------------------|--------|--------|--------|--------|------------------------|


E|-----10---7----7--------|-10---10---10---10--10--|-----10---7----7--------|-10---10---10---10--10--|
B|-----7----8----7--------|-7----7----7----7---7---|-----7----8----7--------|-7----7----7----7---7---|
G|-----7----9----7--------|-7----7----7----7---7---|-----7----9----7--------|-7----7----7----7---7---|
D|------------------------|------------------------|------------------------|------------------------|
A|------------------------|------------------------|------------------------|------------------------|
E|------------------------|------------------------|------------------------|------------------------|


E|-----10---7----7--------|-10---10---10---10--10--|-----10---7----7--------|-9----9----9--------9---|
B|-----7----8----7--------|-7----7----7----7---7---|-----7----8----7--------|-10---10---10-------10--|
G|-----7----9----7--------|-7----7----7----7---7---|-----7----9----7--------|-11---11---11-------11--|
D|------------------------|------------------------|------------------------|------------------------|
A|------------------------|------------------------|------------------------|------------------------|
E|------------------------|------------------------|------------------------|------------------------|


E|-----9----9----9---9---9---|-7----7----7--------7---|-----7----7----7---7---7---|
B|-----10---12---10--10--10--|-8----8----8--------8---|-----8----10---8---8---8---|
G|-----11---11---11--11--11--|-9----9----9--------9---|-----9----9----9---9---9---|
D|---------------------------|------------------------|---------------------------|
A|---------------------------|------------------------|---------------------------|
E|---------------------------|------------------------|---------------------------|


E|-9----9----9--------9---|-----9----9----9---9---9---|-7----7----7--------7---|-----7----7----7---7---7---|
B|-10---10---10-------10--|-----10---12---10--10--10--|-8----8----8--------8---|-----8----10---8---8---8---|
G|-11---11---11-------11--|-----11---11---11--11--11--|-9----9----9--------9---|-----9----9----9---9---9---|
D|------------------------|---------------------------|------------------------|---------------------------|
A|------------------------|---------------------------|------------------------|---------------------------|
E|------------------------|---------------------------|------------------------|---------------------------|


E|-7----7----7--------7---|-----7---7---9----7---7-------|-9----9----9--------9---|
B|-8----8----8--------8---|-----8---8---8----8---8-------|-10---10---10-------10--|
G|-7----7----7--------7---|-----7---7---7----7---7-------|-9----9----9--------9---|
D|------------------------|------------------------------|------------------------|
A|------------------------|------------------------------|------------------------|
E|------------------------|------------------------------|------------------------|


E|-----9----9----9--------|--------|--------|--------|--------|-10---10---10---10--10--|
B|-----10---10---10-------|--------|--------|--------|--------|-7----7----7----7---7---|
G|-----11---11---11-------|--------|--------|--------|--------|-7----7----7----7---7---|
D|------------------------|--------|--------|--------|--------|------------------------|
A|------------------------|--------|--------|--------|--------|------------------------|
E|------------------------|--------|--------|--------|--------|------------------------|


E|-----10---7----7--------|-10---10---10---10--10--|-----10---7----7--------|-10---10---10---10--10--|
B|-----7----8----7--------|-7----7----7----7---7---|-----7----8----7--------|-7----7----7----7---7---|
G|-----7----9----7--------|-7----7----7----7---7---|-----7----9----7--------|-7----7----7----7---7---|
D|------------------------|------------------------|------------------------|------------------------|
A|------------------------|------------------------|------------------------|------------------------|
E|------------------------|------------------------|------------------------|------------------------|


E|-----10---7----7--------|-10---10---10---10--10--|-----10---7----7--------|-9------|
B|-----7----8----7--------|-7----7----7----7---7---|-----7----8----7--------|-9------|
G|-----7----9----7--------|-7----7----7----7---7---|-----7----9----7--------|-9------|
D|------------------------|------------------------|------------------------|-11-----|
A|------------------------|------------------------|------------------------|-11-----|
E|------------------------|------------------------|------------------------|-9------|


E|-9------|-7------|-7------|-9------|-9------|-7------|-7------|-5----5----5--------5---|
B|-9------|-7------|-7------|-9------|-9------|-7------|-7------|-5----5----5--------5---|
G|-9------|-7------|-7------|-9------|-9------|-7------|-7------|-6----6----6--------6---|
D|-11-----|-9------|-9------|-11-----|-11-----|-9------|-9------|-5----5----5--------5---|
A|-11-----|-9------|-9------|-11-----|-11-----|-9------|-9------|------------------------|
E|-9------|-7------|-7------|-9------|-9------|-7------|-7------|------------------------|


E|-----5----5----5---5---5---|-5----5----5--------5---|-----5----5----5---5---5---|
B|-----5----5----5---5---5---|-5----5----5--------5---|-----5----5----5---5---5---|
G|-----6----6----6---6---6---|-6----6----6--------6---|-----6----6----6---6---6---|
D|-----5----5----5---5---5---|-5----5----5--------5---|-----5----5----5---5---5---|
A|---------------------------|------------------------|---------------------------|
E|---------------------------|------------------------|---------------------------|


E|-10---10---10---10--10--|-----10---7----7--------|-10---10---10---10--10--|-----10---7----7-------10--|
B|-7----7----7----7---7---|-----7----8----7--------|-7----7----7----7---7---|-----7----8----7-------7---|
G|-7----7----7----7---7---|-----7----9----7--------|-7----7----7----7---7---|-----7----9----7-------7---|
D|------------------------|------------------------|------------------------|---------------------------|
A|------------------------|------------------------|------------------------|---------------------------|
E|------------------------|------------------------|------------------------|---------------------------|


E|-10-----------|--------|--------|-----------------|--------|--------|--------|--------|
B|-7------------|--------|--------|-----------------|--------|--------|--------|--------|
G|-7------------|--------|--------|-----------------|--------|--------|--------|--------|
D|--------------|--------|--------|-----------------|--------|--------|--------|--------|
A|--------------|--------|--------|-----------------|--------|--------|--------|--------|
E|--------------|--------|--------|-----------------|--------|--------|--------|--------|


E|--------|--------|-9----9----9--------9---|-----9----9----9---9---9---|-7----7----7--------7---|
B|--------|--------|-10---10---10-------10--|-----10---12---10--10--10--|-8----8----8--------8---|
G|--------|--------|-11---11---11-------11--|-----11---11---11--11--11--|-9----9----9--------9---|
D|--------|--------|------------------------|---------------------------|------------------------|
A|--------|--------|------------------------|---------------------------|------------------------|
E|--------|--------|------------------------|---------------------------|------------------------|


E|-----7----7----7---7---7---|-9----9----9--------9---|-----9----9----9---9---9---|
B|-----8----10---8---8---8---|-10---10---10-------10--|-----10---12---10--10--10--|
G|-----9----9----9---9---9---|-11---11---11-------11--|-----11---11---11--11--11--|
D|---------------------------|------------------------|---------------------------|
A|---------------------------|------------------------|---------------------------|
E|---------------------------|------------------------|---------------------------|


E|-7----7----7--------7---|-----7----7----7---7---7---|-7----7----7--------7---|-----7---7---9----7---7-------|
B|-8----8----8--------8---|-----8----10---8---8---8---|-8----8----8--------8---|-----8---8---8----8---8-------|
G|-9----9----9--------9---|-----9----9----9---9---9---|-7----7----7--------7---|-----7---7---7----7---7-------|
D|------------------------|---------------------------|------------------------|------------------------------|
A|------------------------|---------------------------|------------------------|------------------------------|
E|------------------------|---------------------------|------------------------|------------------------------|


E|-9----9----9--------9---|-----9----9----9--------|--------|--------|--------|--------|
B|-10---10---10-------10--|-----10---10---10-------|--------|--------|--------|--------|
G|-9----9----9--------9---|-----11---11---11-------|--------|--------|--------|--------|
D|------------------------|------------------------|--------|--------|--------|--------|
A|------------------------|------------------------|--------|--------|--------|--------|
E|------------------------|------------------------|--------|--------|--------|--------|


E|-10---10---10---10--10--|-----10---7----7--------|-10---10---10---10--10--|-----10---7----7--------|
B|-7----7----7----7---7---|-----7----8----7--------|-7----7----7----7---7---|-----7----8----7--------|
G|-7----7----7----7---7---|-----7----9----7--------|-7----7----7----7---7---|-----7----9----7--------|
D|------------------------|------------------------|------------------------|------------------------|
A|------------------------|------------------------|------------------------|------------------------|
E|------------------------|------------------------|------------------------|------------------------|


E|-10---10---10---10--10--|-----10---7----7--------|-10---10---10---10--10--|-----10---7----7--------|
B|-7----7----7----7---7---|-----7----8----7--------|-7----7----7----7---7---|-----7----8----7--------|
G|-7----7----7----7---7---|-----7----9----7--------|-7----7----7----7---7---|-----7----9----7--------|
D|------------------------|------------------------|------------------------|------------------------|
A|------------------------|------------------------|------------------------|------------------------|
E|------------------------|------------------------|------------------------|------------------------|


E|-10---10---10---10--10--|-----10---7----7--------|-10---10---10---10--10--|-----10---7----7--------|
B|-7----7----7----7---7---|-----7----8----7--------|-7----7----7----7---7---|-----7----8----7--------|
G|-7----7----7----7---7---|-----7----9----7--------|-7----7----7----7---7---|-----7----9----7--------|
D|------------------------|------------------------|------------------------|------------------------|
A|------------------------|------------------------|------------------------|------------------------|
E|------------------------|------------------------|------------------------|------------------------|


E|-10---10---10---10--10--|-----10---7----7--------|-10---10---10---10--10--|-----10---7----7--------|
B|-7----7----7----7---7---|-----7----8----7--------|-7----7----7----7---7---|-----7----8----7--------|
G|-7----7----7----7---7---|-----7----9----7--------|-7----7----7----7---7---|-----7----9----7--------|
D|------------------------|------------------------|------------------------|------------------------|
A|------------------------|------------------------|------------------------|------------------------|
E|------------------------|------------------------|------------------------|------------------------|


E|-10---10---10---10--10--|-----10---7----7--------|-10---10---10---10--10--|-----10---7----7--------|
B|-7----7----7----7---7---|-----7----8----7--------|-7----7----7----7---7---|-----7----8----7--------|
G|-7----7----7----7---7---|-----7----9----7--------|-7----7----7----7---7---|-----7----9----7--------|
D|------------------------|------------------------|------------------------|------------------------|
A|------------------------|------------------------|------------------------|------------------------|
E|------------------------|------------------------|------------------------|------------------------|





Track 2: Organ

E|--------|--------|--------|--------|-10-----|-10------------10-------|-14-----|-14------------10-------|
B|--------|--------|--------|--------|--------|-------10--12-------10--|--------|-------10--12-------10--|
G|--------|--------|--------|--------|--------|------------------------|--------|------------------------|
D|--------|--------|--------|--------|--------|------------------------|--------|------------------------|
A|--------|--------|--------|--------|--------|------------------------|--------|------------------------|
E|--------|--------|--------|--------|--------|------------------------|--------|------------------------|


E|-10-----|-10------------10-------|-14-----|-14----14--------|--------|--------|--------|
B|--------|-------10--12-------10--|--------|-----------------|--------|--------|--------|
G|--------|------------------------|--------|-----------------|--------|--------|--------|
D|--------|------------------------|--------|-----------------|--------|--------|--------|
A|--------|------------------------|--------|-----------------|--------|--------|--------|
E|--------|------------------------|--------|-----------------|--------|--------|--------|


E|--------|--------|--------|--------|--------|--------|--------|--------|--------|
B|--------|--------|--------|--------|--------|--------|--------|--------|--------|
G|--------|--------|--------|--------|--------|--------|--------|--------|--------|
D|--------|--------|--------|--------|--------|--------|--------|--------|--------|
A|--------|--------|--------|--------|--------|--------|--------|--------|--------|
E|--------|--------|--------|--------|--------|--------|--------|--------|--------|


E|--------|--------|--------|--------|-10-----|-10------------10-------|-10-----|-10------------10-------|
B|--------|--------|--------|--------|--------|-------10--12-------10--|--------|-------10--12-------10--|
G|--------|--------|--------|--------|--------|------------------------|--------|------------------------|
D|--------|--------|--------|--------|--------|------------------------|--------|------------------------|
A|--------|--------|--------|--------|--------|------------------------|--------|------------------------|
E|--------|--------|--------|--------|--------|------------------------|--------|------------------------|


E|-14-----|-14------------10-------|-10-----|-10------------10----|-17-----|-17-----|
B|--------|-------10--12-------10--|--------|-------10--12--------|--------|--------|
G|--------|------------------------|--------|---------------------|--------|--------|
D|--------|------------------------|--------|---------------------|--------|--------|
A|--------|------------------------|--------|---------------------|--------|--------|
E|--------|------------------------|--------|---------------------|--------|--------|


E|-17-----|-17---15---14---15---|-17-----|-17-----|-17-----|-17---15---14---15---|
B|--------|---------------------|--------|--------|--------|---------------------|
G|--------|---------------------|--------|--------|--------|---------------------|
D|--------|---------------------|--------|--------|--------|---------------------|
A|--------|---------------------|--------|--------|--------|---------------------|
E|--------|---------------------|--------|--------|--------|---------------------|


E|-10-----|-10-----|-17-----|-17-----|--------|--------|--------|--------|-10-----|
B|--------|--------|--------|--------|--------|--------|--------|--------|--------|
G|--------|--------|--------|--------|--------|--------|--------|--------|--------|
D|--------|--------|--------|--------|--------|--------|--------|--------|--------|
A|--------|--------|--------|--------|--------|--------|--------|--------|--------|
E|--------|--------|--------|--------|--------|--------|--------|--------|--------|


E|-10------------10-------|-10-----|-10------------10-------|-14-----|-14------------10-------|
B|-------10--12-------10--|--------|-------10--12-------10--|--------|-------10--12-------10--|
G|------------------------|--------|------------------------|--------|------------------------|
D|------------------------|--------|------------------------|--------|------------------------|
A|------------------------|--------|------------------------|--------|------------------------|
E|------------------------|--------|------------------------|--------|------------------------|


E|-10-----|-10------------10----|-17-----|-17-----|-17-----|-17---15---14---15---|
B|--------|-------10--12--------|--------|--------|--------|---------------------|
G|--------|---------------------|--------|--------|--------|---------------------|
D|--------|---------------------|--------|--------|--------|---------------------|
A|--------|---------------------|--------|--------|--------|---------------------|
E|--------|---------------------|--------|--------|--------|---------------------|


E|-17-----|-17-----|-17-----|-17---15---14---15---|-10-----|-10-----|-17-----|-17-----|
B|--------|--------|--------|---------------------|--------|--------|--------|--------|
G|--------|--------|--------|---------------------|--------|--------|--------|--------|
D|--------|--------|--------|---------------------|--------|--------|--------|--------|
A|--------|--------|--------|---------------------|--------|--------|--------|--------|
E|--------|--------|--------|---------------------|--------|--------|--------|--------|


E|--------|--------|--------|--------|-10-----|-10------------10-------|-10-----|-10------------10-------|
B|--------|--------|--------|--------|--------|-------10--12-------10--|--------|-------10--12-------10--|
G|--------|--------|--------|--------|--------|------------------------|--------|------------------------|
D|--------|--------|--------|--------|--------|------------------------|--------|------------------------|
A|--------|--------|--------|--------|--------|------------------------|--------|------------------------|
E|--------|--------|--------|--------|--------|------------------------|--------|------------------------|


E|-14-----|-14------------10-------|-10-----|-10------------10----|-9------|-9------8----|
B|--------|-------10--12-------10--|--------|-------10--12--------|--------|-------------|
G|--------|------------------------|--------|---------------------|--------|-------------|
D|--------|------------------------|--------|---------------------|--------|-------------|
A|--------|------------------------|--------|---------------------|--------|-------------|
E|--------|------------------------|--------|---------------------|--------|-------------|


E|-7------|-7------|-9------|-9------8----|-7------|-7------|-10-----|-10-----|-14-----|
B|--------|--------|--------|-------------|--------|--------|-15-----|-15-----|--------|
G|--------|--------|--------|-------------|--------|--------|--------|--------|--------|
D|--------|--------|--------|-------------|--------|--------|--------|--------|--------|
A|--------|--------|--------|-------------|--------|--------|--------|--------|--------|
E|--------|--------|--------|-------------|--------|--------|--------|--------|--------|


E|-14-----|-10-----|-10------------10-------|-10-----|-10------------10---10--|--------|
B|--------|--------|-------10--12-------10--|--------|-------10--12-----------|--------|
G|--------|--------|------------------------|--------|------------------------|--------|
D|--------|--------|------------------------|--------|------------------------|--------|
A|--------|--------|------------------------|--------|------------------------|--------|
E|--------|--------|------------------------|--------|------------------------|--------|


E|--------|--------|---------------10-------|-10-----|-10------------10-------|-14-----|
B|--------|--------|-------10--12-------10--|--------|-------10--12-------10--|--------|
G|--------|--------|------------------------|--------|------------------------|--------|
D|--------|--------|------------------------|--------|------------------------|--------|
A|--------|--------|------------------------|--------|------------------------|--------|
E|--------|--------|------------------------|--------|------------------------|--------|


E|-14------------10-------|-10-----|-10------------10---10--|--------|--------|--------|
B|-------10--12-------10--|--------|-------10--12-----------|-10-----|-10-----|-10-----|
G|------------------------|--------|------------------------|--------|--------|--------|
D|------------------------|--------|------------------------|--------|--------|--------|
A|------------------------|--------|------------------------|--------|--------|--------|
E|------------------------|--------|------------------------|--------|--------|--------|


E|------------------------|--------|--------|--------|------------------------|--------|
B|-10----10--12--10-------|-10-----|-10-----|-10-----|-10----10--12--10-------|--------|
G|--------------------11--|--------|--------|--------|--------------------11--|-12-----|
D|------------------------|--------|--------|--------|------------------------|--------|
A|------------------------|--------|--------|--------|------------------------|--------|
E|------------------------|--------|--------|--------|------------------------|--------|


E|-------------|--------|-------------|--------|--------|--------|--------|--------|
B|-------------|--------|-------------|-12-----|-12-----|-12-----|-12-----|--------|
G|-12-----11---|-14-----|-14-----11---|--------|--------|--------|--------|--------|
D|-------------|--------|-------------|--------|--------|--------|--------|--------|
A|-------------|--------|-------------|--------|--------|--------|--------|--------|
E|-------------|--------|-------------|--------|--------|--------|--------|--------|


E|--------|--------|--------|--------|--------|--------|--------|--------|--------|
B|--------|--------|--------|--------|--------|--------|--------|--------|--------|
G|--------|--------|--------|--------|--------|--------|--------|--------|--------|
D|--------|--------|--------|--------|--------|--------|--------|--------|--------|
A|--------|--------|--------|--------|--------|--------|--------|--------|--------|
E|--------|--------|--------|--------|--------|--------|--------|--------|--------|


E|--------|--------|--------|--------|--------|--------|--------|--------|--------|
B|--------|--------|--------|--------|--------|--------|--------|--------|--------|
G|--------|--------|--------|--------|--------|--------|--------|--------|--------|
D|--------|--------|--------|--------|--------|--------|--------|--------|--------|
A|--------|--------|--------|--------|--------|--------|--------|--------|--------|
E|--------|--------|--------|--------|--------|--------|--------|--------|--------|


E|--------|
B|--------|
G|--------|
D|--------|
A|--------|
E|--------|





Track 3: Paul Weller - Guitar fills

E|--------|--------|--------|--------|--------|--------|--------|--------|--------|
B|--------|--------|--------|--------|--------|--------|--------|--------|--------|
G|--------|--------|--------|--------|--------|--------|--------|--------|--------|
D|--------|--------|--------|--------|--------|--------|--------|--------|--------|
A|--------|--------|--------|--------|--------|--------|--------|--------|--------|
E|--------|--------|--------|--------|--------|--------|--------|--------|--------|


E|--------|--------|--------|--------|--------|--------|--------|--------|--------|
B|--------|--------|--------|--------|--------|--------|--------|--------|--------|
G|--------|--------|--------|--------|--------|--------|--------|--------|--------|
D|--------|--------|--------|--------|--------|--------|--------|--------|--------|
A|--------|--------|--------|--------|--------|--------|--------|--------|--------|
E|--------|--------|--------|--------|--------|--------|--------|--------|--------|


E|--------|--------|--------|--------|--------|--------|---------------------------|
B|--------|--------|--------|--------|--------|--------|---------------------------|
G|--------|--------|--------|--------|--------|--------|---------------------------|
D|--------|--------|--------|--------|--------|--------|------2---0---2---0----2---|
A|--------|--------|--------|--------|--------|--------|-0-------------------------|
E|--------|--------|--------|--------|--------|--------|---------------------------|


E|------------------------|------------------------------|------------------------|
B|------------------------|------------------------------|------------------------|
G|------------------------|------------------------------|------------------------|
D|-----2----2----0--------|------2---0---2---0-------2---|-----0-----0------------|
A|-------------------2----|-0--------------------2-------|---------------0---2----|
E|------------------------|------------------------------|------------------------|


E|--------|--------|--------|--------|--------|--------|--------|--------|--------|
B|--------|--------|--------|--------|--------|--------|--------|--------|--------|
G|--------|--------|--------|--------|--------|--------|--------|--------|--------|
D|--------|--------|--------|--------|--------|--------|--------|--------|--------|
A|--------|--------|--------|--------|--------|--------|--------|--------|--------|
E|--------|--------|--------|--------|--------|--------|--------|--------|--------|


E|--------|--------|--------|--------|--------|--------|--------|--------|--------|
B|--------|--------|--------|--------|--------|--------|--------|--------|--------|
G|--------|--------|--------|--------|--------|--------|--------|--------|--------|
D|--------|--------|--------|--------|--------|--------|--------|--------|--------|
A|--------|--------|--------|--------|--------|--------|--------|--------|--------|
E|--------|--------|--------|--------|--------|--------|--------|--------|--------|


E|--------|--------|---------------------------|------------------------|------------------------------|
B|--------|--------|---------------------------|------------------------|------------------------------|
G|--------|--------|---------------------------|------------------------|------------------------------|
D|--------|--------|------2---0---2---0----2---|-----2----2----0--------|------2---0---2---0-------2---|
A|--------|--------|-0-------------------------|-------------------2----|-0--------------------2-------|
E|--------|--------|---------------------------|------------------------|------------------------------|


E|------------------------|--------|--------|--------|--------|--------|--------|--------|
B|------------------------|--------|--------|--------|--------|--------|--------|--------|
G|------------------------|--------|--------|--------|--------|--------|--------|--------|
D|-----0-----0------------|--------|--------|--------|--------|--------|--------|--------|
A|---------------0---2----|--------|--------|--------|--------|--------|--------|--------|
E|------------------------|--------|--------|--------|--------|--------|--------|--------|


E|--------|--------|--------|--------|--------|--------|--------|--------|--------|
B|--------|--------|--------|--------|--------|--------|--------|--------|--------|
G|--------|--------|--------|--------|--------|--------|--------|--------|--------|
D|--------|--------|--------|--------|--------|--------|--------|--------|--------|
A|--------|--------|--------|--------|--------|--------|--------|--------|--------|
E|--------|--------|--------|--------|--------|--------|--------|--------|--------|


E|--------|--------|--------|--------|---------------------------|------------------------|
B|--------|--------|--------|--------|---------------------------|------------------------|
G|--------|--------|--------|--------|---------------------------|------------------------|
D|--------|--------|--------|--------|------2---0---2---0----2---|-----2----2----0--------|
A|--------|--------|--------|--------|-0-------------------------|-------------------2----|
E|--------|--------|--------|--------|---------------------------|------------------------|


E|------------------------------|------------------------|--------|--------|--------|
B|------------------------------|------------------------|--------|--------|--------|
G|------------------------------|------------------------|--------|--------|--------|
D|------2---0---2---0-------2---|-----0-----0------------|--------|--------|--------|
A|-0--------------------2-------|---------------0---2----|--------|--------|--------|
E|------------------------------|------------------------|--------|--------|--------|


E|--------|--------|--------|--------|--------|--------|--------|--------|--------|
B|--------|--------|--------|--------|--------|--------|--------|--------|--------|
G|--------|--------|--------|--------|--------|--------|--------|--------|--------|
D|--------|--------|--------|--------|--------|--------|--------|--------|--------|
A|--------|--------|--------|--------|--------|--------|--------|--------|--------|
E|--------|--------|--------|--------|--------|--------|--------|--------|--------|


E|--------|--------|--------|--------|--------|--------|--------|--------|--------|
B|--------|--------|--------|--------|--------|--------|--------|--------|--------|
G|--------|--------|--------|--------|--------|--------|--------|--------|--------|
D|--------|--------|--------|--------|--------|--------|--------|--------|--------|
A|--------|--------|--------|--------|--------|--------|--------|--------|--------|
E|--------|--------|--------|--------|--------|--------|--------|--------|--------|


E|--------|--------|--------|--------|--------|--------|--------|--------|--------|
B|--------|--------|--------|--------|--------|--------|--------|--------|--------|
G|--------|--------|--------|--------|--------|--------|--------|--------|--------|
D|--------|--------|--------|--------|--------|--------|--------|--------|--------|
A|--------|--------|--------|--------|--------|--------|--------|--------|--------|
E|--------|--------|--------|--------|--------|--------|--------|--------|--------|


E|--------|--------|--------|--------|--------|--------|--------|--------|--------|
B|--------|--------|--------|--------|--------|--------|--------|--------|--------|
G|--------|--------|--------|--------|--------|--------|--------|--------|--------|
D|--------|--------|--------|--------|--------|--------|--------|--------|--------|
A|--------|--------|--------|--------|--------|--------|--------|--------|--------|
E|--------|--------|--------|--------|--------|--------|--------|--------|--------|


E|--------|--------|--------|--------|--------|--------|--------|---------------------------|
B|--------|--------|--------|--------|--------|--------|--------|---------------------------|
G|--------|--------|--------|--------|--------|--------|--------|---------------------------|
D|--------|--------|--------|--------|--------|--------|--------|------2---0---2---0----2---|
A|--------|--------|--------|--------|--------|--------|--------|-0-------------------------|
E|--------|--------|--------|--------|--------|--------|--------|---------------------------|


E|------------------------|------------------------------|------------------------|
B|------------------------|------------------------------|------------------------|
G|------------------------|------------------------------|------------------------|
D|-----2----2----0--------|------2---0---2---0-------2---|-----0-----0------------|
A|-------------------2----|-0--------------------2-------|---------------0---2----|
E|------------------------|------------------------------|------------------------|


E|-10-----|-10------------10-------|-10-----|-10------------10-------|-14-----|-14------------10-------|
B|--------|-------10--12-------10--|--------|-------10--12-------10--|--------|-------10--12-------10--|
G|--------|------------------------|--------|------------------------|--------|------------------------|
D|--------|------------------------|--------|------------------------|--------|------------------------|
A|--------|------------------------|--------|------------------------|--------|------------------------|
E|--------|------------------------|--------|------------------------|--------|------------------------|


E|-10-----|-10------------10-------|-14-----|-14------------10-------|-10-----|-10------------10-------|
B|--------|-------10--12-------10--|--------|-------10--12-------10--|--------|-------10--12-------10--|
G|--------|------------------------|--------|------------------------|--------|------------------------|
D|--------|------------------------|--------|------------------------|--------|------------------------|
A|--------|------------------------|--------|------------------------|--------|------------------------|
E|--------|------------------------|--------|------------------------|--------|------------------------|


E|-14-----|-14------------10-------|-10-----|-10------------10-------|-14-----|-14------------10-------|
B|--------|-------10--12-------10--|--------|-------10--12-------10--|--------|-------10--12-------10--|
G|--------|------------------------|--------|------------------------|--------|------------------------|
D|--------|------------------------|--------|------------------------|--------|------------------------|
A|--------|------------------------|--------|------------------------|--------|------------------------|
E|--------|------------------------|--------|------------------------|--------|------------------------|


E|-10-----|-10------------10-------|
B|--------|-------10--12-------10--|
G|--------|------------------------|
D|--------|------------------------|
A|--------|------------------------|
E|--------|------------------------|





Track 4: Paul Weller - Rhythm

E|--------|--------|--------|--------|--------|--------|--------|--------|--------|
B|--------|--------|--------|--------|--------|--------|--------|--------|--------|
G|--------|--------|--------|--------|--------|--------|--------|--------|--------|
D|--------|--------|--------|--------|--------|--------|--------|--------|--------|
A|--------|--------|--------|--------|--------|--------|--------|--------|--------|
E|--------|--------|--------|--------|--------|--------|--------|--------|--------|


E|--------|--------|--------|--------|--------|--------|--------|--------|--------|
B|--------|--------|--------|--------|--------|--------|--------|--------|--------|
G|--------|--------|--------|--------|--------|--------|--------|--------|--------|
D|--------|--------|--------|--------|--------|--------|--------|--------|--------|
A|--------|--------|--------|--------|--------|--------|--------|--------|--------|
E|--------|--------|--------|--------|--------|--------|--------|--------|--------|


E|--------|--------|--------|--------|--------|--------|--------|--------|--------|
B|--------|--------|--------|--------|--------|--------|--------|--------|--------|
G|--------|--------|--------|--------|--------|--------|--------|--------|--------|
D|--------|--------|--------|--------|--------|--------|--------|--------|--------|
A|--------|--------|--------|--------|--------|--------|--------|--------|--------|
E|--------|--------|--------|--------|--------|--------|--------|--------|--------|


E|--------|--------|--------|--------|--------|--------|--------|--------|--------|
B|--------|--------|--------|--------|--------|--------|--------|--------|--------|
G|--------|--------|--------|--------|--------|--------|--------|--------|--------|
D|--------|--------|--------|--------|--------|--------|--------|--------|--------|
A|--------|--------|--------|--------|--------|--------|--------|--------|--------|
E|--------|--------|--------|--------|--------|--------|--------|--------|--------|


E|--------|--------|--------|--------|--------|--------|--------|--------|--------|
B|--------|--------|--------|--------|--------|--------|--------|--------|--------|
G|--------|--------|--------|--------|--------|--------|--------|--------|--------|
D|--------|--------|--------|--------|--------|--------|--------|--------|--------|
A|--------|--------|--------|--------|--------|--------|--------|--------|--------|
E|--------|--------|--------|--------|--------|--------|--------|--------|--------|


E|--------|--------|--------|--------|--------|--------|--------|--------|--------|
B|--------|--------|--------|--------|--------|--------|--------|--------|--------|
G|--------|--------|--------|--------|--------|--------|--------|--------|--------|
D|--------|--------|--------|--------|--------|--------|--------|--------|--------|
A|--------|--------|--------|--------|--------|--------|--------|--------|--------|
E|--------|--------|--------|--------|--------|--------|--------|--------|--------|


E|--------|--------|--------|--------|--------|--------|--------|--------|--------|
B|--------|--------|--------|--------|--------|--------|--------|--------|--------|
G|--------|--------|--------|--------|--------|--------|--------|--------|--------|
D|--------|--------|--------|--------|--------|--------|--------|--------|--------|
A|--------|--------|--------|--------|--------|--------|--------|--------|--------|
E|--------|--------|--------|--------|--------|--------|--------|--------|--------|


E|--------|--------|--------|--------|--------|--------|--------|--------|--------|
B|--------|--------|--------|--------|--------|--------|--------|--------|--------|
G|--------|--------|--------|--------|--------|--------|--------|--------|--------|
D|--------|--------|--------|--------|--------|--------|--------|--------|--------|
A|--------|--------|--------|--------|--------|--------|--------|--------|--------|
E|--------|--------|--------|--------|--------|--------|--------|--------|--------|


E|--------|--------|--------|--------|--------|--------|--------|--------|--------|
B|--------|--------|--------|--------|--------|--------|--------|--------|--------|
G|--------|--------|--------|--------|--------|--------|--------|--------|--------|
D|--------|--------|--------|--------|--------|--------|--------|--------|--------|
A|--------|--------|--------|--------|--------|--------|--------|--------|--------|
E|--------|--------|--------|--------|--------|--------|--------|--------|--------|


E|--------|--------|--------|--------|--------|--------|--------|--------|--------|
B|--------|--------|--------|--------|--------|--------|--------|--------|--------|
G|--------|--------|--------|--------|--------|--------|--------|--------|--------|
D|--------|--------|--------|--------|--------|--------|--------|--------|--------|
A|--------|--------|--------|--------|--------|--------|--------|--------|--------|
E|--------|--------|--------|--------|--------|--------|--------|--------|--------|


E|--------|--------|--------|--------|--------|--------|--------|--------|--------|
B|--------|--------|--------|--------|--------|--------|--------|--------|--------|
G|--------|--------|--------|--------|--------|--------|--------|--------|--------|
D|--------|--------|--------|--------|--------|--------|--------|--------|--------|
A|--------|--------|--------|--------|--------|--------|--------|--------|--------|
E|--------|--------|--------|--------|--------|--------|--------|--------|--------|


E|--------|--------|--------|--------|--------|--------|--------|--------|--------|
B|--------|--------|--------|--------|--------|--------|--------|--------|--------|
G|--------|--------|--------|--------|--------|--------|--------|--------|--------|
D|--------|--------|--------|--------|--------|--------|--------|--------|--------|
A|--------|--------|--------|--------|--------|--------|--------|--------|--------|
E|--------|--------|--------|--------|--------|--------|--------|--------|--------|


E|--------|--------|--------|--------|--------|--------|--------|--------|--------|
B|--------|--------|--------|--------|--------|--------|--------|--------|--------|
G|--------|--------|--------|--------|--------|--------|--------|--------|--------|
D|--------|--------|--------|--------|--------|--------|--------|--------|--------|
A|--------|--------|--------|--------|--------|--------|--------|--------|--------|
E|--------|--------|--------|--------|--------|--------|--------|--------|--------|


E|--------|--------|--------|--------|--------|--------|--------|--------|--------|
B|--------|--------|--------|--------|--------|--------|--------|--------|--------|
G|--------|--------|--------|--------|--------|--------|--------|--------|--------|
D|--------|--------|--------|--------|--------|--------|--------|--------|--------|
A|--------|--------|--------|--------|--------|--------|--------|--------|--------|
E|--------|--------|--------|--------|--------|--------|--------|--------|--------|


E|--------|--------|--------|---------------------------|--------|--------|--------|
B|--------|--------|--------|---------------------------|--------|--------|--------|
G|--------|--------|--------|---------------------------|--------|--------|--------|
D|--------|--------|--------|---------------0---0-------|-0------|-0------|--------|
A|--------|--------|--------|-------0---2-----------2---|--------|--------|--------|
E|--------|--------|--------|---------------------------|--------|--------|--------|


E|---------------------------|--------|--------|--------|---------------------------|
B|---------------------------|--------|--------|--------|---------------------------|
G|---------------------------|--------|--------|--------|---------------------------|
D|---------------0---0-------|-0------|-0------|--------|---------------0---0-------|
A|-------0---2-----------2---|--------|--------|--------|-------0---2-----------2---|
E|---------------------------|--------|--------|--------|---------------------------|


E|--------|--------|--------|---------------------------|--------|--------|--------|
B|--------|--------|--------|---------------------------|--------|--------|--------|
G|--------|--------|--------|---------------------------|--------|--------|--------|
D|-0------|-0------|--------|---------------0---0-------|-0------|-0------|--------|
A|--------|--------|--------|-------0---2-----------2---|--------|--------|--------|
E|--------|--------|--------|---------------------------|--------|--------|--------|


E|---------------------------|
B|---------------------------|
G|---------------------------|
D|---------------0---0-------|
A|-------0---2-----------2---|
E|---------------------------|





Track 5: Bruce Foxton - Bass

G|---------------------------|---------------------------|---------------------------|
D|---------------------------|---------------------------|---------------------------|
A|-5----5----5-----------5---|-----5----5----------------|-5----5----5-----------5---|
E|---------------7---5-------|---------------7---5---7---|---------------7---5-------|


G|---------------------------|---------------------------|---------------------------|
D|---------------------------|---------------------------|---------------------------|
A|-----5----5----------------|-5----5----5-----------5---|-----5----5----------------|
E|---------------7---5---7---|---------------7---5-------|---------------7---5---7---|


G|---------------------------|---------------------------|---------------------------|
D|---------------------------|---------------------------|---------------------------|
A|-5----5----5-----------5---|-----5----5----------------|-5----5----5-----------5---|
E|---------------7---5-------|---------------7---5---7---|---------------7---5-------|


G|---------------------------|---------------------------|---------------------------|
D|---------------------------|---------------------------|---------------------------|
A|-----5----5----------------|-5----5----5-----------5---|-----5----5----------------|
E|---------------7---5---7---|---------------7---5-------|---------------7---5---7---|


G|--------|---------------------|--------|-4-----5----4----2---|--------|---------------------|
D|--------|-4-----5----4----2---|--------|---------------------|--------|-4-----5----4----2---|
A|--------|---------------------|--------|---------------------|--------|---------------------|
E|-2------|---------------------|-0------|---------------------|-2------|---------------------|


G|--------|-5---4-------2----4--------|------------------------|------------------------|
D|--------|---------------------------|------------------------|------------------------|
A|--------|---------------------------|------------------------|------------------------|
E|-0------|---------------------------|-3----3----3--------3---|-----3----3----3---3----|


G|------------------------|------------------------|------------------------|------------------------|
D|------------------------|------------------------|------------------------|------------------------|
A|------------------------|------------------------|------------------------|------------------------|
E|-2----2----2--------2---|-----2----2----2---2----|-5----5----5--------5---|-----5----5----0---2----|


G|------------------------|---------------------|---------------------------|---------------------------|
D|------------------------|---------------------|---------------------------|---------------------------|
A|------------------------|----------------5----|-5----5----5-----------5---|-----5----5----------------|
E|-5----5----5--------5---|-----5-----9---------|---------------7---5-------|---------------7---5---7---|


G|---------------------------|---------------------------|---------------------------|
D|---------------------------|---------------------------|---------------------------|
A|-5----5----5-----------5---|-----5----5----------------|-5----5----5-----------5---|
E|---------------7---5-------|---------------7---5---7---|---------------7---5-------|


G|---------------------------|---------------------------|---------------------------|
D|---------------------------|---------------------------|---------------------------|
A|-----5----5----------------|-5----5----5-----------5---|-----5----5----------------|
E|---------------7---5---7---|---------------7---5-------|---------------7---5---7---|


G|--------|---------------------|--------|-4-----5----4----2---|--------|---------------------|
D|--------|-4-----5----4----2---|--------|---------------------|--------|-4-----5----4----2---|
A|--------|---------------------|--------|---------------------|--------|---------------------|
E|-2------|---------------------|-0------|---------------------|-2------|---------------------|


G|--------|-5---4-------2----4--------|------------------------|------------------------|
D|--------|---------------------------|------------------------|------------------------|
A|--------|---------------------------|------------------------|------------------------|
E|-0------|---------------------------|-3----3----3--------3---|-----3----3----3---3----|


G|------------------------|------------------------|------------------------|------------------------|
D|------------------------|------------------------|------------------------|------------------------|
A|------------------------|------------------------|------------------------|------------------------|
E|-2----2----2--------2---|-----2----2----2---2----|-5----5----5--------5---|-----5----5----0---2----|


G|------------------------|---------------------|---------------------------|---------------------------|
D|------------------------|---------------------|---------------------------|---------------------------|
A|------------------------|----------------5----|-5----5----5-----------5---|-----5----5----------------|
E|-5----5----5--------5---|-----5-----9---------|---------------7---5-------|---------------7---5---7---|


G|---------------------------|---------------------------|---------------------------|
D|---------------------------|---------------------------|---------------------------|
A|-5----5----5-----------5---|-----5----5----------------|-5----5----5-----------5---|
E|---------------7---5-------|---------------7---5---7---|---------------7---5-------|


G|---------------------------|---------------------------|---------------------------|
D|---------------------------|---------------------------|---------------------------|
A|-----5----5----------------|-5----5----5-----------5---|-----5----5----------------|
E|---------------7---5---7---|---------------7---5-------|---------------7---5---7---|


G|--------|---------------------|--------|-4-----5----4----2---|--------|---------------------|
D|--------|-4-----5----4----2---|--------|---------------------|--------|-4-----5----4----2---|
A|--------|---------------------|--------|---------------------|--------|---------------------|
E|-2------|---------------------|-0------|---------------------|-2------|---------------------|


G|--------|-5---4-------2----4--------|------------------------|------------------------|
D|--------|---------------------------|------------------------|------------------------|
A|--------|---------------------------|------------------------|------------------------|
E|-0------|---------------------------|-3----3----3--------3---|-----3----3----3---3----|


G|------------------------|------------------------|------------------------|------------------------|
D|------------------------|------------------------|------------------------|------------------------|
A|------------------------|------------------------|------------------------|------------------------|
E|-2----2----2--------2---|-----2----2----2---2----|-5----5----5--------5---|-----5----5----0---2----|


G|------------------------|---------------------|---------------------------|---------------------------|
D|------------------------|---------------------|---------------------------|---------------------------|
A|------------------------|----------------5----|-5----5----5-----------5---|-----5----5----------------|
E|-5----5----5--------5---|-----5-----9---------|---------------7---5-------|---------------7---5---7---|


G|---------------------------|---------------------------|---------------------------|
D|---------------------------|---------------------------|---------------------------|
A|-5----5----5-----------5---|-----5----5----------------|-5----5----5-----------5---|
E|---------------7---5-------|---------------7---5---7---|---------------7---5-------|


G|---------------------------|---------------------------|---------------------------|
D|---------------------------|---------------------------|---------------------------|
A|-----5----5----------------|-5----5----5-----------5---|-----5----5----------------|
E|---------------7---5---7---|---------------7---5-------|---------------7---5---7---|


G|--------|-------------|--------|-------------|--------|-------------|--------|-------------|
D|--------|-------------|--------|-------------|--------|-------------|--------|-------------|
A|-4------|-4------4----|-2------|-2------2----|-4------|-4------4----|-2------|-2------2----|
E|--------|-------------|--------|-------------|--------|-------------|--------|-------------|


G|------------------------|------------------------|------------------------|---------------------|
D|------------------------|------------------------|------------------------|---------------------|
A|------------------------|------------------------|------------------------|----------------5----|
E|-5----5----5--------5---|-----5----5----0---2----|-5----5----5--------5---|-----5-----9---------|


G|---------------------------|---------------------------|---------------------------|
D|---------------------------|---------------------------|---------------------------|
A|-5----5----5-----------5---|-----5----5----------------|-5----5----5-----------5---|
E|---------------7---5-------|---------------7---5---7---|---------------7---5-------|


G|---------------------------|---------------------------|---------------------------|
D|---------------------------|---------------------------|---------------------------|
A|-----5----5----------------|-5----5----5-----------5---|-----5----5----------------|
E|---------------7---5---7---|---------------7---5-------|---------------7---5---7---|


G|---------------------------|---------------------------|---------------------------|
D|---------------------------|---------------------------|---------------------------|
A|-5----5----5-----------5---|-----5----5----------------|-5----5----5-----------5---|
E|---------------7---5-------|---------------7---5---7---|---------------7---5-------|


G|---------------------------|---------------------------|---------------------------|
D|---------------------------|---------------------------|---------------------------|
A|-----5----5----------------|-5----5----5-----------5---|-----5----5----------------|
E|---------------7---5---7---|---------------7---5-------|---------------7---5---7---|


G|---------------------------|---------------------------|--------|---------------------|
D|---------------------------|---------------------------|--------|-4-----5----4----2---|
A|-5----5----5-----------5---|-----5----5----------------|--------|---------------------|
E|---------------7---5-------|---------------7---5---7---|-2------|---------------------|


G|--------|-4-----5----4----2---|--------|---------------------|--------|-5---4-------2----4--------|
D|--------|---------------------|--------|-4-----5----4----2---|--------|---------------------------|
A|--------|---------------------|--------|---------------------|--------|---------------------------|
E|-0------|---------------------|-2------|---------------------|-0------|---------------------------|


G|------------------------|------------------------|------------------------|------------------------|
D|------------------------|------------------------|------------------------|------------------------|
A|------------------------|------------------------|------------------------|------------------------|
E|-3----3----3--------3---|-----3----3----3---3----|-2----2----2--------2---|-----2----2----2---2----|


G|------------------------|------------------------|------------------------|---------------------|
D|------------------------|------------------------|------------------------|---------------------|
A|------------------------|------------------------|------------------------|----------------5----|
E|-5----5----5--------5---|-----5----5----0---2----|-5----5----5--------5---|-----5-----9---------|


G|---------------------------|---------------------------|---------------------------|
D|---------------------------|---------------------------|---------------------------|
A|-5----5----5-----------5---|-----5----5----------------|-5----5----5-----------5---|
E|---------------7---5-------|---------------7---5---7---|---------------7---5-------|


G|---------------------------|---------------------------|---------------------------|
D|---------------------------|---------------------------|---------------------------|
A|-----5----5----------------|-5----5----5-----------5---|-----5----5----------------|
E|---------------7---5---7---|---------------7---5-------|---------------7---5---7---|


G|---------------------------|---------------------------|---------------------------|
D|---------------------------|---------------------------|---------------------------|
A|-5----5----5-----------5---|-----5----5----------------|-5----5----5-----------5---|
E|---------------7---5-------|---------------7---5---7---|---------------7---5-------|


G|---------------------------|---------------------------|---------------------------|
D|---------------------------|---------------------------|---------------------------|
A|-----5----5----------------|-5----5----5-----------5---|-----5----5----------------|
E|---------------7---5---7---|---------------7---5-------|---------------7---5---7---|


G|---------------------------|---------------------------|---------------------------|
D|---------------------------|---------------------------|---------------------------|
A|-5----5----5-----------5---|-----5----5----------------|-5----5----5-----------5---|
E|---------------7---5-------|---------------7---5---7---|---------------7---5-------|


G|---------------------------|---------------------------|---------------------------|
D|---------------------------|---------------------------|---------------------------|
A|-----5----5----------------|-5----5----5-----------5---|-----5----5----------------|
E|---------------7---5---7---|---------------7---5-------|---------------7---5---7---|


G|---------------------------|---------------------------|
D|---------------------------|---------------------------|
A|-5----5----5-----------5---|-----5----5----------------|
E|---------------7---5-------|---------------7---5---7---|