Menu:

 

Search:

 

system of a down - this cocaine makes me feel like im on this song:

 



Title: This Cocaine Makes Me Feel Like I'm On This Song
Artist: 
Album: Mezmerize
Author: Daron Malakian


Track 1: Guitar 1

D#|-----------------------|-----------------------|-----------------------|-----------------------|
A#|-----------------------|-----------------------|-----------------------|-----------------------|
F#|-----------------------|-----------------------|-----------------------|-----------------------|
C#|-6---6---------4---7---|-6---6---------4---6---|-7---7---------9---7---|-6---6---------4---7---|
G#|-6---6---------4---7---|-6---6---------4---6---|-7---7---------9---7---|-6---6---------4---7---|
C#|-6---6---------4---7---|-6---6---------4---6---|-7---7---------9---7---|-6---6---------4---7---|


D#|-------------------------------------------|-------------------------------------------|
A#|-------------------------------------------|-------------------------------------------|
F#|--------8--8--8--8--8--8--8--8--8----------|--------8--8--8--8--8--8--8--8--8----------|
C#|-6---6-----------------------------4---7---|-6---6-----------------------------4---6---|
G#|-6---6-----------------------------4---7---|-6---6-----------------------------4---6---|
C#|-6---6-----------------------------4---7---|-6---6-----------------------------4---6---|


D#|-------------------------------------------|-------------------------------------------|
A#|-------------------------------------------|-------------------------------------------|
F#|--------9--9--9--9--9--9--9--9--9----------|--------8--8--8--8--8--8--8--8--8----------|
C#|-7---7-----------------------------9---7---|-6---6-----------------------------4---7---|
G#|-7---7-----------------------------9---7---|-6---6-----------------------------4---7---|
C#|-7---7-----------------------------9---7---|-6---6-----------------------------4---7---|


D#|-------------------------------------------|-------------------------------------------|
A#|-------------------------------------------|-------------------------------------------|
F#|--------8--8--8--8--8--8--8--8--8----------|--------8--8--8--8--8--8--8--8--8----------|
C#|-6---6-----------------------------4---7---|-6---6-----------------------------4---6---|
G#|-6---6-----------------------------4---7---|-6---6-----------------------------4---6---|
C#|-6---6-----------------------------4---7---|-6---6-----------------------------4---6---|


D#|-------------------------------------------|-------------------------------------------|
A#|-------------------------------------------|-------------------------------------------|
F#|--------9--9--9--9--9--9--9--9--9----------|--------8--8--8--8--8--8--8--8--8----------|
C#|-7---7-----------------------------9---7---|-6---6-----------------------------4---7---|
G#|-7---7-----------------------------9---7---|-6---6-----------------------------4---7---|
C#|-7---7-----------------------------9---7---|-6---6-----------------------------4---7---|


D#|-------------------------------------------------|-------------------------------------------------|
A#|-------------------------------------------------|-------------------------------------------------|
F#|-------------------------------------------------|-------------------------------------------------|
C#|-------------------------------------------------|-------------------------------------------------|
G#|-10-10-9--10-9--10-9--9--10-10-9--10-9--10-9--9--|-10-10-9--10-9--10-9--9--10-10-9--10-9--10-9--9--|
C#|-10-10-9--10-9--10-9--9--10-10-9--10-9--10-9--9--|-10-10-9--10-9--10-9--9--10-10-9--10-9--10-9--9--|


D#|-------------------------------------------------|-------------------------------------------------|
A#|-------------------------------------------------|-------------------------------------------------|
F#|-12-12-11-12-11-12-11-11-12-12-11-12-11-12-11-11-|-12-12-11-12-11-12-11-11-12-12-11-12-11-12-11-11-|
C#|-------------------------------------------------|-------------------------------------------------|
G#|-------------------------------------------------|-------------------------------------------------|
C#|-------------------------------------------------|-------------------------------------------------|


D#|--------|--------|---------------------------|--------|--------|---------------------------|
A#|--------|--------|---------------------------|--------|--------|---------------------------|
F#|-8------|-8------|---------------------------|--------|--------|---------------------------|
C#|--------|--------|-7----7----7---7---7---7---|--------|--------|-7----7----7---7---7---7---|
G#|--------|--------|-7----7----7---7---7---7---|--------|--------|-7----7----7---7---7---7---|
C#|--------|--------|-7----7----7---7---7---7---|-6------|-6------|-7----7----7---7---7---7---|


D#|-------------------------------------------------|-------------------------------------------------|
A#|-------------------------------------------------|-------------------------------------------------|
F#|-------------------------------------------------|-------------------------------------------------|
C#|-------------------------------------------------|-------------------------------------------------|
G#|-10-10-9--10-9--10-9--9--10-10-9--10-9--10-9--9--|-10-10-9--10-9--10-9--9--10-10-9--10-9--10-9--9--|
C#|-10-10-9--10-9--10-9--9--10-10-9--10-9--10-9--9--|-10-10-9--10-9--10-9--9--10-10-9--10-9--10-9--9--|


D#|-------------------------------------------------|-------------------------------------------------|
A#|-------------------------------------------------|-------------------------------------------------|
F#|-12-12-11-12-11-12-11-11-12-12-11-12-11-12-11-11-|-12-12-11-12-11-12-11-11-12-12-11-12-11-12-11-11-|
C#|-------------------------------------------------|-------------------------------------------------|
G#|-------------------------------------------------|-------------------------------------------------|
C#|-------------------------------------------------|-------------------------------------------------|


D#|-------------------------------------------|-------------------------------------------|
A#|-------------------------------------------|-------------------------------------------|
F#|--------8--8--8--8--8--8--8--8--8----------|--------8--8--8--8--8--8--8--8--8----------|
C#|-6---6-----------------------------4---7---|-6---6-----------------------------4---6---|
G#|-6---6-----------------------------4---7---|-6---6-----------------------------4---6---|
C#|-6---6-----------------------------4---7---|-6---6-----------------------------4---6---|


D#|-------------------------------------------|-------------------------------------------|
A#|-------------------------------------------|-------------------------------------------|
F#|--------9--9--9--9--9--9--9--9--9----------|--------8--8--8--8--8--8--8--8--8----------|
C#|-7---7-----------------------------9---7---|-6---6-----------------------------4---7---|
G#|-7---7-----------------------------9---7---|-6---6-----------------------------4---7---|
C#|-7---7-----------------------------9---7---|-6---6-----------------------------4---7---|


D#|-------------------------------------------|-------------------------------------------|
A#|-------------------------------------------|-------------------------------------------|
F#|--------8--8--8--8--8--8--8--8--8----------|--------8--8--8--8--8--8--8--8--8----------|
C#|-6---6-----------------------------4---7---|-6---6-----------------------------4---6---|
G#|-6---6-----------------------------4---7---|-6---6-----------------------------4---6---|
C#|-6---6-----------------------------4---7---|-6---6-----------------------------4---6---|


D#|-------------------------------------------|-------------------------------------------|
A#|-------------------------------------------|-------------------------------------------|
F#|--------9--9--9--9--9--9--9--9--9----------|--------8--8--8--8--8--8--8--8--8----------|
C#|-7---7-----------------------------9---7---|-6---6-----------------------------4---7---|
G#|-7---7-----------------------------9---7---|-6---6-----------------------------4---7---|
C#|-7---7-----------------------------9---7---|-6---6-----------------------------4---7---|


D#|-------------------------------------------------|-------------------------------------------------|
A#|-------------------------------------------------|-------------------------------------------------|
F#|-------------------------------------------------|-------------------------------------------------|
C#|-------------------------------------------------|-------------------------------------------------|
G#|-10-10-9--10-9--10-9--9--10-10-9--10-9--10-9--9--|-10-10-9--10-9--10-9--9--10-10-9--10-9--10-9--9--|
C#|-10-10-9--10-9--10-9--9--10-10-9--10-9--10-9--9--|-10-10-9--10-9--10-9--9--10-10-9--10-9--10-9--9--|


D#|-------------------------------------------------|-------------------------------------------------|
A#|-------------------------------------------------|-------------------------------------------------|
F#|-12-12-11-12-11-12-11-11-12-12-11-12-11-12-11-11-|-12-12-11-12-11-12-11-11-12-12-11-12-11-12-11-11-|
C#|-------------------------------------------------|-------------------------------------------------|
G#|-------------------------------------------------|-------------------------------------------------|
C#|-------------------------------------------------|-------------------------------------------------|


D#|--------|--------------------|---------------------------|--------|---------------------|
A#|--------|--------------------|---------------------------|--------|---------------------|
F#|-8------|-11---11-9----8-----|---------------------------|--------|---------------------|
C#|--------|--------------------|-7----7----7---7---7---7---|--------|---------------------|
G#|--------|--------------------|-7----7----7---7---7---7---|--------|-9----7----6----7----|
C#|--------|--------------------|-7----7----7---7---7---7---|-6------|-6----6----6----6----|


D#|---------------------------|-------------------------------------------------|-------------------------------------------------|
A#|---------------------------|-------------------------------------------------|-------------------------------------------------|
F#|---------------------------|-------------------------------------------------|-------------------------------------------------|
C#|-7----7----7---7---7---7---|-------------------------------------------------|-------------------------------------------------|
G#|-7----7----7---7---7---7---|-10-10-9--10-9--10-9--9--10-10-9--10-9--10-9--9--|-10-10-9--10-9--10-9--9--10-10-9--10-9--10-9--9--|
C#|-7----7----7---7---7---7---|-10-10-9--10-9--10-9--9--10-10-9--10-9--10-9--9--|-10-10-9--10-9--10-9--9--10-10-9--10-9--10-9--9--|


D#|-------------------------------------------------|-------------------------------------------------|
A#|-------------------------------------------------|-------------------------------------------------|
F#|-12-12-11-12-11-12-11-11-12-12-11-12-11-12-11-11-|-12-12-11-12-11-12-11-11-12-12-11-12-11-12-11-11-|
C#|-------------------------------------------------|-------------------------------------------------|
G#|-------------------------------------------------|-------------------------------------------------|
C#|-------------------------------------------------|-------------------------------------------------|


D#|-------------------------------------------|-------------------------------------------|
A#|-------------------------------------------|-------------------------------------------|
F#|--------8--8--8--8--8--8--8--8--8----------|--------8--8--8--8--8--8--8--8--8----------|
C#|-6---6-----------------------------4---7---|-6---6-----------------------------4---6---|
G#|-6---6-----------------------------4---7---|-6---6-----------------------------4---6---|
C#|-6---6-----------------------------4---7---|-6---6-----------------------------4---6---|


D#|-------------------------------------------|-------------------------------------------|
A#|-------------------------------------------|-------------------------------------------|
F#|--------9--9--9--9--9--9--9--9--9----------|--------8--8--8--8--8--8--8--8--8----------|
C#|-7---7-----------------------------9---7---|-6---6-----------------------------4---7---|
G#|-7---7-----------------------------9---7---|-6---6-----------------------------4---7---|
C#|-7---7-----------------------------9---7---|-6---6-----------------------------4---7---|


D#|-------------------------------------------|-------------------------------------------|
A#|-------------------------------------------|-------------------------------------------|
F#|--------8--8--8--8--8--8--8--8--8----------|--------8--8--8--8--8--8--8--8--8----------|
C#|-6---6-----------------------------4---7---|-6---6-----------------------------4---6---|
G#|-6---6-----------------------------4---7---|-6---6-----------------------------4---6---|
C#|-6---6-----------------------------4---7---|-6---6-----------------------------4---6---|


D#|-------------------------------------------|-------------------------------------------|
A#|-------------------------------------------|-------------------------------------------|
F#|--------9--9--9--9--9--9--9--9--9----------|--------8--8--8--8--8--8--8--8--8----------|
C#|-7---7-----------------------------9---7---|-6---6-----------------------------4---7---|
G#|-7---7-----------------------------9---7---|-6---6-----------------------------4---7---|
C#|-7---7-----------------------------9---7---|-6---6-----------------------------4---7---|


D#|-------------|
A#|-------------|
F#|-------------|
C#|-6-----------|
G#|-6-----------|
C#|-6-----------|





Track 2: Guitar 2

D#|--------|--------|--------|--------|--------|--------|--------|--------|--------|
A#|--------|--------|--------|--------|--------|--------|--------|--------|--------|
F#|--------|--------|--------|--------|--------|--------|--------|--------|--------|
C#|--------|--------|--------|--------|--------|--------|--------|--------|--------|
G#|--------|--------|--------|--------|--------|--------|--------|--------|--------|
C#|--------|--------|--------|--------|--------|--------|--------|--------|--------|


D#|--------|--------|--------|--------|--------|--------|-------------------------------------------------|
A#|--------|--------|--------|--------|--------|--------|-13-13-12-13-12-13-12-12-13-13-12-13-12-13-12-12-|
F#|--------|--------|--------|--------|--------|--------|-------------------------------------------------|
C#|--------|--------|--------|--------|--------|--------|-------------------------------------------------|
G#|--------|--------|--------|--------|--------|--------|-------------------------------------------------|
C#|--------|--------|--------|--------|--------|--------|-------------------------------------------------|


D#|-------------|--------|--------|--------|--------|--------|--------|--------|--------|
A#|-------------|--------|--------|--------|--------|--------|--------|--------|--------|
F#|-------------|--------|--------|--------|--------|--------|--------|--------|--------|
C#|-6-----------|--------|--------|--------|--------|--------|--------|--------|--------|
G#|-6-----------|--------|--------|--------|--------|--------|--------|--------|--------|
C#|-6-----------|--------|--------|--------|--------|--------|--------|--------|--------|


D#|-------------------------------------------------|--------|--------|--------|--------|
A#|-13-13-12-13-12-13-12-12-13-13-12-13-12-13-12-12-|--------|--------|--------|--------|
F#|-------------------------------------------------|--------|--------|--------|--------|
C#|-------------------------------------------------|--------|--------|--------|--------|
G#|-------------------------------------------------|--------|--------|--------|--------|
C#|-------------------------------------------------|--------|--------|--------|--------|


D#|--------|--------|--------|--------|--------|--------|--------|-------------------------------------------------|
A#|--------|--------|--------|--------|--------|--------|--------|-13-13-12-13-12-13-12-12-13-13-12-13-12-13-12-12-|
F#|--------|--------|--------|--------|--------|--------|--------|-------------------------------------------------|
C#|--------|--------|--------|--------|--------|--------|--------|-------------------------------------------------|
G#|--------|--------|--------|--------|--------|--------|--------|-------------------------------------------------|
C#|--------|--------|--------|--------|--------|--------|--------|-------------------------------------------------|


D#|-------------|--------|--------|--------|--------|--------|--------|--------|--------|
A#|-------------|--------|--------|--------|--------|--------|--------|--------|--------|
F#|-------------|--------|--------|--------|--------|--------|--------|--------|--------|
C#|-6-----------|--------|--------|--------|--------|--------|--------|--------|--------|
G#|-6-----------|--------|--------|--------|--------|--------|--------|--------|--------|
C#|-6-----------|--------|--------|--------|--------|--------|--------|--------|--------|


D#|-------------------------------------------------|--------|--------|--------|--------|
A#|-13-13-12-13-12-13-12-12-13-13-12-13-12-13-12-12-|--------|--------|--------|--------|
F#|-------------------------------------------------|--------|--------|--------|--------|
C#|-------------------------------------------------|--------|--------|--------|--------|
G#|-------------------------------------------------|--------|--------|--------|--------|
C#|-------------------------------------------------|--------|--------|--------|--------|


D#|--------|--------|--------|--------|--------|
A#|--------|--------|--------|--------|--------|
F#|--------|--------|--------|--------|--------|
C#|--------|--------|--------|--------|--------|
G#|--------|--------|--------|--------|--------|
C#|--------|--------|--------|--------|--------|





Track 3: Untitled

F#|-----------------------|-----------------------|-----------------------|-----------------------|
C#|-----------------------|-----------------------|-----------------------|-----------------------|
G#|-----------------------|-----------------------|-----------------------|-----------------------|
C#|-6---6---------4---7---|-6---6---------4---6---|-7---7---------9---7---|-6---6---------4---7---|


F#|-----------------------|-----------------------|-----------------------|-----------------------|
C#|-----------------------|-----------------------|-----------------------|-----------------------|
G#|-----------------------|-----------------------|-----------------------|-----------------------|
C#|-6---6---------4---7---|-6---6---------4---6---|-7---7---------9---7---|-6---6---------4---7---|


F#|-----------------------|-----------------------|-----------------------|-----------------------|
C#|-----------------------|-----------------------|-----------------------|-----------------------|
G#|-----------------------|-----------------------|-----------------------|-----------------------|
C#|-6---6---------4---7---|-6---6---------4---6---|-7---7---------9---7---|-6---6---------4---7---|


F#|-------------------------------------------------|-------------------------------------------------|
C#|-------------------------------------------------|-------------------------------------------------|
G#|-------------------------------------------------|-------------------------------------------------|
C#|-10-10-9--10-9--10-9--9--10-10-9--10-9--10-9--9--|-10-10-9--10-9--10-9--9--10-10-9--10-9--10-9--9--|


F#|-------------------------------------------------|-------------------------------------------------|
C#|-------------------------------------------------|-------------------------------------------------|
G#|-------------------------------------------------|-------------------------------------------------|
C#|-10-10-9--10-9--10-9--9--10-10-9--10-9--10-9--9--|-10-10-9--10-9--10-9--9--10-10-9--10-9--10-9--9--|


F#|--------|--------|---------------------------|--------|--------|---------------------------|
C#|--------|--------|---------------------------|--------|--------|---------------------------|
G#|--------|--------|---------------------------|--------|--------|---------------------------|
C#|--------|--------|-7----7----7---7---7---7---|-6------|-6------|-7----7----7---7---7---7---|


F#|-------------------------------------------------|-------------------------------------------------|
C#|-------------------------------------------------|-------------------------------------------------|
G#|-------------------------------------------------|-------------------------------------------------|
C#|-10-10-9--10-9--10-9--9--10-10-9--10-9--10-9--9--|-10-10-9--10-9--10-9--9--10-10-9--10-9--10-9--9--|


F#|-------------------------------------------------|-------------------------------------------------|
C#|-------------------------------------------------|-------------------------------------------------|
G#|-------------------------------------------------|-------------------------------------------------|
C#|-10-10-9--10-9--10-9--9--10-10-9--10-9--10-9--9--|-10-10-9--10-9--10-9--9--10-10-9--10-9--10-9--9--|


F#|-----------------------|-----------------------|-----------------------|-----------------------|
C#|-----------------------|-----------------------|-----------------------|-----------------------|
G#|-----------------------|-----------------------|-----------------------|-----------------------|
C#|-6---6---------4---7---|-6---6---------4---6---|-7---7---------9---7---|-6---6---------4---7---|


F#|-----------------------|-----------------------|-----------------------|-----------------------|
C#|-----------------------|-----------------------|-----------------------|-----------------------|
G#|-----------------------|-----------------------|-----------------------|-----------------------|
C#|-6---6---------4---7---|-6---6---------4---6---|-7---7---------9---7---|-6---6---------4---7---|


F#|-------------------------------------------------|-------------------------------------------------|
C#|-------------------------------------------------|-------------------------------------------------|
G#|-------------------------------------------------|-------------------------------------------------|
C#|-10-10-9--10-9--10-9--9--10-10-9--10-9--10-9--9--|-10-10-9--10-9--10-9--9--10-10-9--10-9--10-9--9--|


F#|-------------------------------------------------|-------------------------------------------------|
C#|-------------------------------------------------|-------------------------------------------------|
G#|-------------------------------------------------|-------------------------------------------------|
C#|-10-10-9--10-9--10-9--9--10-10-9--10-9--10-9--9--|-10-10-9--10-9--10-9--9--10-10-9--10-9--10-9--9--|


F#|--------|--------|---------------------------|--------|--------|---------------------------|
C#|--------|--------|---------------------------|--------|--------|---------------------------|
G#|--------|--------|---------------------------|--------|--------|---------------------------|
C#|--------|--------|-7----7----7---7---7---7---|-6------|-6------|-7----7----7---7---7---7---|


F#|-------------------------------------------------|-------------------------------------------------|
C#|-------------------------------------------------|-------------------------------------------------|
G#|-------------------------------------------------|-------------------------------------------------|
C#|-10-10-9--10-9--10-9--9--10-10-9--10-9--10-9--9--|-10-10-9--10-9--10-9--9--10-10-9--10-9--10-9--9--|


F#|-------------------------------------------------|-------------------------------------------------|
C#|-------------------------------------------------|-------------------------------------------------|
G#|-------------------------------------------------|-------------------------------------------------|
C#|-10-10-9--10-9--10-9--9--10-10-9--10-9--10-9--9--|-10-10-9--10-9--10-9--9--10-10-9--10-9--10-9--9--|


F#|-----------------------|-----------------------|-----------------------|-----------------------|
C#|-----------------------|-----------------------|-----------------------|-----------------------|
G#|-----------------------|-----------------------|-----------------------|-----------------------|
C#|-6---6---------4---7---|-6---6---------4---6---|-7---7---------9---7---|-6---6---------4---7---|


F#|-----------------------|-----------------------|-----------------------|-----------------------|
C#|-----------------------|-----------------------|-----------------------|-----------------------|
G#|-----------------------|-----------------------|-----------------------|-----------------------|
C#|-6---6---------4---7---|-6---6---------4---6---|-7---7---------9---7---|-6---6---------4---7---|


F#|-------------|
C#|-------------|
G#|-------------|
C#|-6-----------|