Menu:

 

Search:

 

system of a down - roulette:

 



Title: Roulette
Artist: 
Album: Steal this album
Author: Daron malakian


Track 1: daron

D|---------------------------|---------------------------|---------------------------|
A|------6------------6-------|------10-----------5-------|------8------------8-------|
F|---------------------------|---------------------------|---------------------------|
C|---------------------------|---------------------------|---------------------------|
G|-5--------5----5-------5---|-8--------0---3--------3---|-6--------6----6-------6---|
C|---------------------------|---------------------------|---------------------------|


D|---------------------------|---------------------------|---------------------------|
A|------3------------5-------|------6------------6-------|------10-----------5-------|
F|---------------------------|---------------------------|---------------------------|
C|---------------------------|---------------------------|---------------------------|
G|-1--------1---3--------3---|-5--------5----5-------5---|-8--------0---3--------3---|
C|---------------------------|---------------------------|---------------------------|


D|---------------------------|---------------------------|---------------------------|
A|------8------------8-------|------3------------5-------|------6------------6-------|
F|---------------------------|---------------------------|---------------------------|
C|---------------------------|---------------------------|---------------------------|
G|-6--------6----6-------6---|-1--------1---3--------3---|-5--------5----5-------5---|
C|---------------------------|---------------------------|---------------------------|


D|---------------------------|---------------------------|---------------------------|
A|------10-----------5-------|------8------------8-------|------3------------5-------|
F|---------------------------|---------------------------|---------------------------|
C|---------------------------|---------------------------|---------------------------|
G|-8--------0---3--------3---|-6--------6----6-------6---|-1--------1---3--------3---|
C|---------------------------|---------------------------|---------------------------|


D|---------------------------|---------------------------|---------------------------|
A|------6------------6-------|------10-----------5-------|------8------------8-------|
F|---------------------------|---------------------------|---------------------------|
C|---------------------------|---------------------------|---------------------------|
G|-5--------5----5-------5---|-8--------0---3--------3---|-6--------6----6-------6---|
C|---------------------------|---------------------------|---------------------------|


D|---------------------------|---------------------------|---------------------------|
A|------3------------5-------|------6------------6-------|------2------------2-------|
F|---------------------------|---------------------------|---------------------------|
C|---------------------------|---------------------------|---------------------------|
G|-1--------1---3--------3---|-5--------5----5-------5---|-0--------0----0-------0---|
C|---------------------------|---------------------------|---------------------------|


D|---------------------------|---------------------------|---------------------------|
A|------5------------5-------|------3------------5-------|------6------------6-------|
F|---------------------------|---------------------------|---------------------------|
C|---------------------------|---------------------------|---------------------------|
G|-3--------3----3-------3---|-1--------1---3--------3---|-5--------5----5-------5---|
C|---------------------------|---------------------------|---------------------------|


D|---------------------------|---------------------------|---------------------------|
A|------2------------2-------|------5------------5-------|------3------------5-------|
F|---------------------------|---------------------------|---------------------------|
C|---------------------------|---------------------------|---------------------------|
G|-0--------0----0-------0---|-3--------3----3-------3---|-1--------1---3--------3---|
C|---------------------------|---------------------------|---------------------------|


D|---------------------------|---------------------------|---------------------------|
A|------6------------6-------|------10-----------5-------|------8------------8-------|
F|---------------------------|---------------------------|---------------------------|
C|---------------------------|---------------------------|---------------------------|
G|-5--------5----5-------5---|-8--------0---3--------3---|-6--------6----6-------6---|
C|---------------------------|---------------------------|---------------------------|


D|---------------------------|---------------------------|---------------------------|
A|------3------------5-------|------6------------6-------|------10-----------5-------|
F|---------------------------|---------------------------|---------------------------|
C|---------------------------|---------------------------|---------------------------|
G|-1--------1---3--------0---|-5--------5----5-------5---|-8--------0---3--------3---|
C|---------------------------|---------------------------|---------------------------|


D|---------------------------|---------------------------|---------------------------|
A|------8------------8-------|------3------------5-------|------6------------6-------|
F|---------------------------|---------------------------|---------------------------|
C|---------------------------|---------------------------|---------------------------|
G|-6--------6----6-------6---|-1--------1---3--------0---|-5--------5----5-------5---|
C|---------------------------|---------------------------|---------------------------|


D|---------------------------|---------------------------|---------------------------|
A|------10-----------5-------|------8------------8-------|------3------------5-------|
F|---------------------------|---------------------------|---------------------------|
C|---------------------------|---------------------------|---------------------------|
G|-8--------0---3--------3---|-6--------6----6-------6---|-1--------1---3--------0---|
C|---------------------------|---------------------------|---------------------------|


D|---------------------------|---------------------------|---------------------------|
A|------6------------6-------|------10-----------5-------|------8------------8-------|
F|---------------------------|---------------------------|---------------------------|
C|---------------------------|---------------------------|---------------------------|
G|-5--------5----5-------5---|-8--------0---3--------3---|-6--------6----6-------6---|
C|---------------------------|---------------------------|---------------------------|


D|---------------------------|---------------------------|---------------------------|
A|------3------------5-------|------6------------6-------|------2------------2-------|
F|---------------------------|---------------------------|---------------------------|
C|---------------------------|---------------------------|---------------------------|
G|-1--------1---3--------0---|-5--------5----5-------5---|-0--------0----0-------0---|
C|---------------------------|---------------------------|---------------------------|


D|---------------------------|---------------------------|---------------------------|
A|------5------------5-------|------3------------5-------|------6------------6-------|
F|---------------------------|---------------------------|---------------------------|
C|---------------------------|---------------------------|---------------------------|
G|-3--------3----3-------3---|-1--------1---3--------3---|-5--------5----5-------5---|
C|---------------------------|---------------------------|---------------------------|


D|---------------------------|---------------------------|---------------------------|
A|------2------------2-------|------5------------5-------|------3------------5-------|
F|---------------------------|---------------------------|---------------------------|
C|---------------------------|---------------------------|---------------------------|
G|-0--------0----0-------0---|-3--------3----3-------3---|-1--------1---3--------3---|
C|---------------------------|---------------------------|---------------------------|


D|---------------------------|---------------------------|---------------------------|
A|------6------------6-------|------2------------2-------|------5------------5-------|
F|---------------------------|---------------------------|---------------------------|
C|---------------------------|---------------------------|---------------------------|
G|-5--------5----5-------5---|-0--------0----0-------0---|-3--------3----3-------3---|
C|---------------------------|---------------------------|---------------------------|


D|---------------------------|---------------------------|---------------------------|
A|------3------------5-------|------6------------6-------|------2------------2-------|
F|---------------------------|---------------------------|---------------------------|
C|---------------------------|---------------------------|---------------------------|
G|-1--------1---3--------3---|-5--------5----5-------5---|-0--------0----0-------0---|
C|---------------------------|---------------------------|---------------------------|


D|---------------------------|---------------------------|---------------------------|
A|------5------------5-------|------3------------5-------|------6------------6-------|
F|---------------------------|---------------------------|---------------------------|
C|---------------------------|---------------------------|---------------------------|
G|-3--------3----3-------3---|-1--------1---3--------3---|-5--------5----5-------5---|
C|---------------------------|---------------------------|---------------------------|


D|---------------------------|---------------------------|---------------------------|
A|------10-----------5-------|------8------------8-------|------3------------5-------|
F|---------------------------|---------------------------|---------------------------|
C|---------------------------|---------------------------|---------------------------|
G|-8--------0---3--------3---|-6--------6----6-------6---|-1--------1---3--------3---|
C|---------------------------|---------------------------|---------------------------|


D|-----------------------------|---------------------------|---------------------------|
A|------6------------6---------|------10-----------5-------|------8------------8-------|
F|-----------------------------|---------------------------|---------------------------|
C|-----------------------------|---------------------------|---------------------------|
G|-5--------5----5-------5--5--|-8--------0---3--------3---|-6--------6----6-------6---|
C|-----------------------------|---------------------------|---------------------------|


D|---------------------------|---------------------------|---------------------------|
A|------3------------5-------|------6------------6-------|------10-----------5-------|
F|---------------------------|---------------------------|---------------------------|
C|---------------------------|---------------------------|---------------------------|
G|-1--------1---3--------3---|-5--------5----5-------5---|-8--------0---3--------3---|
C|---------------------------|---------------------------|---------------------------|


D|---------------------------|---------------------------|-----------------------------|
A|------8------------8-------|------3------------5-------|------6------------6---------|
F|---------------------------|---------------------------|-----------------------------|
C|---------------------------|---------------------------|-----------------------------|
G|-6--------6----6-------6---|-1--------1---3--------3---|-5--------5----5-------5--5--|
C|---------------------------|---------------------------|-----------------------------|


D|---------------------------|---------------------------|---------------------------|
A|------10-----------5-------|------8------------8-------|------3------------5-------|
F|---------------------------|---------------------------|---------------------------|
C|---------------------------|---------------------------|---------------------------|
G|-8--------0---3--------3---|-6--------6----6-------6---|-1--------1---3--------3---|
C|---------------------------|---------------------------|---------------------------|


D|---------------------------|---------------------------|---------------------------|
A|------6------------6-------|------2------------2-------|------5------------5-------|
F|---------------------------|---------------------------|---------------------------|
C|---------------------------|---------------------------|---------------------------|
G|-5--------5----5-------5---|-0--------0----0-------0---|-3--------3----3-------3---|
C|---------------------------|---------------------------|---------------------------|


D|---------------------------|---------------------------|---------------------------|
A|------3------------5-------|------6------------6-------|------2------------2-------|
F|---------------------------|---------------------------|---------------------------|
C|---------------------------|---------------------------|---------------------------|
G|-1--------1---3--------3---|-5--------5----5-------5---|-0--------0----0-------0---|
C|---------------------------|---------------------------|---------------------------|


D|---------------------------|---------------------------|---------------------------|
A|------5------------5-------|------3------------5-------|------6------------6-------|
F|---------------------------|---------------------------|---------------------------|
C|---------------------------|---------------------------|---------------------------|
G|-3--------3----3-------3---|-1--------1---3--------3---|-5--------5----5-------5---|
C|---------------------------|---------------------------|---------------------------|


D|---------------------------|---------------------------|---------------------------|
A|------2------------2-------|------5------------5-------|------3------------5-------|
F|---------------------------|---------------------------|---------------------------|
C|---------------------------|---------------------------|---------------------------|
G|-0--------0----0-------0---|-3--------3----3-------3---|-1--------1---3--------3---|
C|---------------------------|---------------------------|---------------------------|


D|---------------------------|---------------------------|---------------------------|
A|------6------------6-------|------2------------2-------|------5------------5-------|
F|---------------------------|---------------------------|---------------------------|
C|---------------------------|---------------------------|---------------------------|
G|-5--------5----5-------5---|-0--------0----0-------0---|-3--------3----3-------3---|
C|---------------------------|---------------------------|---------------------------|


D|---------------------------|---------------------------|---------------------------|
A|------3------------5-------|------6------------6-------|------10-----------5-------|
F|---------------------------|---------------------------|---------------------------|
C|---------------------------|---------------------------|---------------------------|
G|-1--------1---3--------3---|-5--------5----5-------5---|-8--------0---3--------3---|
C|---------------------------|---------------------------|---------------------------|


D|---------------------------|---------------------------|---------------------------|
A|------8------------8-------|------3------------5-------|------6------------6-------|
F|---------------------------|---------------------------|---------------------------|
C|---------------------------|---------------------------|---------------------------|
G|-6--------6----6-------6---|-1--------1---3--------3---|-5--------5----5-------5---|
C|---------------------------|---------------------------|---------------------------|


D|---------------------------|---------------------------|---------------------------|
A|------10-----------5-------|------8------------8-------|------3------------5-------|
F|---------------------------|---------------------------|---------------------------|
C|---------------------------|---------------------------|---------------------------|
G|-8--------0---3--------3---|-6--------6----6-------6---|-1--------1---3--------3---|
C|---------------------------|---------------------------|---------------------------|


D|---------------------------|---------------------------|---------------------------|
A|------6------------6-------|------10-----------5-------|------8------------8-------|
F|---------------------------|---------------------------|---------------------------|
C|---------------------------|---------------------------|---------------------------|
G|-5--------5----5-------5---|-8--------0---3--------3---|-6--------6----6-------6---|
C|---------------------------|---------------------------|---------------------------|


D|---------------------------|---------------------------|---------------------------|
A|------3------------5-------|------6------------6-------|------10-----------5-------|
F|---------------------------|---------------------------|---------------------------|
C|---------------------------|---------------------------|---------------------------|
G|-1--------1---3--------3---|-5--------5----5-------5---|-8--------0---3--------3---|
C|---------------------------|---------------------------|---------------------------|


D|---------------------------|---------------------------|-5------|
A|------8------------8-------|------3------------5-------|-6------|
F|---------------------------|---------------------------|-7------|
C|---------------------------|---------------------------|-7------|
G|-6--------6----6-------6---|-1--------1---3--------3---|-5------|
C|---------------------------|---------------------------|--------|





Track 2: daron solo steel

D|--------|--------|--------|--------|--------|--------|--------|--------|--------|
A|--------|--------|--------|--------|--------|--------|--------|--------|--------|
F|--------|--------|--------|--------|--------|--------|--------|--------|--------|
C|--------|--------|--------|--------|--------|--------|--------|--------|--------|
G|--------|--------|--------|--------|--------|--------|--------|--------|--------|
C|--------|--------|--------|--------|--------|--------|--------|--------|--------|


D|--------|--------|--------|--------|--------|--------|--------|--------|--------|
A|--------|--------|--------|--------|--------|--------|--------|--------|--------|
F|--------|--------|--------|--------|--------|--------|--------|--------|--------|
C|--------|--------|--------|--------|--------|--------|--------|--------|--------|
G|--------|--------|--------|--------|--------|--------|--------|--------|--------|
C|--------|--------|--------|--------|--------|--------|--------|--------|--------|


D|--------|--------|--------|--------|--------|--------|--------|--------|--------|
A|--------|--------|--------|--------|--------|--------|--------|--------|--------|
F|--------|--------|--------|--------|--------|--------|--------|--------|--------|
C|--------|--------|--------|--------|--------|--------|--------|--------|--------|
G|--------|--------|--------|--------|--------|--------|--------|--------|--------|
C|--------|--------|--------|--------|--------|--------|--------|--------|--------|


D|--------|--------|--------|--------|--------|--------|--------|--------|--------|
A|--------|--------|--------|--------|--------|--------|--------|--------|--------|
F|--------|--------|--------|--------|--------|--------|--------|--------|--------|
C|--------|--------|--------|--------|--------|--------|--------|--------|--------|
G|--------|--------|--------|--------|--------|--------|--------|--------|--------|
C|--------|--------|--------|--------|--------|--------|--------|--------|--------|


D|--------|--------|--------|--------|--------|--------|--------|--------|--------|
A|--------|--------|--------|--------|--------|--------|--------|--------|--------|
F|--------|--------|--------|--------|--------|--------|--------|--------|--------|
C|--------|--------|--------|--------|--------|--------|--------|--------|--------|
G|--------|--------|--------|--------|--------|--------|--------|--------|--------|
C|--------|--------|--------|--------|--------|--------|--------|--------|--------|


D|--------|--------|--------|--------|--------|--------|--------|--------|--------|
A|--------|--------|--------|--------|--------|--------|--------|--------|--------|
F|--------|--------|--------|--------|--------|--------|--------|--------|--------|
C|--------|--------|--------|--------|--------|--------|--------|--------|--------|
G|--------|--------|--------|--------|--------|--------|--------|--------|--------|
C|--------|--------|--------|--------|--------|--------|--------|--------|--------|


D|--------|--------|-10-----10-12-|-13-----12-13-|-15-----12-13-|-15--13--12--10--12--13--13--12--|
A|--------|--------|--------------|--------------|--------------|---------------------------------|
F|--------|--------|--------------|--------------|--------------|---------------------------------|
C|--------|--------|--------------|--------------|--------------|---------------------------------|
G|--------|--------|--------------|--------------|--------------|---------------------------------|
C|--------|--------|--------------|--------------|--------------|---------------------------------|


D|-10--------------------|---------------------------------|-----------------|-6---5---5---3---3---1---1----|
A|-------10--10----10-11-|-13--11--10--8---10--11--11--10--|-8---------------|-8---6---6---5---5---3---3----|
F|-----------------------|---------------------------------|-----------------|------------------------------|
C|-----------------------|---------------------------------|-------8---8-----|------------------------------|
G|-----------------------|---------------------------------|-----------------|------------------------------|
C|-----------------------|---------------------------------|-----------------|------------------------------|


D|-10-----10-12-|-13-----12-13-|-15-----12-13-|-15--13--12--10--12--13--13--12--|-10--------------------|
A|--------------|--------------|--------------|---------------------------------|-------10--10----10-11-|
F|--------------|--------------|--------------|---------------------------------|-----------------------|
C|--------------|--------------|--------------|---------------------------------|-----------------------|
G|--------------|--------------|--------------|---------------------------------|-----------------------|
C|--------------|--------------|--------------|---------------------------------|-----------------------|


D|---------------------------------|-----------------|-6---5---5---3---3---1---1----|
A|-13--11--10--8---10--11--11--10--|-8---------------|-8---6---6---5---5---3---3----|
F|---------------------------------|-----------------|------------------------------|
C|---------------------------------|-------8---8-----|------------------------------|
G|---------------------------------|-----------------|------------------------------|
C|---------------------------------|-----------------|------------------------------|


D|--------|--------|--------|--------|--------|--------|--------|--------|--------|
A|--------|--------|--------|--------|--------|--------|--------|--------|--------|
F|--------|--------|--------|--------|--------|--------|--------|--------|--------|
C|--------|--------|--------|--------|--------|--------|--------|--------|--------|
G|--------|--------|--------|--------|--------|--------|--------|--------|--------|
C|--------|--------|--------|--------|--------|--------|--------|--------|--------|


D|--------|--------|--------|--------|--------|--------|--------|--------|--------|
A|--------|--------|--------|--------|--------|--------|--------|--------|--------|
F|--------|--------|--------|--------|--------|--------|--------|--------|--------|
C|--------|--------|--------|--------|--------|--------|--------|--------|--------|
G|--------|--------|--------|--------|--------|--------|--------|--------|--------|
C|--------|--------|--------|--------|--------|--------|--------|--------|--------|


D|--------|--------|--------|--------|--------|--------|--------|--------|--------|
A|--------|--------|--------|--------|--------|--------|--------|--------|--------|
F|--------|--------|--------|--------|--------|--------|--------|--------|--------|
C|--------|--------|--------|--------|--------|--------|--------|--------|--------|
G|--------|--------|--------|--------|--------|--------|--------|--------|--------|
C|--------|--------|--------|--------|--------|--------|--------|--------|--------|


D|--------|--------|--------|--------|--------|--------|
A|--------|--------|--------|--------|--------|--------|
F|--------|--------|--------|--------|--------|--------|
C|--------|--------|--------|--------|--------|--------|
G|--------|--------|--------|--------|--------|--------|
C|--------|--------|--------|--------|--------|--------|





Track 3: daron solo overdub

D|--------|--------|--------|--------|--------|--------|--------|--------|--------|
A|--------|--------|--------|--------|--------|--------|--------|--------|--------|
F|--------|--------|--------|--------|--------|--------|--------|--------|--------|
C|--------|--------|--------|--------|--------|--------|--------|--------|--------|
G|--------|--------|--------|--------|--------|--------|--------|--------|--------|
C|--------|--------|--------|--------|--------|--------|--------|--------|--------|


D|--------|--------|--------|--------|--------|--------|--------|--------|--------|
A|--------|--------|--------|--------|--------|--------|--------|--------|--------|
F|--------|--------|--------|--------|--------|--------|--------|--------|--------|
C|--------|--------|--------|--------|--------|--------|--------|--------|--------|
G|--------|--------|--------|--------|--------|--------|--------|--------|--------|
C|--------|--------|--------|--------|--------|--------|--------|--------|--------|


D|--------|--------|--------|--------|--------|--------|--------|--------|--------|
A|--------|--------|--------|--------|--------|--------|--------|--------|--------|
F|--------|--------|--------|--------|--------|--------|--------|--------|--------|
C|--------|--------|--------|--------|--------|--------|--------|--------|--------|
G|--------|--------|--------|--------|--------|--------|--------|--------|--------|
C|--------|--------|--------|--------|--------|--------|--------|--------|--------|


D|--------|--------|--------|--------|--------|--------|--------|--------|--------|
A|--------|--------|--------|--------|--------|--------|--------|--------|--------|
F|--------|--------|--------|--------|--------|--------|--------|--------|--------|
C|--------|--------|--------|--------|--------|--------|--------|--------|--------|
G|--------|--------|--------|--------|--------|--------|--------|--------|--------|
C|--------|--------|--------|--------|--------|--------|--------|--------|--------|


D|--------|--------|--------|--------|--------|--------|--------|--------|--------|
A|--------|--------|--------|--------|--------|--------|--------|--------|--------|
F|--------|--------|--------|--------|--------|--------|--------|--------|--------|
C|--------|--------|--------|--------|--------|--------|--------|--------|--------|
G|--------|--------|--------|--------|--------|--------|--------|--------|--------|
C|--------|--------|--------|--------|--------|--------|--------|--------|--------|


D|--------|--------|--------|--------|--------|--------|--------|--------|--------|
A|--------|--------|--------|--------|--------|--------|--------|--------|--------|
F|--------|--------|--------|--------|--------|--------|--------|--------|--------|
C|--------|--------|--------|--------|--------|--------|--------|--------|--------|
G|--------|--------|--------|--------|--------|--------|--------|--------|--------|
C|--------|--------|--------|--------|--------|--------|--------|--------|--------|


D|--------|--------|--------|--------|--------|--------|--------|--------|--------|
A|--------|--------|--------|--------|--------|--------|--------|--------|--------|
F|--------|--------|--------|--------|--------|--------|--------|--------|--------|
C|--------|--------|--------|--------|--------|--------|--------|--------|--------|
G|--------|--------|--------|--------|--------|--------|--------|--------|--------|
C|--------|--------|--------|--------|--------|--------|--------|--------|--------|


D|--------|-13-----13-15-|-17---------|-18-----17-15-|-20--18--17--15--17--18--17--15--|
A|--------|--------------|------------|--------------|---------------------------------|
F|--------|--------------|------------|--------------|---------------------------------|
C|--------|--------------|------------|--------------|---------------------------------|
G|--------|--------------|------------|--------------|---------------------------------|
C|--------|--------------|------------|--------------|---------------------------------|


D|-15--------------------|---------------------------------|-----------------|-15--13--13--12--12--10--10---|
A|-------18--18----17-18-|-20--18--17--15--17--18--17--15--|-15--------------|-17--15--15--13--13--10--10---|
F|-----------------------|---------------------------------|-------14--14----|------------------------------|
C|-----------------------|---------------------------------|-----------------|------------------------------|
G|-----------------------|---------------------------------|-----------------|------------------------------|
C|-----------------------|---------------------------------|-----------------|------------------------------|


D|--------|--------|--------|--------|--------|--------|--------|--------|--------|
A|--------|--------|--------|--------|--------|--------|--------|--------|--------|
F|--------|--------|--------|--------|--------|--------|--------|--------|--------|
C|--------|--------|--------|--------|--------|--------|--------|--------|--------|
G|--------|--------|--------|--------|--------|--------|--------|--------|--------|
C|--------|--------|--------|--------|--------|--------|--------|--------|--------|


D|--------|--------|--------|--------|--------|--------|--------|--------|--------|
A|--------|--------|--------|--------|--------|--------|--------|--------|--------|
F|--------|--------|--------|--------|--------|--------|--------|--------|--------|
C|--------|--------|--------|--------|--------|--------|--------|--------|--------|
G|--------|--------|--------|--------|--------|--------|--------|--------|--------|
C|--------|--------|--------|--------|--------|--------|--------|--------|--------|


D|--------|--------|--------|--------|--------|--------|--------|--------|--------|
A|--------|--------|--------|--------|--------|--------|--------|--------|--------|
F|--------|--------|--------|--------|--------|--------|--------|--------|--------|
C|--------|--------|--------|--------|--------|--------|--------|--------|--------|
G|--------|--------|--------|--------|--------|--------|--------|--------|--------|
C|--------|--------|--------|--------|--------|--------|--------|--------|--------|


D|--------|--------|--------|--------|--------|--------|
A|--------|--------|--------|--------|--------|--------|
F|--------|--------|--------|--------|--------|--------|
C|--------|--------|--------|--------|--------|--------|
G|--------|--------|--------|--------|--------|--------|
C|--------|--------|--------|--------|--------|--------|





Track 4: Cello Arranged For Guitar

D|--------|--------|--------|--------|--------|--------|--------|--------|--------|
A|--------|--------|--------|--------|--------|--------|--------|--------|--------|
F|--------|--------|--------|--------|--------|--------|--------|--------|--------|
C|--------|--------|--------|--------|--------|--------|--------|--------|--------|
G|--------|--------|--------|--------|--------|--------|--------|--------|--------|
C|--------|--------|--------|--------|--------|--------|--------|--------|--------|


D|--------|--------|--------|--------|--------|--------|--------|--------|--------|
A|--------|--------|--------|--------|--------|--------|--------|--------|--------|
F|--------|--------|--------|--------|--------|--------|--------|--------|--------|
C|--------|--------|--------|--------|--------|--------|--------|--------|-7------|
G|--------|--------|--------|--------|--------|--------|--------|-5------|--------|
C|--------|--------|--------|--------|--------|--------|--------|--------|--------|


D|--------|--------|--------|--------|--------|--------|--------|--------|--------|
A|--------|--------|--------|--------|--------|--------|--------|--------|--------|
F|--------|--------|--------|--------|--------|--------|--------|-5------|-3------|
C|-5------|-5------|--------|-7------|-5------|-5------|-7------|--------|--------|
G|--------|--------|-5------|--------|--------|--------|--------|--------|--------|
C|--------|--------|--------|--------|--------|--------|--------|--------|--------|


D|--------|--------|--------|--------|--------|--------|--------|--------|--------|
A|--------|--------|--------|--------|--------|--------|--------|--------|--------|
F|-3------|--------|-5------|-3------|-3------|-7------|--------|-5------|-5------|
C|--------|-7------|--------|--------|--------|--------|-7------|--------|--------|
G|--------|--------|--------|--------|--------|-5------|--------|-3------|-3------|
C|--------|--------|--------|--------|--------|--------|-7------|--------|--------|


D|--------|--------|--------|--------|--------|--------|--------|--------|--------|
A|--------|--------|--------|--------|--------|--------|--------|--------|--------|
F|-7------|--------|-5------|-5------|-7------|--------|-5------|-5------|-7------|
C|--------|-7------|--------|--------|--------|-7------|--------|--------|--------|
G|-5------|--------|-3------|-3------|-5------|--------|-3------|-3------|-5------|
C|--------|-7------|--------|--------|--------|-7------|--------|--------|--------|


D|--------|--------|--------|--------|--------|--------|--------|--------|--------|
A|--------|--------|--------|--------|--------|--------|--------|--------|--------|
F|--------|-5------|-5------|-7------|--------|-5------|-5------|-7------|--------|
C|-7------|--------|--------|--------|-7------|--------|--------|--------|-7------|
G|--------|-3------|-3------|-5------|--------|-3------|-3------|-5------|--------|
C|-7------|--------|--------|--------|-7------|--------|--------|--------|-7------|


D|--------|--------|--------|--------|--------|--------|--------|--------|--------|
A|--------|--------|--------|--------|--------|--------|--------|--------|--------|
F|-5------|-5------|-7------|--------|-5------|-5------|-7------|--------|-5------|
C|--------|--------|--------|-7------|--------|--------|--------|-7------|--------|
G|-3------|-3------|-5------|--------|-3------|-3------|-5------|--------|-3------|
C|--------|--------|--------|-7------|--------|--------|--------|-7------|--------|


D|--------|--------|--------|--------|--------|--------|--------|--------|--------|
A|--------|--------|--------|--------|--------|--------|--------|--------|--------|
F|-5------|-7------|--------|-5------|-5------|-7------|--------|-5------|-5------|
C|--------|--------|-7------|--------|--------|--------|-7------|--------|--------|
G|-3------|-5------|--------|-3------|-3------|-5------|--------|-3------|-3------|
C|--------|--------|-7------|--------|--------|--------|-7------|--------|--------|


D|--------|--------|--------|--------|--------|--------|--------|--------|--------|
A|-10-----|-10-----|-15-----|-15-----|--------|-10-----|-8------|-8------|--------|
F|--------|--------|--------|--------|-7------|--------|--------|--------|-7------|
C|-7------|-7------|-12-----|-12-----|--------|-7------|-5------|-5------|--------|
G|--------|--------|--------|--------|-5------|--------|--------|--------|-5------|
C|--------|--------|--------|--------|--------|--------|--------|--------|--------|


D|--------|--------|--------|--------|--------|--------|--------|--------|--------|
A|-10-----|-8------|-8------|--------|-10-----|-8------|-8------|-15-----|--------|
F|--------|--------|--------|-7------|--------|--------|--------|--------|-17-----|
C|-7------|-5------|-5------|--------|-7------|-5------|-5------|-12-----|--------|
G|--------|--------|--------|-5------|--------|--------|--------|--------|-15-----|
C|--------|--------|--------|--------|--------|--------|--------|--------|--------|


D|--------|-------------|--------|--------|--------|-------------|--------|--------|
A|--------|-------------|-15-----|--------|--------|-------------|-15-----|--------|
F|-8------|-14----15----|--------|-17-----|-8------|-14----15----|--------|-17-----|
C|-10-----|-------------|-12-----|--------|-10-----|-------------|-12-----|--------|
G|--------|-------------|--------|-15-----|--------|-------------|--------|-15-----|
C|--------|-------------|--------|--------|--------|-------------|--------|--------|


D|--------|-------------|--------|--------|--------|-------------|--------|
A|--------|-------------|-15-----|--------|--------|-------------|--------|
F|-8------|-14----15----|--------|-17-----|-8------|-14----15----|-7------|
C|-10-----|-------------|-12-----|--------|-10-----|-------------|--------|
G|--------|-------------|--------|-15-----|--------|-------------|-5------|
C|--------|-------------|--------|--------|--------|-------------|--------|