Menu:

 

Search:

 

system of a down - roulette:

 



Title: Roulette
Artist: 
Album: Steal This Album!
Author: Daron Malakian


Track 1: Rhythm

D|---------------------------|------------------------------|------------------------------|
A|------6------------6-------|---------10-----------5-------|---------8------------8-------|
F|---------------------------|------------------------------|------------------------------|
C|---------------------------|------------------------------|------------------------------|
G|-5--------5----5-------5---|-5---8-------0---3--------3---|-3---6-------6----6-------0---|
D|---------------------------|------------------------------|------------------------------|


D|------------------------------|---------------------------|------------------------------|
A|------3---------------5-------|------6------------6-------|---------10-----------5-------|
F|------------------------------|---------------------------|------------------------------|
C|------------------------------|---------------------------|------------------------------|
G|-1--------1---1---3-------3---|-5--------5----5-------5---|-5---8-------0---3--------3---|
D|------------------------------|---------------------------|------------------------------|


D|------------------------------|------------------------------|---------------------------|
A|---------8------------8-------|------3---------------5-------|------6------------6-------|
F|------------------------------|------------------------------|---------------------------|
C|------------------------------|------------------------------|---------------------------|
G|-3---6-------6----6-------0---|-1--------1---1---3-------3---|-5--------5----5-------5---|
D|------------------------------|------------------------------|---------------------------|


D|------------------------------|------------------------------|------------------------------|
A|---------10-----------5-------|---------8------------8-------|------3---------------5-------|
F|------------------------------|------------------------------|------------------------------|
C|------------------------------|------------------------------|------------------------------|
G|-5---8-------0---3--------3---|-3---6-------6----6-------0---|-1--------1---1---3-------3---|
D|------------------------------|------------------------------|------------------------------|


D|---------------------------|------------------------------|------------------------------|
A|------6------------6-------|---------10-----------5-------|---------8------------8-------|
F|---------------------------|------------------------------|------------------------------|
C|---------------------------|------------------------------|------------------------------|
G|-5--------5----5-------5---|-5---8-------0---3--------3---|-3---6-------6----6-------0---|
D|---------------------------|------------------------------|------------------------------|


D|------------------------------|---------------------------|---------------------------|
A|------3---------------5-------|------6------------6-------|------2------------2-------|
F|------------------------------|---------------------------|---------------------------|
C|------------------------------|---------------------------|---------------------------|
G|-1--------1---1---3-------3---|-5--------5----5-------5---|-0--------0----0-------0---|
D|------------------------------|---------------------------|---------------------------|


D|---------------------------|------------------------------|---------------------------|
A|------5------------5-------|------3---------------5-------|------6------------6-------|
F|---------------------------|------------------------------|---------------------------|
C|---------------------------|------------------------------|---------------------------|
G|-3--------3----3-------0---|-1--------1---1---3-------3---|-5--------5----5-------5---|
D|---------------------------|------------------------------|---------------------------|


D|---------------------------|---------------------------|------------------------------|
A|------2------------2-------|------5------------5-------|------3---------------5-------|
F|---------------------------|---------------------------|------------------------------|
C|---------------------------|---------------------------|------------------------------|
G|-0--------0----0-------0---|-3--------3----3-------0---|-1--------1---1---3-------3---|
D|---------------------------|---------------------------|------------------------------|


D|---------------------------|------------------------------|------------------------------|
A|------6------------6-------|---------10-----------5-------|---------8------------8-------|
F|---------------------------|------------------------------|------------------------------|
C|---------------------------|------------------------------|------------------------------|
G|-5--------5----5-------5---|-5---8-------0---3--------3---|-3---6-------6----6-------0---|
D|---------------------------|------------------------------|------------------------------|


D|------------------------------|---------------------------|------------------------------|
A|------3---------------5-------|------6------------6-------|---------10-----------5-------|
F|------------------------------|---------------------------|------------------------------|
C|------------------------------|---------------------------|------------------------------|
G|-1--------1---1---3-------3---|-5--------5----5-------5---|-5---8-------0---3--------3---|
D|------------------------------|---------------------------|------------------------------|


D|------------------------------|------------------------------|---------------------------|
A|---------8------------8-------|------3---------------5-------|------6------------6-------|
F|------------------------------|------------------------------|---------------------------|
C|------------------------------|------------------------------|---------------------------|
G|-3---6-------6----6-------0---|-1--------1---1---3-------3---|-5--------5----5-------5---|
D|------------------------------|------------------------------|---------------------------|


D|------------------------------|------------------------------|------------------------------|
A|---------10-----------5-------|---------8------------8-------|------3---------------5-------|
F|------------------------------|------------------------------|------------------------------|
C|------------------------------|------------------------------|------------------------------|
G|-5---8-------0---3--------3---|-3---6-------6----6-------0---|-1--------1---1---3-------3---|
D|------------------------------|------------------------------|------------------------------|


D|---------------------------|------------------------------|------------------------------|
A|------6------------6-------|---------10-----------5-------|---------8------------8-------|
F|---------------------------|------------------------------|------------------------------|
C|---------------------------|------------------------------|------------------------------|
G|-5--------5----5-------5---|-5---8-------0---3--------3---|-3---6-------6----6-------0---|
D|---------------------------|------------------------------|------------------------------|


D|------------------------------|---------------------------|---------------------------|
A|------3---------------5-------|------6------------6-------|------2------------2-------|
F|------------------------------|---------------------------|---------------------------|
C|------------------------------|---------------------------|---------------------------|
G|-1--------1---1---3-------3---|-5--------5----5-------5---|-0--------0----0-------0---|
D|------------------------------|---------------------------|---------------------------|


D|---------------------------|------------------------------|---------------------------|
A|------5------------5-------|------3---------------5-------|------6------------6-------|
F|---------------------------|------------------------------|---------------------------|
C|---------------------------|------------------------------|---------------------------|
G|-3--------3----3-------0---|-1--------1---1---3-------3---|-5--------5----5-------5---|
D|---------------------------|------------------------------|---------------------------|


D|---------------------------|---------------------------|------------------------------|
A|------2------------2-------|------5------------5-------|------3---------------5-------|
F|---------------------------|---------------------------|------------------------------|
C|---------------------------|---------------------------|------------------------------|
G|-0--------0----0-------0---|-3--------3----3-------0---|-1--------1---1---3-------3---|
D|---------------------------|---------------------------|------------------------------|


D|---------------------------|---------------------------|---------------------------|
A|------6------------6-------|------2------------2-------|------5------------5-------|
F|---------------------------|---------------------------|---------------------------|
C|---------------------------|---------------------------|---------------------------|
G|-5--------5----5-------5---|-0--------0----0-------0---|-3--------3----3-------0---|
D|---------------------------|---------------------------|---------------------------|


D|------------------------------|---------------------------|---------------------------|
A|------3---------------5-------|------6------------6-------|------2------------2-------|
F|------------------------------|---------------------------|---------------------------|
C|------------------------------|---------------------------|---------------------------|
G|-1--------1---1---3-------3---|-5--------5----5-------5---|-0--------0----0-------0---|
D|------------------------------|---------------------------|---------------------------|


D|---------------------------|------------------------------|---------------------------|
A|------5------------5-------|------3---------------5-------|------6------------6-------|
F|---------------------------|------------------------------|---------------------------|
C|---------------------------|------------------------------|---------------------------|
G|-3--------3----3-------0---|-1--------1---1---3-------3---|-5--------5----5-------5---|
D|---------------------------|------------------------------|---------------------------|


D|------------------------------|------------------------------|------------------------------|
A|---------10-----------5-------|---------8------------8-------|------3---------------5-------|
F|------------------------------|------------------------------|------------------------------|
C|------------------------------|------------------------------|------------------------------|
G|-5---8-------0---3--------3---|-3---6-------6----6-------0---|-1--------1---1---3-------3---|
D|------------------------------|------------------------------|------------------------------|


D|---------------------------|------------------------------|------------------------------|
A|------6------------6-------|---------10-----------5-------|---------8------------8-------|
F|---------------------------|------------------------------|------------------------------|
C|---------------------------|------------------------------|------------------------------|
G|-5--------5----5-------5---|-5---8-------0---3--------3---|-3---6-------6----6-------0---|
D|---------------------------|------------------------------|------------------------------|


D|------------------------------|---------------------------|------------------------------|
A|------3---------------5-------|------6------------6-------|---------10-----------5-------|
F|------------------------------|---------------------------|------------------------------|
C|------------------------------|---------------------------|------------------------------|
G|-1--------1---1---3-------3---|-5--------5----5-------5---|-5---8-------0---3--------3---|
D|------------------------------|---------------------------|------------------------------|


D|------------------------------|------------------------------|---------------------------|
A|---------8------------8-------|------3---------------5-------|------6------------6-------|
F|------------------------------|------------------------------|---------------------------|
C|------------------------------|------------------------------|---------------------------|
G|-3---6-------6----6-------0---|-1--------1---1---3-------3---|-5--------5----5-------5---|
D|------------------------------|------------------------------|---------------------------|


D|------------------------------|------------------------------|------------------------------|
A|---------10-----------5-------|---------8------------8-------|------3---------------5-------|
F|------------------------------|------------------------------|------------------------------|
C|------------------------------|------------------------------|------------------------------|
G|-5---8-------0---3--------3---|-3---6-------6----6-------0---|-1--------1---1---3-------3---|
D|------------------------------|------------------------------|------------------------------|


D|--------|--------|--------|--------|--------|--------|--------|--------|--------|
A|--------|--------|--------|--------|--------|--------|--------|--------|--------|
F|--------|--------|--------|--------|--------|--------|--------|--------|--------|
C|--------|--------|--------|--------|--------|--------|--------|--------|--------|
G|--------|--------|--------|--------|--------|--------|--------|--------|--------|
D|--------|--------|--------|--------|--------|--------|--------|--------|--------|


D|--------|--------|--------|--------|--------|--------|--------|--------|--------|
A|--------|--------|--------|--------|--------|--------|--------|--------|--------|
F|--------|--------|--------|--------|--------|--------|--------|--------|--------|
C|--------|--------|--------|--------|--------|--------|--------|--------|--------|
G|--------|--------|--------|--------|--------|--------|--------|--------|--------|
D|--------|--------|--------|--------|--------|--------|--------|--------|--------|


D|--------|--------|--------|--------|--------|--------|--------|--------|--------|
A|--------|--------|--------|--------|--------|--------|--------|--------|--------|
F|--------|--------|--------|--------|--------|--------|--------|--------|--------|
C|--------|--------|--------|--------|--------|--------|--------|--------|--------|
G|--------|--------|--------|--------|--------|--------|--------|--------|--------|
D|--------|--------|--------|--------|--------|--------|--------|--------|--------|


D|--------|--------|--------|--------|--------|--------|
A|--------|--------|--------|--------|--------|--------|
F|--------|--------|--------|--------|--------|--------|
C|--------|--------|--------|--------|--------|--------|
G|--------|--------|--------|--------|--------|--------|
D|--------|--------|--------|--------|--------|--------|





Track 2: Lead I

D|--------|--------|--------|--------|--------|--------|--------|--------|--------|
A|--------|--------|--------|--------|--------|--------|--------|--------|--------|
F|--------|--------|--------|--------|--------|--------|--------|--------|--------|
C|--------|--------|--------|--------|--------|--------|--------|--------|--------|
G|--------|--------|--------|--------|--------|--------|--------|--------|--------|
D|--------|--------|--------|--------|--------|--------|--------|--------|--------|


D|--------|--------|--------|--------|--------|--------|--------|--------|--------|
A|--------|--------|--------|--------|--------|--------|--------|--------|--------|
F|--------|--------|--------|--------|--------|--------|--------|--------|--------|
C|--------|--------|--------|--------|--------|--------|--------|--------|--------|
G|--------|--------|--------|--------|--------|--------|--------|--------|--------|
D|--------|--------|--------|--------|--------|--------|--------|--------|--------|


D|--------|--------|--------|--------|--------|--------|--------|--------|--------|
A|--------|--------|--------|--------|--------|--------|--------|--------|--------|
F|--------|--------|--------|--------|--------|--------|--------|--------|--------|
C|--------|--------|--------|--------|--------|--------|--------|--------|--------|
G|--------|--------|--------|--------|--------|--------|--------|--------|--------|
D|--------|--------|--------|--------|--------|--------|--------|--------|--------|


D|--------|--------|--------|--------|--------|--------|--------|--------|--------|
A|--------|--------|--------|--------|--------|--------|--------|--------|--------|
F|--------|--------|--------|--------|--------|--------|--------|--------|--------|
C|--------|--------|--------|--------|--------|--------|--------|--------|--------|
G|--------|--------|--------|--------|--------|--------|--------|--------|--------|
D|--------|--------|--------|--------|--------|--------|--------|--------|--------|


D|--------|--------|--------|--------|--------|--------|--------|--------|--------|
A|--------|--------|--------|--------|--------|--------|--------|--------|--------|
F|--------|--------|--------|--------|--------|--------|--------|--------|--------|
C|--------|--------|--------|--------|--------|--------|--------|--------|--------|
G|--------|--------|--------|--------|--------|--------|--------|--------|--------|
D|--------|--------|--------|--------|--------|--------|--------|--------|--------|


D|--------|--------|--------|--------|--------|--------|--------|--------|--------|
A|--------|--------|--------|--------|--------|--------|--------|--------|--------|
F|--------|--------|--------|--------|--------|--------|--------|--------|--------|
C|--------|--------|--------|--------|--------|--------|--------|--------|--------|
G|--------|--------|--------|--------|--------|--------|--------|--------|--------|
D|--------|--------|--------|--------|--------|--------|--------|--------|--------|


D|--------|--------|-10-----10-12-|-13-----12-13-|-15-----12-13-|-15--13--12--10--12--13--12--10--|
A|--------|--------|--------------|--------------|--------------|---------------------------------|
F|--------|--------|--------------|--------------|--------------|---------------------------------|
C|--------|--------|--------------|--------------|--------------|---------------------------------|
G|--------|--------|--------------|--------------|--------------|---------------------------------|
D|--------|--------|--------------|--------------|--------------|---------------------------------|


D|-10--------------------|---------------------------------|-----------------|-5--6--5---5---3---3---1---1-------|
A|-------10--10----10-11-|-13--11--10--8---10--11--10--8---|-8---------------|-6--8--6---6---5---5---3---3-------|
F|-----------------------|---------------------------------|-----------------|-----------------------------------|
C|-----------------------|---------------------------------|-------10--10----|-----------------------------------|
G|-----------------------|---------------------------------|-----------------|-----------------------------------|
D|-----------------------|---------------------------------|-----------------|-----------------------------------|


D|-10-----10-12-|-13-----12-13-|-15-----12-13-|-15--13--12--10--12--13--12--10--|-10--------------------|
A|--------------|--------------|--------------|---------------------------------|-------10--10----10-11-|
F|--------------|--------------|--------------|---------------------------------|-----------------------|
C|--------------|--------------|--------------|---------------------------------|-----------------------|
G|--------------|--------------|--------------|---------------------------------|-----------------------|
D|--------------|--------------|--------------|---------------------------------|-----------------------|


D|---------------------------------|-----------------|-6---5---5---3---3---1---1-------|
A|-13--11--10--8---10--11--10--8---|-8---------------|-8---6---6---5---5---3---3-------|
F|---------------------------------|-----------------|---------------------------------|
C|---------------------------------|-------10--10----|---------------------------------|
G|---------------------------------|-----------------|---------------------------------|
D|---------------------------------|-----------------|---------------------------------|


D|---------------------------|---------------------------|---------------------------|
A|------6------------6-------|------2------------2-------|------5------------5-------|
F|---------------------------|---------------------------|---------------------------|
C|---------------------------|---------------------------|---------------------------|
G|-5--------5----5-------5---|-0--------0----0-------0---|-3--------3----3-------0---|
D|---------------------------|---------------------------|---------------------------|


D|------------------------------|---------------------------|---------------------------|
A|------3---------------5-------|------6------------6-------|------2------------2-------|
F|------------------------------|---------------------------|---------------------------|
C|------------------------------|---------------------------|---------------------------|
G|-1--------1---1---3-------3---|-5--------5----5-------5---|-0--------0----0-------0---|
D|------------------------------|---------------------------|---------------------------|


D|---------------------------|------------------------------|---------------------------|
A|------5------------5-------|------3---------------5-------|------6------------6-------|
F|---------------------------|------------------------------|---------------------------|
C|---------------------------|------------------------------|---------------------------|
G|-3--------3----3-------0---|-1--------1---1---3-------3---|-5--------5----5-------5---|
D|---------------------------|------------------------------|---------------------------|


D|---------------------------|---------------------------|------------------------------|
A|------2------------2-------|------5------------5-------|------3---------------5-------|
F|---------------------------|---------------------------|------------------------------|
C|---------------------------|---------------------------|------------------------------|
G|-0--------0----0-------0---|-3--------3----3-------0---|-1--------1---1---3-------3---|
D|---------------------------|---------------------------|------------------------------|


D|---------------------------|---------------------------|---------------------------|
A|------6------------6-------|------2------------2-------|------5------------5-------|
F|---------------------------|---------------------------|---------------------------|
C|---------------------------|---------------------------|---------------------------|
G|-5--------5----5-------5---|-0--------0----0-------0---|-3--------3----3-------0---|
D|---------------------------|---------------------------|---------------------------|


D|------------------------------|---------------------------|------------------------------|
A|------3---------------5-------|------6------------6-------|---------10-----------5-------|
F|------------------------------|---------------------------|------------------------------|
C|------------------------------|---------------------------|------------------------------|
G|-1--------1---1---3-------3---|-5--------5----5-------5---|-5---8-------0---3--------3---|
D|------------------------------|---------------------------|------------------------------|


D|------------------------------|------------------------------|---------------------------|
A|---------8------------8-------|------3---------------5-------|------6------------6-------|
F|------------------------------|------------------------------|---------------------------|
C|------------------------------|------------------------------|---------------------------|
G|-3---6-------6----6-------0---|-1--------1---1---3-------3---|-5--------5----5-------5---|
D|------------------------------|------------------------------|---------------------------|


D|------------------------------|------------------------------|------------------------------|
A|---------10-----------5-------|---------8------------8-------|------3---------------5-------|
F|------------------------------|------------------------------|------------------------------|
C|------------------------------|------------------------------|------------------------------|
G|-5---8-------0---3--------3---|-3---6-------6----6-------0---|-1--------1---1---3-------3---|
D|------------------------------|------------------------------|------------------------------|


D|---------------------------|------------------------------|------------------------------|
A|------6------------6-------|---------10-----------5-------|---------8------------8-------|
F|---------------------------|------------------------------|------------------------------|
C|---------------------------|------------------------------|------------------------------|
G|-5--------5----5-------5---|-5---8-------0---3--------3---|-3---6-------6----6-------0---|
D|---------------------------|------------------------------|------------------------------|


D|------------------------------|---------------------------|------------------------------|
A|------3---------------5-------|------6------------6-------|---------10-----------5-------|
F|------------------------------|---------------------------|------------------------------|
C|------------------------------|---------------------------|------------------------------|
G|-1--------1---1---3-------3---|-5--------5----5-------5---|-5---8-------0---3--------3---|
D|------------------------------|---------------------------|------------------------------|


D|------------------------------|------------------------------|-5------|
A|---------8------------8-------|------3---------------5-------|-6------|
F|------------------------------|------------------------------|-7------|
C|------------------------------|------------------------------|-7------|
G|-3---6-------6----6-------0---|-1--------1---1---3-------3---|-5------|
D|------------------------------|------------------------------|--------|





Track 3: Lead II

D|--------|--------|--------|--------|--------|--------|--------|--------|--------|
A|--------|--------|--------|--------|--------|--------|--------|--------|--------|
F|--------|--------|--------|--------|--------|--------|--------|--------|--------|
C|--------|--------|--------|--------|--------|--------|--------|--------|--------|
G|--------|--------|--------|--------|--------|--------|--------|--------|--------|
D|--------|--------|--------|--------|--------|--------|--------|--------|--------|


D|--------|--------|--------|--------|--------|--------|--------|--------|--------|
A|--------|--------|--------|--------|--------|--------|--------|--------|--------|
F|--------|--------|--------|--------|--------|--------|--------|--------|--------|
C|--------|--------|--------|--------|--------|--------|--------|--------|--------|
G|--------|--------|--------|--------|--------|--------|--------|--------|--------|
D|--------|--------|--------|--------|--------|--------|--------|--------|--------|


D|--------|--------|--------|--------|--------|--------|--------|--------|--------|
A|--------|--------|--------|--------|--------|--------|--------|--------|--------|
F|--------|--------|--------|--------|--------|--------|--------|--------|--------|
C|--------|--------|--------|--------|--------|--------|--------|--------|--------|
G|--------|--------|--------|--------|--------|--------|--------|--------|--------|
D|--------|--------|--------|--------|--------|--------|--------|--------|--------|


D|--------|--------|--------|--------|--------|--------|--------|--------|--------|
A|--------|--------|--------|--------|--------|--------|--------|--------|--------|
F|--------|--------|--------|--------|--------|--------|--------|--------|--------|
C|--------|--------|--------|--------|--------|--------|--------|--------|--------|
G|--------|--------|--------|--------|--------|--------|--------|--------|--------|
D|--------|--------|--------|--------|--------|--------|--------|--------|--------|


D|--------|--------|--------|--------|--------|--------|--------|--------|--------|
A|--------|--------|--------|--------|--------|--------|--------|--------|--------|
F|--------|--------|--------|--------|--------|--------|--------|--------|--------|
C|--------|--------|--------|--------|--------|--------|--------|--------|--------|
G|--------|--------|--------|--------|--------|--------|--------|--------|--------|
D|--------|--------|--------|--------|--------|--------|--------|--------|--------|


D|--------|--------|--------|--------|--------|--------|--------|--------|--------|
A|--------|--------|--------|--------|--------|--------|--------|--------|--------|
F|--------|--------|--------|--------|--------|--------|--------|--------|--------|
C|--------|--------|--------|--------|--------|--------|--------|--------|--------|
G|--------|--------|--------|--------|--------|--------|--------|--------|--------|
D|--------|--------|--------|--------|--------|--------|--------|--------|--------|


D|--------|--------|--------|--------|--------|--------|--------|--------|--------|
A|--------|--------|--------|--------|--------|--------|--------|--------|--------|
F|--------|--------|--------|--------|--------|--------|--------|--------|--------|
C|--------|--------|--------|--------|--------|--------|--------|--------|--------|
G|--------|--------|--------|--------|--------|--------|--------|--------|--------|
D|--------|--------|--------|--------|--------|--------|--------|--------|--------|


D|--------|-----------15-|-17-----17-18-|-20-----17-18-|-20--18--17--15--17--18--17--15--|
A|--------|-18-----18----|--------------|--------------|---------------------------------|
F|--------|--------------|--------------|--------------|---------------------------------|
C|--------|--------------|--------------|--------------|---------------------------------|
G|--------|--------------|--------------|--------------|---------------------------------|
D|--------|--------------|--------------|--------------|---------------------------------|


D|-15--------------------|---------------------------------|-----------------|-18--17--17--15--15--13--13------|
A|-------18--18----17-18-|-20--18--17--15--17--18--17--15--|-15--------------|-20--18--18--17--17--15--15------|
F|-----------------------|---------------------------------|-----------------|---------------------------------|
C|-----------------------|---------------------------------|-------17--17----|---------------------------------|
G|-----------------------|---------------------------------|-----------------|---------------------------------|
D|-----------------------|---------------------------------|-----------------|---------------------------------|


D|--------|--------|--------|--------|--------|--------|--------|--------|--------|
A|--------|--------|--------|--------|--------|--------|--------|--------|--------|
F|--------|--------|--------|--------|--------|--------|--------|--------|--------|
C|--------|--------|--------|--------|--------|--------|--------|--------|--------|
G|--------|--------|--------|--------|--------|--------|--------|--------|--------|
D|--------|--------|--------|--------|--------|--------|--------|--------|--------|


D|--------|--------|--------|--------|--------|--------|--------|--------|--------|
A|--------|--------|--------|--------|--------|--------|--------|--------|--------|
F|--------|--------|--------|--------|--------|--------|--------|--------|--------|
C|--------|--------|--------|--------|--------|--------|--------|--------|--------|
G|--------|--------|--------|--------|--------|--------|--------|--------|--------|
D|--------|--------|--------|--------|--------|--------|--------|--------|--------|


D|--------|--------|--------|--------|--------|--------|--------|--------|--------|
A|--------|--------|--------|--------|--------|--------|--------|--------|--------|
F|--------|--------|--------|--------|--------|--------|--------|--------|--------|
C|--------|--------|--------|--------|--------|--------|--------|--------|--------|
G|--------|--------|--------|--------|--------|--------|--------|--------|--------|
D|--------|--------|--------|--------|--------|--------|--------|--------|--------|


D|--------|--------|--------|--------|--------|--------|
A|--------|--------|--------|--------|--------|--------|
F|--------|--------|--------|--------|--------|--------|
C|--------|--------|--------|--------|--------|--------|
G|--------|--------|--------|--------|--------|--------|
D|--------|--------|--------|--------|--------|--------|





Track 4: Bass

F|--------|--------|--------|--------|--------|--------|--------|--------|--------|
C|--------|--------|--------|--------|--------|--------|--------|--------|--------|
G|--------|--------|--------|--------|--------|--------|--------|--------|--------|
D|--------|--------|--------|--------|--------|--------|--------|--------|--------|


F|--------|--------|--------|--------|--------|--------|--------|--------|--------|
C|--------|--------|--------|--------|--------|--------|--------|--------|--------|
G|--------|--------|--------|--------|--------|--------|--------|--------|--------|
D|--------|--------|--------|--------|--------|--------|--------|--------|--------|


F|--------|--------|--------|--------|--------|--------|--------|-14-----|-12-----|
C|--------|--------|--------|--------|--------|--------|-12-----|--------|--------|
G|--------|--------|--------|--------|--------|--------|--------|--------|--------|
D|--------|--------|--------|--------|--------|--------|--------|--------|--------|


F|-12-----|--------|-14-----|-12-----|-12-----|-14-----|-17-----|-15-----|-15-----|
C|--------|-12-----|--------|--------|--------|--------|--------|--------|--------|
G|--------|--------|--------|--------|--------|--------|--------|--------|--------|
D|--------|--------|--------|--------|--------|--------|--------|--------|--------|


F|-14-----|-17-----|-15-----|-15-----|--------|--------|-19-----|-19-----|--------|
C|--------|--------|--------|--------|-12-----|--------|--------|--------|-12-----|
G|--------|--------|--------|--------|--------|-12-----|--------|--------|--------|
D|--------|--------|--------|--------|--------|--------|--------|--------|--------|


F|--------|-19-----|-19-----|--------|--------|-19-----|-19-----|--------|--------|
C|--------|--------|--------|-12-----|--------|--------|--------|-12-----|--------|
G|-12-----|--------|--------|--------|-12-----|--------|--------|--------|-12-----|
D|--------|--------|--------|--------|--------|--------|--------|--------|--------|


F|-19-----|-19-----|--------|-14-----|-12-----|-12-----|--------|-14-----|-12-----|
C|--------|--------|-12-----|--------|--------|--------|-12-----|--------|--------|
G|--------|--------|--------|--------|--------|--------|--------|--------|--------|
D|--------|--------|--------|--------|--------|--------|--------|--------|--------|


F|-12-----|-14-----|-17-----|-15-----|-15-----|-14-----|-17-----|-15-----|-15-----|
C|--------|--------|--------|--------|--------|--------|--------|--------|--------|
G|--------|--------|--------|--------|--------|--------|--------|--------|--------|
D|--------|--------|--------|--------|--------|--------|--------|--------|--------|


F|--------|--------|-19-----|-19-----|--------|--------|-19-----|-19-----|--------|
C|-12-----|--------|--------|--------|-12-----|--------|--------|--------|-12-----|
G|--------|-12-----|--------|--------|--------|-12-----|--------|--------|--------|
D|--------|--------|--------|--------|--------|--------|--------|--------|--------|


F|--------|-19-----|-19-----|--------|--------|-19-----|-19-----|-14-----|-17-----|
C|--------|--------|--------|-12-----|--------|--------|--------|--------|--------|
G|-12-----|--------|--------|--------|-12-----|--------|--------|--------|--------|
D|--------|--------|--------|--------|--------|--------|--------|--------|--------|


F|-15-----|-15-----|-14-----|-17-----|-15-----|-15-----|-14-----|-17-----|-15-----|
C|--------|--------|--------|--------|--------|--------|--------|--------|--------|
G|--------|--------|--------|--------|--------|--------|--------|--------|--------|
D|--------|--------|--------|--------|--------|--------|--------|--------|--------|


F|-15-----|-14-----|-17-----|-15-----|-15-----|-14-----|
C|--------|--------|--------|--------|--------|--------|
G|--------|--------|--------|--------|--------|--------|
D|--------|--------|--------|--------|--------|--------|