Menu:

 

Search:

 

system of a down - revenga:

 



Title: Revenga
Artist: 
Album: Mezmerize
Author: System Of A Down


Track 1: Clean Guitar

D#|--------|--------|--------|--------|--------|-----------------|--------|-------------|
A#|-6------|-6------|-10-----|-10-----|-11-----|-11----11---10---|-9------|-9-----------|
F#|-7------|-7------|-9------|-9------|-10-----|-10----10---10---|-9------|-9-----------|
C#|-0------|-0------|--------|--------|-0------|-0---------------|-0------|-0-----------|
G#|-0------|-0------|--------|--------|-0------|-0---------------|--------|-------------|
C#|-0------|-0------|--------|--------|--------|-----------------|--------|-------------|


D#|--------|--------|--------|--------|--------|--------|--------|--------|--------|
A#|--------|--------|--------|--------|--------|--------|--------|--------|--------|
F#|--------|--------|--------|--------|--------|--------|--------|--------|--------|
C#|--------|--------|--------|--------|--------|--------|--------|--------|--------|
G#|--------|--------|--------|--------|--------|--------|--------|--------|--------|
C#|--------|--------|--------|--------|--------|--------|--------|--------|--------|


D#|--------|--------|--------|--------|--------|--------|--------|--------|--------|
A#|--------|--------|--------|--------|--------|--------|--------|--------|--------|
F#|--------|--------|--------|--------|--------|--------|--------|--------|--------|
C#|--------|--------|--------|--------|--------|--------|--------|--------|--------|
G#|--------|--------|--------|--------|--------|--------|--------|--------|--------|
C#|--------|--------|--------|--------|--------|--------|--------|--------|--------|


D#|--------|--------|--------|--------|--------|--------|--------|--------|--------|
A#|--------|--------|--------|--------|--------|--------|--------|--------|--------|
F#|--------|--------|--------|--------|--------|--------|--------|--------|--------|
C#|--------|--------|--------|--------|--------|--------|--------|--------|--------|
G#|--------|--------|--------|--------|--------|--------|--------|--------|--------|
C#|--------|--------|--------|--------|--------|--------|--------|--------|--------|


D#|--------|--------|--------|--------|--------|--------|--------|--------|--------|
A#|--------|--------|--------|--------|--------|--------|--------|--------|--------|
F#|--------|--------|--------|--------|--------|--------|--------|--------|--------|
C#|--------|--------|--------|--------|--------|--------|--------|--------|--------|
G#|--------|--------|--------|--------|--------|--------|--------|--------|--------|
C#|--------|--------|--------|--------|--------|--------|--------|--------|--------|


D#|--------|--------|--------|--------|--------|--------|--------|--------|--------|
A#|--------|--------|--------|--------|--------|--------|--------|--------|--------|
F#|--------|--------|--------|--------|--------|--------|--------|--------|--------|
C#|--------|--------|--------|--------|--------|--------|--------|--------|--------|
G#|--------|--------|--------|--------|--------|--------|--------|--------|--------|
C#|--------|--------|--------|--------|--------|--------|--------|--------|--------|


D#|--------|--------|--------|--------|--------|--------|--------|--------|--------|
A#|--------|--------|--------|--------|--------|--------|--------|--------|--------|
F#|--------|--------|--------|--------|--------|--------|--------|--------|--------|
C#|--------|--------|--------|--------|--------|--------|--------|--------|--------|
G#|--------|--------|--------|--------|--------|--------|--------|--------|--------|
C#|--------|--------|--------|--------|--------|--------|--------|--------|--------|


D#|--------|--------|--------|--------|--------|--------|--------|--------|--------|
A#|--------|--------|--------|--------|--------|--------|--------|--------|--------|
F#|--------|--------|--------|--------|--------|--------|--------|--------|--------|
C#|--------|--------|--------|--------|--------|--------|--------|--------|--------|
G#|--------|--------|--------|--------|--------|--------|--------|--------|--------|
C#|--------|--------|--------|--------|--------|--------|--------|--------|--------|


D#|--------|--------|--------|--------|--------|--------|-----------------|--------|
A#|--------|-6------|-6------|-10-----|-10-----|-11-----|-11----11---10---|-9------|
F#|--------|-7------|-7------|-9------|-9------|-10-----|-10----10---10---|-9------|
C#|--------|-0------|-0------|-0------|-0------|-0------|-0-----0----0----|-0------|
G#|--------|--------|--------|--------|--------|--------|-----------------|--------|
C#|--------|--------|--------|--------|--------|--------|-----------------|--------|


D#|--------|--------|--------|--------|--------|--------|-----------------|--------|
A#|-9------|-6------|-6------|-10-----|-10-----|-11-----|-11----11---10---|-9------|
F#|-9------|-7------|-7------|-9------|-9------|-10-----|-10----10---10---|-9------|
C#|-0------|-0------|-0------|-0------|-0------|-0------|-0-----0----0----|-0------|
G#|--------|--------|--------|--------|--------|--------|-----------------|--------|
C#|--------|--------|--------|--------|--------|--------|-----------------|--------|


D#|---------------------------|--------|--------|--------|--------|--------|--------|
A#|-9----9---9---9---9--------|--------|--------|--------|--------|--------|--------|
F#|-9----9---9---9---9--------|--------|--------|--------|--------|--------|--------|
C#|-0----0---0---0---0--------|--------|--------|--------|--------|--------|--------|
G#|---------------------------|--------|--------|--------|--------|--------|--------|
C#|---------------------------|--------|--------|--------|--------|--------|--------|


D#|--------|--------|--------|--------|--------|--------|--------|--------|--------|
A#|--------|--------|--------|--------|--------|--------|--------|--------|--------|
F#|--------|--------|--------|--------|--------|--------|--------|--------|--------|
C#|--------|--------|--------|--------|--------|--------|--------|--------|--------|
G#|--------|--------|--------|--------|--------|--------|--------|--------|--------|
C#|--------|--------|--------|--------|--------|--------|--------|--------|--------|


D#|--------|--------|--------|--------|--------|--------|--------|--------|--------|
A#|--------|--------|--------|--------|--------|--------|--------|--------|--------|
F#|--------|--------|--------|--------|--------|--------|--------|--------|--------|
C#|--------|--------|--------|--------|--------|--------|--------|--------|--------|
G#|--------|--------|--------|--------|--------|--------|--------|--------|--------|
C#|--------|--------|--------|--------|--------|--------|--------|--------|--------|


D#|--------|--------|--------|--------|--------|--------|--------|--------|--------|
A#|--------|--------|--------|--------|--------|--------|--------|--------|--------|
F#|--------|--------|--------|--------|--------|--------|--------|--------|--------|
C#|--------|--------|--------|--------|--------|--------|--------|--------|--------|
G#|--------|--------|--------|--------|--------|--------|--------|--------|--------|
C#|--------|--------|--------|--------|--------|--------|--------|--------|--------|


D#|--------|--------|--------|--------|--------|--------|--------|--------|--------|
A#|--------|--------|--------|--------|--------|--------|--------|--------|--------|
F#|--------|--------|--------|--------|--------|--------|--------|--------|--------|
C#|--------|--------|--------|--------|--------|--------|--------|--------|--------|
G#|--------|--------|--------|--------|--------|--------|--------|--------|--------|
C#|--------|--------|--------|--------|--------|--------|--------|--------|--------|


D#|--------|--------|--------|
A#|--------|--------|--------|
F#|--------|--------|--------|
C#|--------|--------|--------|
G#|--------|--------|--------|
C#|--------|--------|--------|





Track 2: Distortion Guitar

D#|--------|--------|--------|--------|--------|--------|--------|-------------|-----------------------------------------------------|
A#|--------|--------|--------|--------|--------|--------|--------|-------------|-----------------------------------------------------|
F#|--------|--------|--------|--------|--------|--------|--------|-------------|-----------------------------------------------------|
C#|--------|--------|--------|--------|--------|--------|--------|-------------|-----------------------------------------------------|
G#|--------|--------|--------|--------|--------|--------|--------|-------------|-----------------------------------------------------|
C#|--------|--------|--------|--------|--------|--------|--------|--------15---|-0---0--0--0--0---0--0--0--0---0--0--0--0---0--0--0--|


D#|-----------------------------------|------------------------------------------------|
A#|-----------------------------------|------------------------------------------------|
F#|-----------------------------------|------------------------------------------------|
C#|-----------------------------------|------------------------------------------------|
G#|--------------0---0---8---8---8----|----------------------------------------0---0---|
C#|-0---0--0--0--0---0---8---8---8----|-0---0--0--0--0---0--0--0--0---0--0--0--0---0---|


D#|-----------------------------------------|-----------------------------------------------------|
A#|-----------------------------------------|-----------------------------------------------------|
F#|-----------------------------------------|-----------------------------------------------------|
C#|-----------------------------------------|-----------------------------------------------------|
G#|-8--7--5---8--7--5---8--7--5---8--7--5---|-----------------------------------------------------|
C#|-8--7--5---8--7--5---8--7--5---8--7--5---|-0---0--0--0--0---0--0--0--0---0--0--0--0---0--0--0--|


D#|-----------------------------------|------------------------------------------------|
A#|-----------------------------------|------------------------------------------------|
F#|-----------------------------------|------------------------------------------------|
C#|-----------------------------------|------------------------------------------------|
G#|--------------0---0---8---8---8----|----------------------------------------0---0---|
C#|-0---0--0--0--0---0---8---8---8----|-0---0--0--0--0---0--0--0--0---0--0--0--0---0---|


D#|-----------------------------------------|---------------------------------------------------------------|
A#|-----------------------------------------|---------------------------------------------------------------|
F#|-----------------------------------------|---------------------------------------------------------------|
C#|-----------------------------------------|---------------------------------------------------------------|
G#|-8--7--5---8--7--5---8--7--5---8--7--5---|---------------------------------------------------------------|
C#|-8--7--5---8--7--5---8--7--5---8--7--5---|-0--0--0--0--0--0------0--0--0--0--0--0------0--0--0--0--0--0--|


D#|--------------------------------------------------|---------------------------------------------------------------|
A#|--------------------------------------------------|---------------------------------------------------------------|
F#|--------------------------------------------------|---------------------------------------------------------------|
C#|---------------------------------------------6----|---------------------------------------------------------------|
G#|---------------------------------------------4----|---------------------------------------------------------------|
C#|-----0--0--0--0--0--0------0--0--0--0--0--0-------|-0--0--0--0--0--0------0--0--0--0--0--0------0--0--0--0--0--0--|


D#|------------------------|---------------------------------------------------------------|
A#|------------------------|---------------------------------------------------------------|
F#|------------------------|---------------------------------------------------------------|
C#|-6----7----6---3---2----|---------------------------------------------------------------|
G#|-4----5----4---1---0----|---------------------------------------------------------------|
C#|------------------------|-0--0--0--0--0--0------0--0--0--0--0--0------0--0--0--0--0--0--|


D#|--------------------------------------------------|---------------------------------------------------------------|
A#|--------------------------------------------------|---------------------------------------------------------------|
F#|--------------------------------------------------|---------------------------------------------------------------|
C#|---------------------------------------------6----|---------------------------------------------------------------|
G#|---------------------------------------------4----|---------------------------------------------------------------|
C#|-----0--0--0--0--0--0------0--0--0--0--0--0-------|-0--0--0--0--0--0------0--0--0--0--0--0------0--0--0--0--0--0--|


D#|---------------------|------------------------------|------------------------------|
A#|---------------------|------------------------------|------------------------------|
F#|---------------------|------------------------------|------------------------------|
C#|-6----7----9----10---|-0----------------------------|-0----------------------------|
G#|-4----5----7----8----|-0----0---0---0---0---0---0---|-0----0---0---0---0---0---0---|
C#|---------------------|-0----0---0---0---0---0---0---|-0----0---0---0---0---0---0---|


D#|------------------------------|------------------------------|------------------------------|
A#|------------------------------|------------------------------|------------------------------|
F#|------------------------------|------------------------------|------------------------------|
C#|-7----------------------------|-7----------------------------|-8----------------------------|
G#|-7----7---7---7---7---7---7---|-7----7---7---7---7---7---7---|-8----8---8---8---8---8---8---|
C#|-7----7---7---7---7---7---7---|-7----7---7---7---7---7---7---|-8----8---8---8---8---8---8---|


D#|------------------------|------------------------------|------------------------------|
A#|------------------------|------------------------------|------------------------------|
F#|------------------------|------------------------------|------------------------------|
C#|-8------------8----7----|-6----------------------------|-3----------------------------|
G#|-8----8---8---8----7----|-6----6---6---6---6---6---6---|-3----3---3---3---3---3---3---|
C#|-8----8---8---8----7----|-6----6---6---6---6---6---6---|-3----3---3---3---3---3---3---|


D#|------------------------------|------------------------------|------------------------------|
A#|------------------------------|------------------------------|------------------------------|
F#|------------------------------|------------------------------|------------------------------|
C#|-0----------------------------|-0----------------------------|-7----------------------------|
G#|-0----0---0---0---0---0---0---|-0----0---0---0---0---0---0---|-7----7---7---7---7---7---7---|
C#|-0----0---0---0---0---0---0---|-0----0---0---0---0---0---0---|-7----7---7---7---7---7---7---|


D#|------------------------------|------------------------------|------------------------|
A#|------------------------------|------------------------------|------------------------|
F#|------------------------------|------------------------------|------------------------|
C#|-7----------------------------|-8----------------------------|-8------------8----7----|
G#|-7----7---7---7---7---7---7---|-8----8---8---8---8---8---8---|-8----8---8---8----7----|
C#|-7----7---7---7---7---7---7---|-8----8---8---8---8---8---8---|-8----8---8---8----7----|


D#|------------------------------|---------------------------|---------------------------------------------------------------|
A#|------------------------------|---------------------------|---------------------------------------------------------------|
F#|------------------------------|---------------------------|---------------------------------------------------------------|
C#|-6----------------------------|-3-------------------------|---------------------------------------------------------------|
G#|-6----6---6---6---6---6---6---|-3----3---3---3---3--------|---------------------------------------------------------------|
C#|-6----6---6---6---6---6---6---|-3----3---3---3---3---15---|-0--0--0--0--0--0------0--0--0--0--0--0------0--0--0--0--0--0--|


D#|--------------------------------------------------|---------------------------------------------------------------|
A#|--------------------------------------------------|---------------------------------------------------------------|
F#|--------------------------------------------------|---------------------------------------------------------------|
C#|---------------------------------------------6----|---------------------------------------------------------------|
G#|---------------------------------------------4----|---------------------------------------------------------------|
C#|-----0--0--0--0--0--0------0--0--0--0--0--0-------|-0--0--0--0--0--0------0--0--0--0--0--0------0--0--0--0--0--0--|


D#|------------------------|---------------------------------------------------------------|
A#|------------------------|---------------------------------------------------------------|
F#|------------------------|---------------------------------------------------------------|
C#|-6----7----6---3---2----|---------------------------------------------------------------|
G#|-4----5----4---1---0----|---------------------------------------------------------------|
C#|------------------------|-0--0--0--0--0--0------0--0--0--0--0--0------0--0--0--0--0--0--|


D#|--------------------------------------------------|---------------------------------------------------------------|
A#|--------------------------------------------------|---------------------------------------------------------------|
F#|--------------------------------------------------|---------------------------------------------------------------|
C#|---------------------------------------------6----|---------------------------------------------------------------|
G#|---------------------------------------------4----|---------------------------------------------------------------|
C#|-----0--0--0--0--0--0------0--0--0--0--0--0-------|-0--0--0--0--0--0------0--0--0--0--0--0------0--0--0--0--0--0--|


D#|---------------------|------------------------------|------------------------------|
A#|---------------------|------------------------------|------------------------------|
F#|---------------------|------------------------------|------------------------------|
C#|-6----7----9----10---|-0----------------------------|-0----------------------------|
G#|-4----5----7----8----|-0----0---0---0---0---0---0---|-0----0---0---0---0---0---0---|
C#|---------------------|-0----0---0---0---0---0---0---|-0----0---0---0---0---0---0---|


D#|------------------------------|------------------------------|------------------------------|
A#|------------------------------|------------------------------|------------------------------|
F#|------------------------------|------------------------------|------------------------------|
C#|-7----------------------------|-7----------------------------|-8----------------------------|
G#|-7----7---7---7---7---7---7---|-7----7---7---7---7---7---7---|-8----8---8---8---8---8---8---|
C#|-7----7---7---7---7---7---7---|-7----7---7---7---7---7---7---|-8----8---8---8---8---8---8---|


D#|------------------------|------------------------------|------------------------------|
A#|------------------------|------------------------------|------------------------------|
F#|------------------------|------------------------------|------------------------------|
C#|-8------------8----7----|-6----------------------------|-3----------------------------|
G#|-8----8---8---8----7----|-6----6---6---6---6---6---6---|-3----3---3---3---3---3---3---|
C#|-8----8---8---8----7----|-6----6---6---6---6---6---6---|-3----3---3---3---3---3---3---|


D#|------------------------------|------------------------------|------------------------------|
A#|------------------------------|------------------------------|------------------------------|
F#|------------------------------|------------------------------|------------------------------|
C#|-0----------------------------|-0----------------------------|-7----------------------------|
G#|-0----0---0---0---0---0---0---|-0----0---0---0---0---0---0---|-7----7---7---7---7---7---7---|
C#|-0----0---0---0---0---0---0---|-0----0---0---0---0---0---0---|-7----7---7---7---7---7---7---|


D#|------------------------------|------------------------------|------------------------|
A#|------------------------------|------------------------------|------------------------|
F#|------------------------------|------------------------------|------------------------|
C#|-7----------------------------|-8----------------------------|-8------------8----7----|
G#|-7----7---7---7---7---7---7---|-8----8---8---8---8---8---8---|-8----8---8---8----7----|
C#|-7----7---7---7---7---7---7---|-8----8---8---8---8---8---8---|-8----8---8---8----7----|


D#|------------------------------|---------------------------|-----------------------------------------------------|
A#|------------------------------|---------------------------|-----------------------------------------------------|
F#|------------------------------|---------------------------|-----------------------------------------------------|
C#|-6----------------------------|-3-------------------------|-----------------------------------------------------|
G#|-6----6---6---6---6---6---6---|-3----3---3---3---3--------|-----------------------------------------------------|
C#|-6----6---6---6---6---6---6---|-3----3---3---3---3---15---|-0---0--0--0--0---0--0--0--0---0--0--0--0---0--0--0--|


D#|-----------------------------------|------------------------------------------------|
A#|-----------------------------------|------------------------------------------------|
F#|-----------------------------------|------------------------------------------------|
C#|-----------------------------------|------------------------------------------------|
G#|--------------0---0---8---8---8----|----------------------------------------0---0---|
C#|-0---0--0--0--0---0---8---8---8----|-0---0--0--0--0---0--0--0--0---0--0--0--0---0---|


D#|-----------------------------------------|-----------------------------------------------------|
A#|-----------------------------------------|-----------------------------------------------------|
F#|-----------------------------------------|-----------------------------------------------------|
C#|-----------------------------------------|-----------------------------------------------------|
G#|-8--7--5---8--7--5---8--7--5---8--7--5---|-----------------------------------------------------|
C#|-8--7--5---8--7--5---8--7--5---8--7--5---|-0---0--0--0--0---0--0--0--0---0--0--0--0---0--0--0--|


D#|-----------------------------------|------------------------------------------------|
A#|-----------------------------------|------------------------------------------------|
F#|-----------------------------------|------------------------------------------------|
C#|-----------------------------------|------------------------------------------------|
G#|--------------0---0---8---8---8----|----------------------------------------0---0---|
C#|-0---0--0--0--0---0---8---8---8----|-0---0--0--0--0---0--0--0--0---0--0--0--0---0---|


D#|-----------------------------------------|--------|--------|--------|--------|--------|
A#|-----------------------------------------|--------|--------|--------|--------|--------|
F#|-----------------------------------------|--------|--------|--------|--------|--------|
C#|-----------------------------------------|--------|--------|--------|--------|--------|
G#|-8--7--5---8--7--5---8--7--5---8--7--5---|--------|--------|--------|--------|--------|
C#|-8--7--5---8--7--5---8--7--5---8--7--5---|--------|--------|--------|--------|--------|


D#|--------|--------|--------|--------|--------|--------|--------|--------|--------|
A#|--------|--------|--------|--------|--------|--------|--------|--------|--------|
F#|--------|--------|--------|--------|--------|--------|--------|--------|--------|
C#|--------|--------|--------|--------|--------|--------|--------|--------|--------|
G#|--------|--------|--------|--------|--------|--------|--------|--------|--------|
C#|--------|--------|--------|--------|--------|--------|--------|--------|--------|


D#|--------|-------------|-------------------------------------------------|-------------------------------------------------|
A#|--------|-------------|-------------------------------------------------|-------------------------------------------------|
F#|--------|-------------|-------------7--7--7--7--------------------------|-------------------------------------------------|
C#|--------|-------------|-------------------------7--7--7--7--------------|-------------------------------------------------|
G#|--------|-------------|-5--5--5--5--------------------------8--8--8--8--|-5--5--5--5--4--4--4--4--5--5--5--5--7--7--7--7--|
C#|--------|--------15---|-------------------------------------------------|-------------------------------------------------|


D#|-------------------------------------------------|-------------------------------------------------|
A#|-------------------------------------------------|-------------------------------------------------|
F#|-------------10-10-10-10-------------------------|-------------------------------------------------|
C#|-------------------------10-10-10-10-------------|-------------------------------------------------|
G#|-8--8--8--8--------------------------11-11-11-11-|-8--8--8--8--7--7--7--7--8--8--8--8--10-10-10-10-|
C#|-------------------------------------------------|-------------------------------------------------|


D#|-------------------------------------------------|-------------------------------------------------|
A#|-------------------------------------------------|-------------------------------------------------|
F#|-------------8--8--8--8--------------------------|-------------------------------------------------|
C#|-------------------------8--8--8--8--------------|-------------------------------------------------|
G#|-6--6--6--6--------------------------9--9--9--9--|-6--6--6--6--5--5--5--5--6--6--6--6--8--8--8--8--|
C#|-------------------------------------------------|-------------------------------------------------|


D#|-------------------------------------------------|-------------------------------------------------|
A#|-------------------------------------------------|-------------------------------------------------|
F#|-------------7--7--7--7--------------------------|-------------------------------------------------|
C#|-------------------------7--7--7--7--------------|-------------------------------------------------|
G#|-5--5--5--5--------------------------8--8--8--8--|-5--5--5--5--4--4--4--4--5--5--5--5--7--7--7--7--|
C#|-------------------------------------------------|-------------------------------------------------|


D#|-------------------------------------------------|-------------------------------------------------|
A#|-------------------------------------------------|-------------------------------------------------|
F#|-------------7--7--7--7--------------------------|-------------------------------------------------|
C#|-------------------------7--7--7--7--------------|-------------------------------------------------|
G#|-5--5--5--5--------------------------8--8--8--8--|-5--5--5--5--4--4--4--4--5--5--5--5--7--7--7--7--|
C#|-------------------------------------------------|-------------------------------------------------|


D#|-------------------------------------------------|-------------------------------------------------|
A#|-------------------------------------------------|-------------------------------------------------|
F#|-------------10-10-10-10-------------------------|-------------------------------------------------|
C#|-------------------------10-10-10-10-------------|-------------------------------------------------|
G#|-8--8--8--8--------------------------11-11-11-11-|-8--8--8--8--7--7--7--7--8--8--8--8--10-10-10-10-|
C#|-------------------------------------------------|-------------------------------------------------|


D#|-------------------------------------------------|-------------------------------------------------|
A#|-------------------------------------------------|-------------------------------------------------|
F#|-------------8--8--8--8--------------------------|-------------------------------------------------|
C#|-------------------------8--8--8--8--------------|-------------------------------------------------|
G#|-6--6--6--6--------------------------9--9--9--9--|-6--6--6--6--5--5--5--5--6--6--6--6--8--8--8--8--|
C#|-------------------------------------------------|-------------------------------------------------|


D#|-------------------------------------------------|-------------------------------------------------|
A#|-------------------------------------------------|-------------------------------------------------|
F#|-------------7--7--7--7--------------------------|-------------------------------------------------|
C#|-------------------------7--7--7--7--------------|-------------------------------------------------|
G#|-5--5--5--5--------------------------8--8--8--8--|-5--5--5--5--4--4--4--4--5--5--5--5--7--7--7--7--|
C#|-------------------------------------------------|-------------------------------------------------|


D#|------------------------------|------------------------------|------------------------------|
A#|------------------------------|------------------------------|------------------------------|
F#|------------------------------|------------------------------|------------------------------|
C#|-0----------------------------|-0----------------------------|-7----------------------------|
G#|-0----0---0---0---0---0---0---|-0----0---0---0---0---0---0---|-7----7---7---7---7---7---7---|
C#|-0----0---0---0---0---0---0---|-0----0---0---0---0---0---0---|-7----7---7---7---7---7---7---|


D#|------------------------------|------------------------------|------------------------|
A#|------------------------------|------------------------------|------------------------|
F#|------------------------------|------------------------------|------------------------|
C#|-7----------------------------|-8----------------------------|-8------------8----7----|
G#|-7----7---7---7---7---7---7---|-8----8---8---8---8---8---8---|-8----8---8---8----7----|
C#|-7----7---7---7---7---7---7---|-8----8---8---8---8---8---8---|-8----8---8---8----7----|


D#|------------------------------|------------------------------|------------------------------|
A#|------------------------------|------------------------------|------------------------------|
F#|------------------------------|------------------------------|------------------------------|
C#|-6----------------------------|-3----------------------------|-0----------------------------|
G#|-6----6---6---6---6---6---6---|-3----3---3---3---3---3---3---|-0----0---0---0---0---0---0---|
C#|-6----6---6---6---6---6---6---|-3----3---3---3---3---3---3---|-0----0---0---0---0---0---0---|


D#|------------------------------|------------------------------|------------------------------|
A#|------------------------------|------------------------------|------------------------------|
F#|------------------------------|------------------------------|------------------------------|
C#|-0----------------------------|-7----------------------------|-7----------------------------|
G#|-0----0---0---0---0---0---0---|-7----7---7---7---7---7---7---|-7----7---7---7---7---7---7---|
C#|-0----0---0---0---0---0---0---|-7----7---7---7---7---7---7---|-7----7---7---7---7---7---7---|


D#|------------------------------|------------------------|------------------------------|
A#|------------------------------|------------------------|------------------------------|
F#|------------------------------|------------------------|------------------------------|
C#|-8----------------------------|-8------------8----7----|-6----------------------------|
G#|-8----8---8---8---8---8---8---|-8----8---8---8----7----|-6----6---6---6---6---6---6---|
C#|-8----8---8---8---8---8---8---|-8----8---8---8----7----|-6----6---6---6---6---6---6---|


D#|---------------------------|---------------------------------------------------------------|
A#|---------------------------|---------------------------------------------------------------|
F#|---------------------------|---------------------------------------------------------------|
C#|-3-------------------------|---------------------------------------------------------------|
G#|-3----3---3---3---3--------|---------------------------------------------------------------|
C#|-3----3---3---3---3---15---|-0--0--0--0--0--0------0--0--0--0--0--0------0--0--0--0--0--0--|


D#|--------------------------------------------------|---------------------------------------------------------------|
A#|--------------------------------------------------|---------------------------------------------------------------|
F#|--------------------------------------------------|---------------------------------------------------------------|
C#|---------------------------------------------6----|---------------------------------------------------------------|
G#|---------------------------------------------4----|---------------------------------------------------------------|
C#|-----0--0--0--0--0--0------0--0--0--0--0--0-------|-0--0--0--0--0--0------0--0--0--0--0--0------0--0--0--0--0--0--|


D#|------------------------|-----------------------------------------------------|
A#|------------------------|-----------------------------------------------------|
F#|------------------------|-----------------------------------------------------|
C#|-6----7----6---3---2----|-----------------------------------------------------|
G#|-4----5----4---1---0----|-----------------------------------------------------|
C#|------------------------|-0---0--0--0--0---0--0--0--0---0--0--0--0---0--0--0--|


D#|-----------------------------------|------------------------------------------------|
A#|-----------------------------------|------------------------------------------------|
F#|-----------------------------------|------------------------------------------------|
C#|-----------------------------------|------------------------------------------------|
G#|--------------0---0---8---8---8----|----------------------------------------0---0---|
C#|-0---0--0--0--0---0---8---8---8----|-0---0--0--0--0---0--0--0--0---0--0--0--0---0---|


D#|-----------------------------------------|-----------------------------------------------------|
A#|-----------------------------------------|-----------------------------------------------------|
F#|-----------------------------------------|-----------------------------------------------------|
C#|-----------------------------------------|-----------------------------------------------------|
G#|-8--7--5---8--7--5---8--7--5---8--7--5---|-----------------------------------------------------|
C#|-8--7--5---8--7--5---8--7--5---8--7--5---|-0---0--0--0--0---0--0--0--0---0--0--0--0---0--0--0--|


D#|-----------------------------------|------------------------------------------------|
A#|-----------------------------------|------------------------------------------------|
F#|-----------------------------------|------------------------------------------------|
C#|-----------------------------------|------------------------------------------------|
G#|--------------0---0---8---8---8----|----------------------------------------0---0---|
C#|-0---0--0--0--0---0---8---8---8----|-0---0--0--0--0---0--0--0--0---0--0--0--0---0---|


D#|-----------------------------------------|--------------------|
A#|-----------------------------------------|--------------------|
F#|-----------------------------------------|--------------------|
C#|-----------------------------------------|--------------------|
G#|-8--7--5---8--7--5---8--7--5---8--7--5---|--------------------|
C#|-8--7--5---8--7--5---8--7--5---8--7--5---|-0------------------|





Track 3: Distortion Guitar

D#|--------|--------|--------|--------|--------|--------|--------|--------|--------|
A#|--------|--------|--------|--------|--------|--------|--------|--------|--------|
F#|--------|--------|--------|--------|--------|--------|--------|--------|--------|
C#|--------|--------|--------|--------|--------|--------|--------|--------|--------|
G#|--------|--------|--------|--------|--------|--------|--------|--------|--------|
C#|--------|--------|--------|--------|--------|--------|--------|--------|--------|


D#|--------|--------|--------|--------|--------|--------|--------|--------|--------|
A#|--------|--------|--------|--------|--------|--------|--------|--------|--------|
F#|--------|--------|--------|--------|--------|--------|--------|--------|--------|
C#|--------|--------|--------|--------|--------|--------|--------|--------|--------|
G#|--------|--------|--------|--------|--------|--------|--------|--------|--------|
C#|--------|--------|--------|--------|--------|--------|--------|--------|--------|


D#|--------|--------|--------|--------|--------|--------|--------|--------|--------|
A#|--------|--------|--------|--------|--------|--------|--------|--------|--------|
F#|--------|--------|--------|--------|--------|--------|--------|--------|--------|
C#|--------|--------|--------|--------|--------|--------|--------|--------|--------|
G#|--------|--------|--------|--------|--------|--------|--------|--------|--------|
C#|--------|--------|--------|--------|--------|--------|--------|--------|--------|


D#|--------|--------|--------|--------|--------|--------|--------|--------|--------|
A#|--------|--------|--------|--------|--------|--------|--------|--------|--------|
F#|--------|--------|--------|--------|--------|--------|--------|--------|--------|
C#|--------|--------|--------|--------|--------|--------|--------|--------|--------|
G#|--------|--------|--------|--------|--------|--------|--------|--------|--------|
C#|--------|--------|--------|--------|--------|--------|--------|--------|--------|


D#|--------|--------|--------|--------|--------|--------|--------|--------|--------|
A#|--------|--------|--------|--------|--------|--------|--------|--------|--------|
F#|--------|--------|--------|--------|--------|--------|--------|--------|--------|
C#|--------|--------|--------|--------|--------|--------|--------|--------|--------|
G#|--------|--------|--------|--------|--------|--------|--------|--------|--------|
C#|--------|--------|--------|--------|--------|--------|--------|--------|--------|


D#|--------|--------|--------|--------|--------|--------|--------|--------|--------|
A#|--------|--------|--------|--------|--------|--------|--------|--------|--------|
F#|--------|--------|--------|--------|--------|--------|--------|--------|--------|
C#|--------|--------|--------|--------|--------|--------|--------|--------|--------|
G#|--------|--------|--------|--------|--------|--------|--------|--------|--------|
C#|--------|--------|--------|--------|--------|--------|--------|--------|--------|


D#|--------|--------|--------|--------|--------|--------|--------|--------|--------|
A#|--------|--------|--------|--------|--------|--------|--------|--------|--------|
F#|--------|--------|--------|--------|--------|--------|--------|--------|--------|
C#|--------|--------|--------|--------|--------|--------|--------|--------|--------|
G#|--------|--------|--------|--------|--------|--------|--------|--------|--------|
C#|--------|--------|--------|--------|--------|--------|--------|--------|--------|


D#|--------|--------|--------|--------|--------|--------|--------|--------|--------|
A#|--------|--------|--------|--------|--------|--------|--------|--------|--------|
F#|--------|--------|--------|--------|--------|--------|--------|--------|--------|
C#|--------|--------|--------|--------|--------|--------|--------|--------|--------|
G#|--------|--------|--------|--------|--------|--------|--------|--------|--------|
C#|--------|--------|--------|--------|--------|--------|--------|--------|--------|


D#|--------|--------|--------|--------|--------|--------|--------|--------|--------|
A#|--------|--------|--------|--------|--------|--------|--------|--------|--------|
F#|--------|--------|--------|--------|--------|--------|--------|--------|--------|
C#|--------|--------|--------|--------|--------|--------|--------|--------|--------|
G#|--------|--------|--------|--------|--------|--------|--------|--------|--------|
C#|--------|--------|--------|--------|--------|--------|--------|--------|--------|


D#|--------|--------|--------|--------|--------|--------|--------|----------------|
A#|--------|--------|--------|--------|--------|--------|--------|----------------|
F#|--------|--------|--------|--------|--------|--------|--------|----------------|
C#|--------|--------|--------|--------|--------|--------|--------|----------------|
G#|--------|--------|--------|--------|--------|--------|--------|-0------0---0---|
C#|--------|--------|--------|--------|--------|--------|--------|-0------0---0---|


D#|---------------------------|----------------|---------------------------|----------------|
A#|---------------------------|----------------|---------------------------|----------------|
F#|---------------------------|----------------|---------------------------|----------------|
C#|---------------------------|----------------|---------------------------|----------------|
G#|-0----0----4---4---4---4---|-3------3---3---|-3----3----4---4---3---3---|-1------1---1---|
C#|-0----0----4---4---4---4---|-3------3---3---|-3----3----4---4---3---3---|-1------1---1---|


D#|---------------------------|----------------|--------|----------------|---------------------------|
A#|---------------------------|----------------|--------|----------------|---------------------------|
F#|---------------------------|----------------|--------|----------------|---------------------------|
C#|---------------------------|----------------|--------|----------------|---------------------------|
G#|-4----4----4---4---4---4---|-0------0---0---|-0------|-0------0---0---|-0----0----4---4---4---4---|
C#|-4----4----4---4---4---4---|-0------0---0---|-0------|-0------0---0---|-0----0----4---4---4---4---|


D#|----------------|---------------------------|----------------|---------------------------|
A#|----------------|---------------------------|----------------|---------------------------|
F#|----------------|---------------------------|----------------|---------------------------|
C#|----------------|---------------------------|----------------|---------------------------|
G#|-3------3---3---|-3----3----4---4---3---3---|-1------1---1---|-4----4----4---4---4---4---|
C#|-3------3---3---|-3----3----4---4---3---3---|-1------1---1---|-4----4----4---4---4---4---|


D#|----------------|--------|--------|--------|--------|--------|--------|--------|
A#|----------------|--------|--------|--------|--------|--------|--------|--------|
F#|----------------|--------|--------|--------|--------|--------|--------|--------|
C#|----------------|--------|--------|--------|--------|--------|--------|--------|
G#|-0------0---0---|-0------|--------|--------|--------|--------|--------|--------|
C#|-0------0---0---|-0------|--------|--------|--------|--------|--------|--------|


D#|--------|--------|--------|--------|--------|--------|--------|--------|--------|
A#|--------|--------|--------|--------|--------|--------|--------|--------|--------|
F#|--------|--------|--------|--------|--------|--------|--------|--------|--------|
C#|--------|--------|--------|--------|--------|--------|--------|--------|--------|
G#|--------|--------|--------|--------|--------|--------|--------|--------|--------|
C#|--------|--------|--------|--------|--------|--------|--------|--------|--------|


D#|--------|--------|--------|--------|--------|--------|--------|--------|--------|
A#|--------|--------|--------|--------|--------|--------|--------|--------|--------|
F#|--------|--------|--------|--------|--------|--------|--------|--------|--------|
C#|--------|--------|--------|--------|--------|--------|--------|--------|--------|
G#|--------|--------|--------|--------|--------|--------|--------|--------|--------|
C#|--------|--------|--------|--------|--------|--------|--------|--------|--------|


D#|--------|--------|--------|--------|--------|
A#|--------|--------|--------|--------|--------|
F#|--------|--------|--------|--------|--------|
C#|--------|--------|--------|--------|--------|
G#|--------|--------|--------|--------|--------|
C#|--------|--------|--------|--------|--------|





Track 4: Untitled

G|--------|--------|--------|--------|--------|--------|--------|--------|--------|
D|--------|--------|--------|--------|--------|--------|--------|--------|--------|
A|--------|--------|--------|--------|--------|--------|--------|--------|--------|
E|--------|--------|--------|--------|--------|--------|--------|--------|--------|


G|--------|--------|--------|--------|--------|--------|--------|--------|--------|
D|--------|--------|--------|--------|--------|--------|--------|--------|--------|
A|--------|--------|--------|--------|--------|--------|--------|--------|--------|
E|--------|--------|--------|--------|--------|--------|--------|--------|--------|


G|--------|--------|--------|--------|--------|--------|--------|--------|--------|
D|--------|--------|--------|--------|--------|--------|--------|--------|--------|
A|--------|--------|--------|--------|--------|--------|--------|--------|--------|
E|--------|--------|--------|--------|--------|--------|--------|--------|--------|


G|--------|--------|--------|--------|--------|--------|--------|--------|--------|
D|--------|--------|--------|--------|--------|--------|--------|--------|--------|
A|--------|--------|--------|--------|--------|--------|--------|--------|--------|
E|--------|--------|--------|--------|--------|--------|--------|--------|--------|


G|--------|--------|--------|--------|--------|--------|--------|--------|--------|
D|--------|--------|--------|--------|--------|--------|--------|--------|--------|
A|--------|--------|--------|--------|--------|--------|--------|--------|--------|
E|--------|--------|--------|--------|--------|--------|--------|--------|--------|


G|--------|--------|--------|--------|--------|--------|--------|--------|--------|
D|--------|--------|--------|--------|--------|--------|--------|--------|--------|
A|--------|--------|--------|--------|--------|--------|--------|--------|--------|
E|--------|--------|--------|--------|--------|--------|--------|--------|--------|


G|--------|--------|--------|--------|--------|--------|--------|--------|--------|
D|--------|--------|--------|--------|--------|--------|--------|--------|--------|
A|--------|--------|--------|--------|--------|--------|--------|--------|--------|
E|--------|--------|--------|--------|--------|--------|--------|--------|--------|


G|--------|--------|--------|--------|--------|--------|--------|--------|--------|
D|--------|--------|--------|--------|--------|--------|--------|--------|--------|
A|--------|--------|--------|--------|--------|--------|--------|--------|--------|
E|--------|--------|--------|--------|--------|--------|--------|--------|--------|


G|--------|--------|--------|--------|--------|--------|--------|--------|--------|
D|--------|--------|--------|--------|--------|--------|--------|--------|--------|
A|--------|--------|--------|--------|--------|--------|--------|--------|--------|
E|--------|--------|--------|--------|--------|--------|--------|--------|--------|


G|--------|--------|--------|--------|--------|--------|--------|--------|--------|
D|--------|--------|--------|--------|--------|--------|--------|--------|--------|
A|--------|--------|--------|--------|--------|--------|--------|--------|--------|
E|--------|--------|--------|--------|--------|--------|--------|--------|--------|


G|--------|--------|--------|--------|--------|--------|--------|--------|--------|
D|--------|--------|--------|--------|--------|--------|--------|--------|--------|
A|--------|--------|--------|--------|--------|--------|--------|--------|--------|
E|--------|--------|--------|--------|--------|--------|--------|--------|--------|


G|--------|--------|--------|--------|--------|--------|--------|--------|--------|
D|--------|--------|--------|--------|--------|--------|--------|--------|--------|
A|--------|--------|--------|--------|--------|--------|--------|--------|--------|
E|--------|--------|--------|--------|--------|--------|--------|--------|--------|


G|--------|--------|--------|--------|--------|--------|--------|--------|--------|
D|--------|--------|--------|--------|--------|--------|--------|--------|--------|
A|--------|--------|--------|--------|--------|--------|--------|--------|--------|
E|--------|--------|--------|--------|--------|--------|--------|--------|--------|


G|--------|--------|--------|--------|--------|--------|--------|--------|--------|
D|--------|--------|--------|--------|--------|--------|--------|--------|--------|
A|--------|--------|--------|--------|--------|--------|--------|--------|--------|
E|--------|--------|--------|--------|--------|--------|--------|--------|--------|


G|--------|--------|--------|--------|--------|--------|--------|
D|--------|--------|--------|--------|--------|--------|--------|
A|--------|--------|--------|--------|--------|--------|--------|
E|--------|--------|--------|--------|--------|--------|--------|