Menu:

 

Search:

 

system of a down - question:

 



Title: Question!
Artist: 
Album: Mezmerize
Author: D. Malakian; S. Tankian


Track 1: Acoustic (Serj)

E|-0--------------------------0--------------------|-------0--------------------------0--------------|
B|----0-----------0--------------0-----------0-----|----------0-----------0--------------0-----------|
G|-------12----12----12----12-------12----12----12-|----12-------12----12----12----12-------12----12-|
D|----------10----------10-------------10----------|-10-------------10----------10-------------10----|
A|-------------------------------------------------|-------------------------------------------------|
E|-------------------------------------------------|-------------------------------------------------|


E|-------------0--------------------------0--------|-------------------0--------------------------0--|
B|-0--------------0-----------0--------------0-----|-------0--------------0-----------0--------------|
G|----12----12-------12----12----12----12-------12-|----12----12----12-------12----12----12----12----|
D|-------10-------------10----------10-------------|-10----------10-------------10----------10-------|
A|-------------------------------------------------|-------------------------------------------------|
E|-------------------------------------------------|-------------------------------------------------|


E|---------------------0---0-----|-0--------------|--------|--------|--------|--------|
B|-0-----------------0-----------|----------------|--------|--------|--------|--------|
G|----12-----------12------------|----------------|--------|--------|--------|--------|
D|-------10------9---------------|----------------|--------|--------|--------|--------|
A|-------------10----------------|----------------|--------|--------|--------|--------|
E|-----------12------------------|----------------|--------|--------|--------|--------|


E|-----0--------------------------0--------------|-------------0--------------------------0--------|
B|--------0-----------0--------------0-----------|-0--------------0-----------0--------------0-----|
G|-----------12----12----12----12-------12----12-|----12----12-------12----12----12----12-------12-|
D|--------------10----------10-------------10----|-------10-------------10----------10-------------|
A|-----------------------------------------------|-------------------------------------------------|
E|-----------------------------------------------|-------------------------------------------------|


E|-------------------0--------------------------0--|----------------------------------0--------------|
B|-------0--------------0-----------0--------------|-0-----------0-----------------0-----0-----------|
G|----12----12----12-------12----12----12----12----|----12----12----12----12----5-----------5-----5--|
D|-10----------10-------------10----------10-------|-------10----------10----7-----------------7-----|
A|-------------------------------------------------|-------------------------------------------------|
E|-------------------------------------------------|-------------------------------------------------|


E|----0--------0--------------------------0--------|-------------------0--------------------------0--|
B|-0-----0--------0-----------0--------------0-----|-------0--------------0-----------0--------------|
G|----------5--------12----12----12----12-------12-|----12----12----12-------12----12----12----12----|
D|----------------------10----------10-------------|-10----------10-------------10----------10-------|
A|-------------------------------------------------|-------------------------------------------------|
E|-------------------------------------------------|-------------------------------------------------|


E|----------------------------------0--------------|----0-----------------0-----------------0--------|
B|-0-----------0-----------------0-----0-----------|-0-----0-----------0-----0-----------0-----0-----|
G|----12----12----12----12----5-----------5-----5--|----------5-----5-----------5-----5-----------5--|
D|-------10----------10----7-----------------7-----|-------------7-----------------7-----------------|
A|-------------------------------------------------|-------------------------------------------------|
E|-------------------------------------------------|-------------------------------------------------|


E|-3----3----3----3----0----0--|-----0----0----3----3----3---|----3----0----0----0----0----|
B|-0----0----0----0----0----0--|-----0----0----0----0----0---|----0----0----0----0----0----|
G|-0----0----0----0----0----0--|-----0----0----0----0----0---|----0----0----0----0----0----|
D|-2----2----2----2----2----2--|-----2----2----2----2----2---|----2----2----2----2----2----|
A|-----------------------------|-----------------------------|-----------------------------|
E|-----------------------------|-----------------------------|-----------------------------|


E|--------|--------|--------|--------|--------|--------|--------|--------|--------|
B|--------|--------|--------|--------|--------|--------|--------|--------|--------|
G|--------|--------|--------|--------|--------|--------|--------|--------|--------|
D|--------|--------|--------|--------|--------|--------|--------|--------|--------|
A|--------|--------|--------|--------|--------|--------|--------|--------|--------|
E|--------|--------|--------|--------|--------|--------|--------|--------|--------|


E|--------|--------|--------|--------|--------|--------|--------|--------|--------|
B|--------|--------|--------|--------|--------|--------|--------|--------|--------|
G|--------|--------|--------|--------|--------|--------|--------|--------|--------|
D|--------|--------|--------|--------|--------|--------|--------|--------|--------|
A|--------|--------|--------|--------|--------|--------|--------|--------|--------|
E|--------|--------|--------|--------|--------|--------|--------|--------|--------|


E|--------|--------|--------|--------|--------|--------|--------|--------|--------|
B|--------|--------|--------|--------|--------|--------|--------|--------|--------|
G|--------|--------|--------|--------|--------|--------|--------|--------|--------|
D|--------|--------|--------|--------|--------|--------|--------|--------|--------|
A|--------|--------|--------|--------|--------|--------|--------|--------|--------|
E|--------|--------|--------|--------|--------|--------|--------|--------|--------|


E|--------|--------|--------|--------|--------|--------|--------|--------|--------|
B|--------|--------|--------|--------|--------|--------|--------|--------|--------|
G|--------|--------|--------|--------|--------|--------|--------|--------|--------|
D|--------|--------|--------|--------|--------|--------|--------|--------|--------|
A|--------|--------|--------|--------|--------|--------|--------|--------|--------|
E|--------|--------|--------|--------|--------|--------|--------|--------|--------|


E|--------|--------|--------|--------|--------|--------|--------|--------|--------|
B|--------|--------|--------|--------|--------|--------|--------|--------|--------|
G|--------|--------|--------|--------|--------|--------|--------|--------|--------|
D|--------|--------|--------|--------|--------|--------|--------|--------|--------|
A|--------|--------|--------|--------|--------|--------|--------|--------|--------|
E|--------|--------|--------|--------|--------|--------|--------|--------|--------|


E|--------|-----------------|-----------------------|-----------0-----------------------|
B|--------|-----------------|-----------------------|--------------0-----------0--------|
G|--------|-----------------|-----------------------|-----------------12----12----12----|
D|--------|-----------------|-----------------------|--------------------10----------10-|
A|--------|-----------------|-----------------------|-----------------------------------|
E|--------|-----------------|-----------------------|-----------------------------------|


E|----0--------------------------0-----------------|----------0----------------------0---0----|
B|-------0-----------0--------------0-----------0--|-------------0-----------------0----------|
G|-12-------12----12----12----12-------12----12----|-12----12-------12-----------12-----------|
D|-------------10----------10-------------10-------|----10-------------10------9--------------|
A|-------------------------------------------------|-------------------------10---------------|
E|-------------------------------------------------|-----------------------12-----------------|


E|------0-------------|--------|
B|--------------------|--------|
G|--------------------|--------|
D|--------------------|--------|
A|--------------------|--------|
E|--------------------|--------|





Track 2: Distorted (Daron)

D|--------|--------|--------|--------|--------|-----------------------------------------|
A|--------|--------|--------|--------|--------|-----------------------------------------|
F|--------|--------|--------|--------|--------|-----------------------------------------|
C|--------|--------|--------|--------|--------|-----------------------------------------|
G|--------|--------|--------|--------|--------|-----4---11-9---7--7--9--6--7--4---11-9--|
C|--------|--------|--------|--------|--------|-----4---11-9---7--7--9--6--7--4---11-9--|


D|---------------------------------------------|----------------------------------------------|
A|---------------------------------------------|----------------------------------------------|
F|---------------------------------------------|----------------------------------------------|
C|---------------------------------------------|----------------------------------------------|
G|----7--7--9--6--7--4---11-9---7--7--9--6--7--|-4---11-9---7--7--9--6--7--4------11-9--9--7--|
C|----7--7--9--6--7--4---11-9---7--7--9--6--7--|-4---11-9---7--7--9--6--7--4--4-4-11-9--9--7--|


D|--------------------------------------------------|-------------------------------------------------|
A|--------------------------------------------------|-------------------------------------------------|
F|--------------------------------------------------|-------------------------------------------------|
C|--------------------------------------------------|-------------------------------------------------|
G|-7--9--6--7--4--4--11-9--9--7--7--9--6--7--4------|-11-9--9--7--7--9--6--7--4--4--11-9--9--7--7--9--|
C|-7--9--6--7--4--4--11-9--9--7--7--9--6--7--4--4-4-|-11-9--9--7--7--9--6--7--4--4--11-9--9--7--7--9--|


D|----------------------|----------------|--------|--------|--------|--------|--------|
A|----------------------|----------------|--------|--------|--------|--------|--------|
F|----------------------|----------------|--------|--------|--------|--------|--------|
C|-------4-----4--4-----|------4---------|--------|--------|--------|--------|--------|
G|-6--7--4-----4--4-----|------4---------|--------|--------|--------|--------|--------|
C|-6--7--4-----4--4-----|------4---------|--------|--------|--------|--------|--------|


D|--------|--------|--------|--------|-------------------------------------------|
A|--------|--------|--------|--------|-------------------------------------------|
F|--------|--------|--------|--------|-------------------------------------------|
C|--------|--------|--------|--------|-----------6--4------------6--4------------|
G|--------|--------|--------|--------|-4---4--4--------4---4--4--------4---4--4--|
C|--------|--------|--------|--------|-4---4--4--------4---4--4--------4---4--4--|


D|-------------------------------------------|-----------------------------------------------|
A|-------------------------------------------|-----------------------------------------------|
F|-------------------------------------------|-----------------------------------------------|
C|-6--4------------6--4------------6--4------|-------6--4---------11-9-----12-9-----11-9-----|
G|-------4---4--4--------4---4--4--------4---|-4--4--------9---9--------9--------9--------9--|
C|-------4---4--4--------4---4--4--------4---|-4--4--------9---9-----------------------------|


D|-------------------------------------------|-------------------------------------------|
A|-------------------------------------------|-------------------------------------------|
F|-------------------------------------------|-------------------------------------------|
C|-----------6--4------------6--4------------|-6--4------------6--4------------6--4------|
G|-4---4--4--------4---4--4--------4---4--4--|-------4---4--4--------4---4--4--------4---|
C|-4---4--4--------4---4--4--------4---4--4--|-------4---4--4--------4---4--4--------4---|


D|-----------------------------------------------|---------------------------------------|
A|-----------------------------------------------|---------------------------------------|
F|-----------------------------------------------|---------------------------------------|
C|-------6--4---------11-9-----12-9-----11-9-----|---------------------------------------|
G|-4--4--------9---9--------9--------9--------9--|-9---9--9--9---9---9--9--9---4---11-9--|
C|-4--4--------9---9-----------------------------|-9---9--9--9---9---9--9--9---4---11-9--|


D|---------------------------------------------|-0--------------------------0--------------------|
A|---------------------------------------------|----0-----------0--------------0-----------0-----|
F|---------------------------------------------|-------12----12----12----12-------12----12----12-|
C|---------------------------------------------|----------10----------10-------------10----------|
G|----7--7--9--6--7--4---11-9---7--7--9--6--7--|-------------------------------------------------|
C|----7--7--9--6--7--4---11-9---7--7--9--6--7--|-------------------------------------------------|


D|-------0--------------------------0--------------|----------------------0-----------------0--------|
A|----------0-----------0--------------0-----------|-0-----------------0-----0-----------0-----0-----|
F|----12-------12----12----12----12-------12----12-|----12----12----5-----------5-----5-----------5--|
C|-10-------------10----------10-------------10----|-------10----7-----------------7-----------------|
G|-------------------------------------------------|-------------------------------------------------|
C|-------------------------------------------------|-------------------------------------------------|


D|-0--------------------------0--------------------|-------0--------------------------0--------------|
A|----0-----------0--------------0-----------0-----|----------0-----------0--------------0-----------|
F|-------12----12----12----12-------12----12----12-|----12-------12----12----12----12-------12----12-|
C|----------10----------10-------------10----------|-10-------------10----------10-------------10----|
G|-------------------------------------------------|-------------------------------------------------|
C|-------------------------------------------------|-------------------------------------------------|


D|----------------------0-----------------0--------|----------0-----------------0--------3----3--|
A|-0-----------------0-----0-----------0-----0-----|-------0-----0-----------0-----0-----0----0--|
F|----12----12----5-----------5-----5-----------5--|----5-----------5-----5-----------5--0----0--|
C|-------10----7-----------------7-----------------|-7-----------------7-----------------2----2--|
G|-------------------------------------------------|---------------------------------------------|
C|-------------------------------------------------|---------------------------------------------|


D|-----3----3----0----0----0---|----0----3----3----3----3----|-0----0----0----0--------------|
A|-----0----0----0----0----0---|----0----0----0----0----0----|-0----0----0----0--------------|
F|-----0----0----0----0----0---|----0----0----0----0----0----|-0----0----0----0--------------|
C|-----2----2----2----2----2---|----2----2----2----2----2----|-2----2----2----2--------------|
G|-----------------------------|-----------------------------|---------------------4---4--4--|
C|-----------------------------|-----------------------------|---------------------4---4--4--|


D|-------------------------------------------|---------------------------------------------|
A|-------------------------------------------|---------------------------------------------|
F|-------------------------------------------|---------------------------------------------|
C|-6--4------------6--4------------6--4------|-------6--4------------6--4------------6--4--|
G|-------4---4--4--------4---4--4--------4---|-4--4--------4---4--4--------4---4--4--------|
C|-------4---4--4--------4---4--4--------4---|-4--4--------4---4--4--------4---4--4--------|


D|---------------------------------------------|-------------------------------------------|
A|---------------------------------------------|-------------------------------------------|
F|---------------------------------------------|-------------------------------------------|
C|--------11-9-----12-9-----11-9---------------|-6--4------------6--4------------6--4------|
G|-9---9--------9--------9--------9--4---4--4--|-------4---4--4--------4---4--4--------4---|
C|-9---9-----------------------------4---4--4--|-------4---4--4--------4---4--4--------4---|


D|---------------------------------------------|---------------------------------------------|
A|---------------------------------------------|---------------------------------------------|
F|---------------------------------------------|---------------------------------------------|
C|-------6--4------------6--4------------6--4--|--------11-9-----12-9-----11-9---------------|
G|-4--4--------4---4--4--------4---4--4--------|-9---9--------9--------9--------9--9---9--9--|
C|-4--4--------4---4--4--------4---4--4--------|-9---9-----------------------------9---9--9--|


D|-------------------------|-------------|-----------------------------------------|
A|-------------------------|-------------|-----------------------------------------|
F|-------------------------|-------------|-----------------------------------------|
C|-------------------4-----|------4------|-----------------------------------------|
G|-9---9---9--9--9---4-----|------4------|-4---11-9---7--7--9--6--7--4---11-9---7--|
C|-9---9---9--9--9---4-----|------4------|-4---11-9---7--7--9--6--7--4---11-9---7--|


D|-------------------------------------------|------------------------------------------------|
A|-------------------------------------------|------------------------------------------------|
F|-------------------------------------------|------------------------------------------------|
C|-------------------------------------------|------------------------------------------------|
G|-7--9--6--7--4---11-9---7--7--9--6--7--4---|-11-9---7--7--9--6--7--4------11-9--9--7--7--9--|
C|-7--9--6--7--4---11-9---7--7--9--6--7--4---|-11-9---7--7--9--6--7--4--4-4-11-9--9--7--7--9--|


D|--------------------------------------------------|-------------------------------------------------|
A|--------------------------------------------------|-------------------------------------------------|
F|--------------------------------------------------|-------------------------------------------------|
C|--------------------------------------------------|-------------------------------------------------|
G|-6--7--4--4--11-9--9--7--7--9--6--7--4------11-9--|-9--7--7--9--6--7--4--4--11-9--9--7--7--9--6--7--|
C|-6--7--4--4--11-9--9--7--7--9--6--7--4--4-4-11-9--|-9--7--7--9--6--7--4--4--11-9--9--7--7--9--6--7--|


D|-----------------------------------------------------------------|-----------------------------------------------------------------|
A|-----------------------------------------------------------------|-----------------------------------------------------------------|
F|-----------------------------------------------------------------|-----------------------------------------------------------------|
C|-----------------------------------------------------------------|-----------------------------------------------------------------|
G|-----------------------------------------------------------------|-----------------------------------------------------------------|
C|-4-4-4-4-11119-9-9-9-7-7-7-7-9-9-6-6-7-7-4-4-4-4-11119-9-9-9-7-7-|-7-7-9-9-6-6-7-7-4-4-4-4-11119-9-9-9-7-7-7-7-9-9-6-6-7-7-4-4-4-4-|


D|-----------------------------------------------------|-------------------------------------------|
A|-----------------------------------------------------|-------------------------------------------|
F|-----------------------------------------------------|-------------------------------------------|
C|-----------------------------------------------------|-------------------------------------------|
G|---------------------------------4---11-9---7--7--9--|-6--7--4---11-9---7--7--9--6--7--4---11-9--|
C|-11119-9-9-9-7-7-7-7-9-9-6-6-7-7-4---11-9---7--7--9--|-6--7--4---11-9---7--7--9--6--7--4---11-9--|


D|---------------------------------------------|---------------------------------------------------------|
A|---------------------------------------------|---------------------------------------------------------|
F|---------------------------------------------|---------------------------------------------------------|
C|---------------------------------------------|---------------------------------------------------------|
G|----7--7--9--6--7--4---11-9---7--7--9--6--7--|---------------------------------------------------------|
C|----7--7--9--6--7--4---11-9---7--7--9--6--7--|-4--4-4-4-4-0--4--4-4-4-4-0--4--4-4-4-4-0--4--4-4-4-4-0--|


D|---------------------------------------------------------|---------------------------------------------------------|
A|---------------------------------------------------------|---------------------------------------------------------|
F|---------------------------------------------------------|---------------------------------------------------------|
C|---------------------------------------------------------|---------------------------------------------------------|
G|---------------------------------------------------------|---------------------------------------------------------|
C|-4--4-4-4-4-0--4--4-4-4-4-0--4--4-4-4-4-0--4--4-4-4-4-0--|-4--4-4-4-4-0--4--4-4-4-4-0--4--4-4-4-4-0--4--4-4-4-4-0--|


D|---------------------------------------------------------|-----------------------------------------------------------------|
A|---------------------------------------------------------|-----------------------------------------------------------------|
F|---------------------------------------------------------|-----------------------------------------------------------------|
C|---------------------------------------------------------|-----------------------------------------------------------------|
G|---------------------------------------------------------|-----------------------------------------------------------------|
C|-4--4-4-4-4-0--4--4-4-4-4-0--4--4-4-4-4-0--4--4-4-4-4-0--|-9-9-9-9-9-9-9-9-9-9-9-9-9-9-9-9-9-9-9-9-9-9-9-9-9-9-9-9-9-9-9-9-|


D|---------------------------------------------------------|---------------------------------------------------------|
A|---------------------------------------------------------|---------------------------------------------------------|
F|---------------------------------------------------------|---------------------------------------------------------|
C|---------------------------------------------------------|---------------------------------------------------------|
G|---------------------------------------------------------|---------------------------------------------------------|
C|-4--4-4-4-4-0--4--4-4-4-4-0--4--4-4-4-4-0--4--4-4-4-4-0--|-4--4-4-4-4-0--4--4-4-4-4-0--4--4-4-4-4-0--4--4-4-4-4-0--|


D|---------------------------------------------------------|-----------------------------------------------------------------|
A|---------------------------------------------------------|-----------------------------------------------------------------|
F|---------------------------------------------------------|-----------------------------------------------------------------|
C|---------------------------------------------------------|-----------------------------------------------------------------|
G|---------------------------------------------------------|-----------------------------------------------------------------|
C|-4--4-4-4-4-0--4--4-4-4-4-0--4--4-4-4-4-0--4--4-4-4-4-0--|-9-9-9-9-9-9-9-9-9-9-9-9-9-9-9-9-9-9-9-9-9-9-9-9-9-9-9-9-9-9-9-9-|


D|-14--------------------------------------------------------------|-----------------------------------------|
A|-----------------------------------------------------------------|-----------------------------------------|
F|-----------------------------------------------------------------|-----------------------------------------|
C|-----------------------------------------------------------------|-----------------------------------------|
G|-----------------------------------------------------------------|-4---11-9---7--7--9--6--7--4---11-9---7--|
C|-9-9-9-9-9-9-9-9-9-9-9-9-9-9-9-9-9-9-9-9-9-9-9-9-9-9-9-9-9-9-9-9-|-4---11-9---7--7--9--6--7--4---11-9---7--|


D|-------------------------------------------|-----------------------------|-------------------|
A|-------------------------------------------|-----------------------------|-------------------|
F|-------------------------------------------|-----------------------------|-------------------|
C|-------------------------------------------|-----------------------4-----|-4--4-----4--------|
G|-7--9--6--7--4---11-9---7--7--9--6--7--4---|-11-9---7--7--9--6--7--4-----|-4--4-----4--------|
C|-7--9--6--7--4---11-9---7--7--9--6--7--4---|-11-9---7--7--9--6--7--4-----|-4--4-----4--------|


D|--------|---------------------------------|---------------------------------|
A|--------|---------------------------------|---------------------------------|
F|--------|---------------------------------|---------------------------------|
C|--------|---------------------------------|---------------------------------|
G|--------|-------4---11-9---7--7--9--6--7--|-4---11-9---7--7--9--6--7--------|
C|--------|-------4---11-9---7--7--9--6--7--|-4---11-9---7--7--9--6--7--------|





Track 3: Clean Palm Muted (Daron)

D|--------|--------|--------|--------|--------|--------|--------|--------|--------|
A|--------|--------|--------|--------|--------|--------|--------|--------|--------|
F|--------|--------|--------|--------|--------|--------|--------|--------|--------|
C|--------|--------|--------|--------|--------|--------|--------|--------|--------|
G|--------|--------|--------|--------|--------|--------|--------|--------|--------|
C|--------|--------|--------|--------|--------|--------|--------|--------|--------|


D|--------|--------|------------------------------------------|-----------------------------|
A|--------|--------|------------------------------------------|-----------------------------|
F|--------|--------|------------------------------------------|-----------------------------|
C|--------|--------|------------2--4--2-----2-----0--------2--|-4--2-----2-----0------------|
G|--------|--------|---------4-----------4-----4--------4-----|-------4-----4---------------|
C|--------|--------|------4--------------------------4--------|--------------------------4--|


D|-------------------------------|------------------------------------------|-----------------------------|
A|-------------------------------|------------------------------------------|-----------------------------|
F|-------------------------------|------------------------------------------|-----------------------------|
C|----2--4--2-----2-----0--------|------------2--4--2-----2-----0--------2--|-4--2-----2-----0------------|
G|-4-----------4-----4-----------|---------4-----------4-----4--------4-----|-------4-----4---------------|
C|-------------------------------|------4--------------------------4--------|--------------------------4--|


D|-------------------------------|--------|--------|--------|--------|--------|--------|
A|-------------------------------|--------|--------|--------|--------|--------|--------|
F|-------------------------------|--------|--------|--------|--------|--------|--------|
C|----2--4--2-----2-----0--------|--------|--------|--------|--------|--------|--------|
G|-4-----------4-----4-----------|--------|--------|--------|--------|--------|--------|
C|-------------------------------|--------|--------|--------|--------|--------|--------|


D|--------|--------|--------|--------|--------|--------|-------------------------------------------------|
A|--------|--------|--------|--------|--------|--------|-------------------------------------------------|
F|--------|--------|--------|--------|--------|--------|-------------------------------------------------|
C|--------|--------|--------|--------|--------|--------|-------2--4--2-----2-----0--------2--4--2-----2--|
G|--------|--------|--------|--------|--------|--------|----4-----------4-----4--------4-----------4-----|
C|--------|--------|--------|--------|--------|--------|-4--------------------------4--------------------|


D|-----------------------------|--------------------|-------------------------------------------------|
A|-----------------------------|--------------------|-------------------------------------------------|
F|-----------------------------|--------------------|-------------------------------------------------|
C|----0---------------2--4--2--|----2-----0---------|-------2--4--2-----2-----0--------2--4--2-----2--|
G|-4---------------4-----------|-4-----4------------|----4-----------4-----4--------4-----------4-----|
C|--------------4--------------|--------------------|-4--------------------------4--------------------|


D|-----------------------------|--------------------|--------|--------|--------|--------|
A|-----------------------------|--------------------|--------|--------|--------|--------|
F|-----------------------------|--------------------|--------|--------|--------|--------|
C|----0---------------2--4--2--|----2-----0---------|--------|--------|--------|--------|
G|-4---------------4-----------|-4-----4------------|--------|--------|--------|--------|
C|--------------4--------------|--------------------|--------|--------|--------|--------|


D|--------|--------|--------|--------|--------|--------|--------|--------|--------|
A|--------|--------|--------|--------|--------|--------|--------|--------|--------|
F|--------|--------|--------|--------|--------|--------|--------|--------|--------|
C|--------|--------|--------|--------|--------|--------|--------|--------|--------|
G|--------|--------|--------|--------|--------|--------|--------|--------|--------|
C|--------|--------|--------|--------|--------|--------|--------|--------|--------|


D|--------|--------|--------|--------|--------|--------|--------|--------|--------|
A|--------|--------|--------|--------|--------|--------|--------|--------|--------|
F|--------|--------|--------|--------|--------|--------|--------|--------|--------|
C|--------|--------|--------|--------|--------|--------|--------|--------|--------|
G|--------|--------|--------|--------|--------|--------|--------|--------|--------|
C|--------|--------|--------|--------|--------|--------|--------|--------|--------|


D|--------|--------|--------|--------|--------|--------|--------|--------|--------|
A|--------|--------|--------|--------|--------|--------|--------|--------|--------|
F|--------|--------|--------|--------|--------|--------|--------|--------|--------|
C|--------|--------|--------|--------|--------|--------|--------|--------|--------|
G|--------|--------|--------|--------|--------|--------|--------|--------|--------|
C|--------|--------|--------|--------|--------|--------|--------|--------|--------|


D|--------|--------|--------|--------|--------|--------|--------|--------|
A|--------|--------|--------|--------|--------|--------|--------|--------|
F|--------|--------|--------|--------|--------|--------|--------|--------|
C|--------|--------|--------|--------|--------|--------|--------|--------|
G|--------|--------|--------|--------|--------|--------|--------|--------|
C|--------|--------|--------|--------|--------|--------|--------|--------|





Track 4: Untitled

E|--------|--------|--------|--------|--------|--------|--------|--------|--------|
B|--------|--------|--------|--------|--------|--------|--------|--------|--------|
G|--------|--------|--------|--------|--------|--------|--------|--------|--------|
D|--------|--------|--------|--------|--------|--------|--------|--------|--------|
A|--------|--------|--------|--------|--------|--------|--------|--------|--------|
E|--------|--------|--------|--------|--------|--------|--------|--------|--------|


E|--------|--------|--------|--------|--------|--------|--------|--------|--------|
B|--------|--------|--------|--------|--------|--------|--------|--------|--------|
G|--------|--------|--------|--------|--------|--------|--------|--------|--------|
D|--------|--------|--------|--------|--------|--------|--------|--------|--------|
A|--------|--------|--------|--------|--------|--------|--------|--------|--------|
E|--------|--------|--------|--------|--------|--------|--------|--------|--------|


E|--------|--------|--------|---------------------|---------------------|----------------|
B|--------|--------|--------|-7-----8-----7----8--|-----5-----5-----7---|----8----10-----|
G|--------|--------|--------|---------------------|---------------------|----------------|
D|--------|--------|--------|---------------------|---------------------|----------------|
A|--------|--------|--------|---------------------|---------------------|----------------|
E|--------|--------|--------|---------------------|---------------------|----------------|


E|---------------------|---------------------|----------------|-------------|--------------|
B|-7-----8-----7----8--|-----5-----5-----7---|----8----10-----|-10----------|--------------|
G|---------------------|---------------------|----------------|-------------|--------------|
D|---------------------|---------------------|----------------|-------------|--------------|
A|---------------------|---------------------|----------------|-------------|--------------|
E|---------------------|---------------------|----------------|-------------|--------------|


E|--------|--------|--------|--------|--------|--------|--------|--------|--------|
B|--------|--------|--------|--------|--------|--------|--------|--------|--------|
G|--------|--------|--------|--------|--------|--------|--------|--------|--------|
D|--------|--------|--------|--------|--------|--------|--------|--------|--------|
A|--------|--------|--------|--------|--------|--------|--------|--------|--------|
E|--------|--------|--------|--------|--------|--------|--------|--------|--------|


E|-------------|-------------------------|----------------------|-------------|-------------------------|
B|--------7----|-----8-----7----8----5---|------5-----7----8----|-10-----7----|-----8-----7----8----5---|
G|-------------|-------------------------|----------------------|-------------|-------------------------|
D|-------------|-------------------------|----------------------|-------------|-------------------------|
A|-------------|-------------------------|----------------------|-------------|-------------------------|
E|-------------|-------------------------|----------------------|-------------|-------------------------|


E|----------------------|-------------|--------|--------|--------|--------|--------|
B|------5-----7----8----|-10-----10---|--------|--------|--------|--------|--------|
G|----------------------|-------------|--------|--------|--------|--------|--------|
D|----------------------|-------------|--------|--------|--------|--------|--------|
A|----------------------|-------------|--------|--------|--------|--------|--------|
E|----------------------|-------------|--------|--------|--------|--------|--------|


E|--------|--------|--------|--------|--------|--------|--------|--------|--------|
B|--------|--------|--------|--------|--------|--------|--------|--------|--------|
G|--------|--------|--------|--------|--------|--------|--------|--------|--------|
D|--------|--------|--------|--------|--------|--------|--------|--------|--------|
A|--------|--------|--------|--------|--------|--------|--------|--------|--------|
E|--------|--------|--------|--------|--------|--------|--------|--------|--------|


E|--------|--------|--------|--------|--------|--------|--------|--------|--------|
B|--------|--------|--------|--------|--------|--------|--------|--------|--------|
G|--------|--------|--------|--------|--------|--------|--------|--------|--------|
D|--------|--------|--------|--------|--------|--------|--------|--------|--------|
A|--------|--------|--------|--------|--------|--------|--------|--------|--------|
E|--------|--------|--------|--------|--------|--------|--------|--------|--------|


E|--------|--------|--------|--------|--------|--------|
B|--------|--------|--------|--------|--------|--------|
G|--------|--------|--------|--------|--------|--------|
D|--------|--------|--------|--------|--------|--------|
A|--------|--------|--------|--------|--------|--------|
E|--------|--------|--------|--------|--------|--------|





Track 5: Bass

F|----------------|----------------------|-----------------------|------------------------|
C|----------------|----------------------|-----------------------|------------------------|
G|----------------|----------------------|-----------------------|------------------------|
C|----------------|----------------------|-----------------------|------------------------|


F|-------------------|-----------------------------------------|---------------------------------------------|
C|-------------------|-----------------------------------------|---------------------------------------------|
G|-------------------|-----------------------------------------|---------------------------------------------|
C|-------------------|-----4---11-9---7--7--9--6--7--4---11-9--|----7--7--9--6--7--4---11-9---7--7--9--6--7--|


F|---------------------------------------------|-------------------------------------------------|
C|---------------------------------------------|-------------------------------------------------|
G|---------------------------------------------|-------------------------------------------------|
C|-4---11-9---7--7--9--6--7--4--4--11-9--9--7--|-7--9--6--7--4--4--11-9--9--7--7--9--6--7--4--4--|


F|-------------------------------------------------|----------------------|---------------------------------------------|
C|-------------------------------------------------|----------------------|---------------2--4--2-----2-----0--------2--|
G|-------------------------------------------------|----------------------|------------4-----------4-----4--------4-----|
C|-11-9--9--7--7--9--6--7--4--4--11-9--9--7--7--9--|-6--7--4-----4--4-----|------4--4--------------------------4--------|


F|-------------------------------|-----------------------------------------|---------------------------------------------|
C|-4--2-----2-----0--------------|----2--4--2-----2-----0------------------|---------------2--4--2-----2-----0--------2--|
G|-------4-----4-----------------|-4-----------4-----4-----2---2--9----2---|-2--9-------4-----------4-----4--------4-----|
C|----------------------------4--|-----------------------------------------|---------4--------------------------4--------|


F|-------------------------------|-----------------------------------------|---------------------------------|
C|-4--2-----2-----0--------------|----2--4--2-----2-----0------------------|---------------------------------|
G|-------4-----4-----------------|-4-----------4-----4-----2---2--9----2---|-2--9----2---2--9----2---2--9----|
C|----------------------------4--|-----------------------------------------|---------------------------------|


F|-------------|-------------|-------------|---------------------------------------|
C|-------------|-------------|-------------|---------------------------------------|
G|-9-----------|-------9-----|-------------|---------------------------------------|
C|--------4----|-------------|------4------|-4---4--4--4---4---4--4--4---4---4--4--|


F|-------------------------------------|---------------------------------------|---------------------------------------|
C|-------------------------------------|---------------------------------------|---------------------------------------|
G|-------------------------------------|---------------------------------------|---------------------------------------|
C|-4---4---4--4--4---4---4--4--4---4---|-4--4--4---9---9--9--9---9---9--9--9---|-4---4--4--4---4---4--4--4---4---4--4--|


F|-------------------------------------|---------------------------------------|---------------------------------------|
C|-------------------------------------|---------------------------------------|---------------------------------------|
G|-------------------------------------|---------------------------------------|---------------------------------------|
C|-4---4---4--4--4---4---4--4--4---4---|-4--4--4---9---9--9--9---9---9--9--9---|-9---9--9--9---9---9--9--9---4---11-9--|


F|---------------------------------------------|-------------------------------------------------|
C|---------------------------------------------|-------2--4--2-----2-----0--------2--4--2-----2--|
G|---------------------------------------------|----4-----------4-----4--------4-----------4-----|
C|----7--7--9--6--7--4---11-9---7--7--9--6--7--|-4--------------------------4--------------------|


F|-------------------------------|-------------------------------------|-------------------------------------------------|
C|----0-----------------2--4--2--|----2-----0--------------------------|-------2--4--2-----2-----0--------2--4--2-----2--|
G|-4-----------------4-----------|-4-----4-----2---2--9----2---2--9----|----4-----------4-----4--------4-----------4-----|
C|----------------4--------------|-------------------------------------|-4--------------------------4--------------------|


F|-------------------------------|-------------------------------------|------------------------------|
C|----0-----------------2--4--2--|----2-----0--------------------------|------------------------------|
G|-4-----------------4-----------|-4-----4-----2---2--9----2---2--9----|-2---2--9----2---2--9----9----|
C|----------------4--------------|-------------------------------------|------------------------------|


F|-------------|-------------|------------------|-------------------------------------|
C|-------------|-------------|------------------|-------------------------------------|
G|-------------|------9------|------------------|-------------------------------------|
C|-------4-----|-------------|-4------4---4--4--|-4---4---4--4--4---4---4--4--4---4---|


F|---------------------------------------|---------------------------------------|
C|---------------------------------------|---------------------------------------|
G|---------------------------------------|---------------------------------------|
C|-4--4--4---4---4--4--4---4---4--4--4---|-9---9--9--9---9---9--9--9---4---4--4--|


F|-------------------------------------|---------------------------------------|---------------------------------------|
C|-------------------------------------|---------------------------------------|---------------------------------------|
G|-------------------------------------|---------------------------------------|---------------------------------------|
C|-4---4---4--4--4---4---4--4--4---4---|-4--4--4---4---4--4--4---4---4--4--4---|-9---9--9--9---9---9--9--9---9---9--9--|


F|-------------------------|-------------|-----------------------------------------|
C|-------------------------|-------------|-----------------------------------------|
G|-------------------------|-------------|-----------------------------------------|
C|-9---9---9--9--9---4-----|------4------|-4---11-9---7--7--9--6--7--4---11-9---7--|


F|-------------------------------------------|-----------------------------------------------|
C|-------------------------------------------|-----------------------------------------------|
G|-------------------------------------------|-----------------------------------------------|
C|-7--9--6--7--4---11-9---7--7--9--6--7--4---|-11-9---7--7--9--6--7--4--4--11-9--9--7--7--9--|


F|-------------------------------------------------|-------------------------------------------------|
C|-------------------------------------------------|-------------------------------------------------|
G|-------------------------------------------------|-------------------------------------------------|
C|-6--7--4--4--11-9--9--7--7--9--6--7--4--4--11-9--|-9--7--7--9--6--7--4--4--11-9--9--7--7--9--6--7--|


F|-----------------------------------------------------------------|-----------------------------------------------------------------|
C|-----------------------------------------------------------------|-----------------------------------------------------------------|
G|-----------------------------------------------------------------|-----------------------------------------------------------------|
C|-4-4-4-4-11119-9-9-9-7-7-7-7-9-9-6-6-7-7-4-4-4-4-11119-9-9-9-7-7-|-7-7-9-9-6-6-7-7-4-4-4-4-11119-9-9-9-7-7-7-7-9-9-6-6-7-7-4-4-4-4-|


F|-----------------------------------------------------|-------------------------------------------|
C|-----------------------------------------------------|-------------------------------------------|
G|-----------------------------------------------------|-------------------------------------------|
C|-11119-9-9-9-7-7-7-7-9-9-6-6-7-7-4---11-9---7--7--9--|-6--7--4---11-9---7--7--9--6--7--4---11-9--|


F|---------------------------------------------|--------|---------------------------------------------------------|
C|---------------------------------------------|--------|---------------------------------------------------------|
G|---------------------------------------------|--------|---------------------------------------------------------|
C|----7--7--9--6--7--4---11-9---7--7--9--6--7--|--------|-4--4-4-4-4-0--4--4-4-4-4-0--4--4-4-4-4-0--4--4-4-4-4-0--|


F|---------------------------------------------------------|---------------------------------------------------------|
C|---------------------------------------------------------|---------------------------------------------------------|
G|---------------------------------------------------------|---------------------------------------------------------|
C|-4--4-4-4-4-0--4--4-4-4-4-0--4--4-4-4-4-0--4--4-4-4-4-0--|-4--4-4-4-4-0--4--4-4-4-4-0--4--4-4-4-4-0--4--4-4-4-4-0--|


F|-----------------------------------------------------------------|---------------------------------------------------------|
C|-----------------------------------------------------------------|---------------------------------------------------------|
G|-----------------------------------------------------------------|---------------------------------------------------------|
C|-9-9-9-9-9-9-9-9-9-9-9-9-9-9-9-9-9-9-9-9-9-9-9-9-9-9-9-9-9-9-9-9-|-4--4-4-4-4-0--4--4-4-4-4-0--4--4-4-4-4-0--4--4-4-4-4-0--|


F|---------------------------------------------------------|---------------------------------------------------------|
C|---------------------------------------------------------|---------------------------------------------------------|
G|---------------------------------------------------------|---------------------------------------------------------|
C|-4--4-4-4-4-0--4--4-4-4-4-0--4--4-4-4-4-0--4--4-4-4-4-0--|-4--4-4-4-4-0--4--4-4-4-4-0--4--4-4-4-4-0--4--4-4-4-4-0--|


F|-----------------------------------------------------------------|-----------------------------------------------------------------|
C|-----------------------------------------------------------------|-----------------------------------------------------------------|
G|-----------------------------------------------------------------|-----------------------------------------------------------------|
C|-9-9-9-9-9-9-9-9-9-9-9-9-9-9-9-9-9-9-9-9-9-9-9-9-9-9-9-9-9-9-9-9-|-9-9-9-9-9-9-9-9-9-9-9-9-9-9-9-9-9-9-9-9-9-9-9-9-9-9-9-9-9-9-9-9-|


F|-----------------------------------------|-------------------------------------------|
C|-----------------------------------------|-------------------------------------------|
G|-----------------------------------------|-------------------------------------------|
C|-4---11-9---7--7--9--6--7--4---11-9---7--|-7--9--6--7--4---11-9---7--7--9--6--7--4---|


F|-----------------------------|-------------------|----------------------|------------------------------------|
C|-----------------------------|-------------------|----------------------|------------------------------------|
G|-----------------------------|-------------------|----------------------|------------------------------------|
C|-11-9---7--7--9--6--7--4-----|-4--4-----4--------|----------------------|----------4---11-9---7--7--9--6--7--|


F|---------------------------------|
C|---------------------------------|
G|---------------------------------|
C|-4---11-9---7--7--9--6--7--------|