Menu:

 

Search:

 

system of a down - question acoustic arrangement:

 



Title: Question!
Artist: 
Album: 
Author: Daron Malakian and Serj Tankian


Track 1: Acoustic Guitar

E|-0--------------------------0--------------------|-------0--------------------------0--------------|
B|----0-----------0--------------0-----------0-----|----------0-----------0--------------0-----------|
G|-------12----12----12----12-------12----12----12-|----12-------12----12----12----12-------12----12-|
D|----------10----------10-------------10----------|-10-------------10----------10-------------10----|
A|-------------------------------------------------|-------------------------------------------------|
E|-------------------------------------------------|-------------------------------------------------|


E|-------------0--------------------------0--------|-------------------0--------------------------0--|
B|-0--------------0-----------0--------------0-----|-------0--------------0-----------0--------------|
G|----12----12-------12----12----12----12-------12-|----12----12----12-------12----12----12----12----|
D|-------10-------------10----------10-------------|-10----------10-------------10----------10-------|
A|-------------------------------------------------|-------------------------------------------------|
E|-------------------------------------------------|-------------------------------------------------|


E|-----------0----0----0-----|----------0------------------|----------------------------------------0--|
B|-0---------0----0----0-----|-----------------------------|--------0----------3-----------------------|
G|----12-----0----0----0-----|---------------------0-------|-------------------------------------------|
D|-------10--2----2----2-----|-----------------------------|-2--------------------------2--------------|
A|---------------------------|--------------2--0-------0---|------------2--0------0--2-----------------|
E|---------------------------|----------0----------3-------|-2---3--0----------3--------2--3--0--3--0--|


E|-------------------------------------|----------------------0------------------|
B|--------------------------0----------|-3---------------------------------------|
G|-----------0-------------------------|---------------------------------0-------|
D|-------------------2-----------------|----------2------------------------------|
A|----2--0-------0--------------2--0---|----0--2------------------2--0-------0---|
E|-----------3-------2---3--0----------|-3--------2--3--0--3--0----------3-------|


E|----------------------------------0-----0--|-------------------------------------|
B|--------0----------3-----------------------|--------------------------0----------|
G|-------------------------------------------|-----------0-------------------------|
D|-2--------------------------2--------------|-------------------2-----------------|
A|------------2--0------0--2-----------------|----2--0-------0--------------2--0---|
E|-2---3--0----------3--------2--3--0--3--0--|-----------3-------2---3--0----------|


E|----------------0-----0--------------------------|-0--------------------------0--------------------|
B|-3-----------------------0-----------0-----------|----0-----------0--------------0-----------0-----|
G|----------------------------12----12----12----12-|-------12----12----12----12-------12----12----12-|
D|----------2--------------------10----------10----|----------10----------10-------------10----------|
A|----0--2-----------------------------------------|-------------------------------------------------|
E|-3--------2--3--0--3--0--------------------------|-------------------------------------------------|


E|-------0--------------------------0--------------|-------------0-----------------------------------|
B|----------0-----------0--------------0-----------|-0--------------0-----------0-----------------0--|
G|----12-------12----12----12----12-------12----12-|----12----12-------12----12----12----12----5-----|
D|-10-------------10----------10-------------10----|-------10-------------10----------10----7--------|
A|-------------------------------------------------|-------------------------------------------------|
E|-------------------------------------------------|-------------------------------------------------|


E|-0-----------------0--------0--------------------|-------0--------------------------0--------------|
B|----0-----------0-----0--------0-----------0-----|----------0-----------0--------------0-----------|
G|-------5-----5-----------5--------12----12----12-|----12-------12----12----12----12-------12----12-|
D|----------7--------------------------10----------|-10-------------10----------10-------------10----|
A|-------------------------------------------------|-------------------------------------------------|
E|-------------------------------------------------|-------------------------------------------------|


E|-------------0-----------------------------------|-0-----------------0--------3----3--------0--|
B|-0--------------0-----------0-----------------0--|----0-----------0-----0-----0----0-----0-----|
G|----12----12-------12----12----12----12----5-----|-------5-----5-----------5--0----0--0--------|
D|-------10-------------10----------10----7--------|----------7-----------------2----2-----------|
A|-------------------------------------------------|---------------------------------------------|
E|-------------------------------------------------|---------------------------------------------|


E|-------3----0----0----0-----|----3----3--------0--------3----0----|-0----0-----2-----------------3--|
B|-0-----0----0----0----0-----|----0----0-----0-----0-----0----0----|-0----0--------0-----------0-----|
G|----0--0----0----0----0-----|----0----0--0-----------0--0----0----|-0----0-----------0-----0--------|
D|-------2----2----2----2-----|----2----2-----------------2----2----|-2----2--------------2-----------|
A|----------------------------|-------------------------------------|---------------------------------|
E|----------------------------|-------------------------------------|------------0-----------------0--|


E|----------------2--------3--------0--------------|----0-----------------2--------3--------5--------|
B|-0-----------0-----0--------0--------0-----0-----|-0-----0-----0-----0-----0--------0--------5-----|
G|----0-----0-----------0--------0--------0-----0--|----------0-----0-----------0--------0--------5--|
D|-------2-----------------------------------------|-------------------------------------------------|
A|----------------------------------2--------------|----------------------------------------0--------|
E|----------------2--------3-----------------------|----------------------2--------3-----------------|


E|----------0-----------------2-----------------3--|----------------2--------3--------0--------------|
B|-------0-----0-----------0-----0-----------0-----|-0-----------0-----0--------0--------0-----0-----|
G|----5-----------5-----5-----------0-----0--------|----0-----0-----------0--------0--------0-----0--|
D|-7-----------------7-----------------2-----------|-------2-----------------------------------------|
A|-------------------------------------------------|----------------------------------2--------------|
E|----------------------------0-----------------0--|----------------2--------3-----------------------|


E|----0-----------------2--------3--------5--------|----------0--------------------------0-----------|
B|-0-----0-----0-----0-----0--------0--------5-----|-------0-----0-----------0--------0-----0--------|
G|----------0-----0-----------0--------0--------5--|----5-----------5-----5--------5-----------5-----|
D|-------------------------------------------------|-7-----------------7--------7-----------------7--|
A|----------------------------------------0--------|-------------------------------------------------|
E|----------------------2--------3-----------------|-------------------------------------------------|


E|-------0--------0----------------------|------------------------------0-----0------|
B|----0-----0----------------------------|----0----------3---------------------------|
G|-5-----------5-------------0-----------|-------------------------------------------|
D|-----------------------------------2---|------------------------2------------------|
A|--------------------2--0-------0-------|--------2--0------0--2------------------2--|
E|----------------0----------3-------2---|-3--0----------3--------2--3--0--3--0------|


E|-------------------------------------|----------0-----0--------------------------0-----|
B|--------------------0----------3-----|-------------------0-----------0--------------0--|
G|-----0-------------------------------|----------------------12----12----12----12-------|
D|-------------2-----------------------|----2--------------------10----------10----------|
A|-0-------0--------------2--0------0--|-2-----------------------------------------------|
E|-----3-------2---3--0----------3-----|----2--3--0--3--0--------------------------------|


E|----------------------0--------------------------|-0--------------------------0--------------------|
B|----------0--------------0-----------0-----------|----0-----------0--------------0-----------0-----|
G|-12----12----12----12-------12----12----12----12-|-------12----12----12----12-------12----12----12-|
D|----10----------10-------------10----------10----|----------10----------10-------------10----------|
A|-------------------------------------------------|-------------------------------------------------|
E|-------------------------------------------------|-------------------------------------------------|


E|-------0-----------------------------------0-----|-------------0--------0--------------------------|
B|----------0-----------0-----------------0-----0--|----------0-----0--------0-----------0-----------|
G|----12-------12----12----12----12----5-----------|-5-----5-----------5--------12----12----12----12-|
D|-10-------------10----------10----7--------------|----7--------------------------10----------10----|
A|-------------------------------------------------|-------------------------------------------------|
E|-------------------------------------------------|-------------------------------------------------|


E|-0--------------------------0--------------------|-------0-----------------------------------0-----|
B|----0-----------0--------------0-----------0-----|----------0-----------0-----------------0-----0--|
G|-------12----12----12----12-------12----12----12-|----12-------12----12----12----12----5-----------|
D|----------10----------10-------------10----------|-10-------------10----------10----7--------------|
A|-------------------------------------------------|-------------------------------------------------|
E|-------------------------------------------------|-------------------------------------------------|


E|-------------0--------3----3--------0--------|-3----0----0----0-----3--|-----3--------0--------3----0----0---|
B|----------0-----0-----0----0-----0-----0-----|-0----0----0----0-----0--|-----0-----0-----0-----0----0----0---|
G|-5-----5-----------5--0----0--0-----------0--|-0----0----0----0-----0--|-----0--0-----------0--0----0----0---|
D|----7-----------------2----2-----------------|-2----2----2----2-----2--|-----2-----------------2----2----2---|
A|---------------------------------------------|-------------------------|-------------------------------------|
E|---------------------------------------------|-------------------------|-------------------------------------|


E|----0-----2-----------------3--------|----------2--------3--------0-----------------0--|
B|----0--------0-----------0-----0-----|-------0-----0--------0--------0-----0-----0-----|
G|----0-----------0-----0-----------0--|----0-----------0--------0--------0-----0--------|
D|----2--------------2-----------------|-2-----------------------------------------------|
A|-------------------------------------|----------------------------2--------------------|
E|----------0-----------------0--------|----------2--------3-----------------------------|


E|----------------2--------3--------5--------------|----0-----------------2-----------------3--------|
B|-0-----0-----0-----0--------0--------5-----------|-0-----0-----------0-----0-----------0-----0-----|
G|----0-----0-----------0--------0--------5-----5--|----------5-----5-----------0-----0-----------0--|
D|-------------------------------------------7-----|-------------7-----------------2-----------------|
A|----------------------------------0--------------|-------------------------------------------------|
E|----------------2--------3-----------------------|----------------------0-----------------0--------|


E|----------2--------3--------0-----------------0--|----------------2--------3--------5--------------|
B|-------0-----0--------0--------0-----0-----0-----|-0-----0-----0-----0--------0--------5-----------|
G|----0-----------0--------0--------0-----0--------|----0-----0-----------0--------0--------5-----5--|
D|-2-----------------------------------------------|-------------------------------------------7-----|
A|----------------------------2--------------------|----------------------------------0--------------|
E|----------2--------3-----------------------------|----------------2--------3-----------------------|


E|----0--------------------------0-----------------|-0--------0----------------------------|
B|-0-----0-----------0--------0-----0-----------0--|----0-------------------------------0--|
G|----------5-----5--------5-----------5-----5-----|-------5-------------0-----------------|
D|-------------7--------7-----------------7--------|-----------------------------2---------|
A|-------------------------------------------------|--------------2--0-------0-------------|
E|-------------------------------------------------|----------0----------3-------2---3--0--|


E|--------------------------0-----0----------|---------------------------------------|
B|-----------3-------------------------------|----------------0----------3-----------|
G|-------------------------------------------|-0-------------------------------------|
D|--------------------2----------------------|---------2--------------------------2--|
A|----2--0------0--2------------------2--0---|-----0--------------2--0------0--2-----|
E|-----------3--------2--3--0--3--0----------|-3-------2---3--0----------3--------2--|


E|----0-----0-------------------------0--|--------------------------------0----------|
B|---------------------------------------|-----------1-------------------------------|
G|---------------------0-----------------|-------------------------------------------|
D|-----------------------------0---2-----|--------------0--2-------------------------|
A|--------------3--2-------0---3---------|----3--2------------2--3------------3--2---|
E|-3--0--3--0----------3--------------0--|-----------0--------------0--3--0----------|


E|----------------0----------------------|----------0----------------------------|
B|---------------------------1-----------|------------------------------------0--|
G|-0-------------------------------------|---------------------0-----------------|
D|---------0---2----------------0--2-----|-----------------------------2---------|
A|-----0---3----------3--2------------2--|-3------------2--0-------0-------------|
E|-3--------------0----------0-----------|----0--3--0----------3-------2---3--0--|


E|--------------------------0-----0-----|----------0------|------2-----------------3-----------------2--|
B|-----------3--------------------0-----|----------0------|---------0-----------0-----0-----------0-----|
G|--------------------------------0-----|----------0------|------------0-----0-----------0-----0--------|
D|--------------------2-----------2-----|----------2------|---------------2-----------------2-----------|
A|----2--0------0--2--------------2-----|----------2------|---------------------------------------------|
E|-----------3--------2--3--0--3--0-----|----------0------|------0-----------------0-----------------2--|


E|-------3--------0-----------------0--------------|----2--------3--------5-----------------0--------|
B|-0--------0--------0-----0-----0-----0-----0-----|-0-----0--------0--------5-----------0-----0-----|
G|----0--------0--------0-----0-----------0-----0--|----------0--------0--------5-----5-----------5--|
D|-------------------------------------------------|-------------------------------7-----------------|
A|----------------2--------------------------------|----------------------0--------------------------|
E|-------3-----------------------------------------|----2--------3-----------------------------------|


E|----------2-----------------3-----------------2--|-------3--------0-----------------0--------------|
B|-------0-----0-----------0-----0-----------0-----|-0--------0--------0-----0-----0-----0-----0-----|
G|----5-----------0-----0-----------0-----0--------|----0--------0--------0-----0-----------0-----0--|
D|-7-----------------2-----------------2-----------|-------------------------------------------------|
A|-------------------------------------------------|----------------2--------------------------------|
E|----------0-----------------0-----------------2--|-------3-----------------------------------------|


E|----2--------3--------5-----------------0--------|-------------------0-----------------0-----------|
B|-0-----0--------0--------5-----------0-----0-----|-------0--------0-----0-----------0-----0-----0--|
G|----------0--------0--------5-----5-----------5--|----5--------5-----------5-----5-----------5-----|
D|-------------------------------7-----------------|-7--------7-----------------7--------------------|
A|----------------------0--------------------------|-------------------------------------------------|
E|----2--------3-----------------------------------|-------------------------------------------------|


E|----------------------0--------------------------|-0------------0-----0--3----2--|
B|----------0--------------0-----------0-----------|----0---------1-----1----------|
G|-12----12----12----12-------12----12----12----12-|-------12-----2-----2----------|
D|----10----------10-------------10----------10----|----------10--2-----2----------|
A|-------------------------------------------------|-------------------------------|
E|-------------------------------------------------|-------------------------------|


E|-----0--------------|
B|---------0----0-----|
G|---------0----0-----|
D|---------2----2-----|
A|--------------------|
E|--------------------|





Track 2: Untitled

G|--------|--------|--------|--------|--------|--------|--------|--------|-----------------------------|
D|--------|--------|--------|--------|--------|--------|--------|--------|-----------------------------|
A|--------|--------|--------|--------|--------|--------|--------|--------|--------------2--0-----------|
E|--------|--------|--------|--------|--------|--------|--------|--------|----------0----------3---5---|


G|-------------------------------------------|-------------------------------------|
D|-------------------------------------------|-------------------------------------|
A|------------2--0------0--2-----------------|----2--0----------------------2--0---|
E|-2---3--0----------3--------2--3--0--3--0--|-----------3---5---2---3--0----------|


G|-------------------------------|-------------------------------|----------------------------------------|
D|-------------------------------|----------------0--2--0-----0--|-------------0--2--0-----0--------------|
A|----0--2-----------------------|-------------2-----------2-----|-2--3-----2-----------2-----2--3--------|
E|-3--------2--3--0--3-----------|----------0--------------------|-------0--------------------------------|


G|-------------------------------------------|---------------------------------------|
D|---------------0--2--0-----0---------------|------------------------0--2--0-----0--|
A|------------2-----------2-----2--3--0---2--|-7----0---2--7-------2-----------2-----|
E|---------0---------------------------------|------------------0--------------------|


G|----------------------------------------|-------------------------------------------|
D|-------------0--2--0-----0--------------|---------------0--2--0-----0---------------|
A|-2--3-----2-----------2-----2--3--------|------------2-----------2-----2--3--0---2--|
E|-------0--------------------------------|---------0---------------------------------|


G|----------------------------|-----------------|-------------------------|-------------------|
D|----------------------------|-----------------|-------------------------|----------4-----5--|
A|-7----0---2--7--------------|-----------------|-------------------------|-------------------|
E|------------------0----0----|-----3----0------|----0----0-----3----7----|-------------------|


G|-------------------4-----|--------------------2--2--2--|-2--2--2--2--2--2--2--2--2-----------|
D|---------4----5----------|----2-----4----5-------------|----------------------------4-----5--|
A|-------------------------|-----------------------------|-------------------------------------|
E|-------------------------|-----------------------------|-------------------------------------|


G|-------------------4-----|--------------------2--2--2--|-2--2--2--2--2--2--2--2--2--2--2--2--2--2--2--2--|
D|---------4----5----------|----2-----4----5-------------|-------------------------------------------------|
A|-------------------------|-----------------------------|-------------------------------------------------|
E|-------------------------|-----------------------------|-------------------------------------------------|


G|-2--2--2--2--2-------------------------|-------------------------------------------|
D|---------------------------------------|-------------------------------------------|
A|--------------------2--0---------------|--------2--0------0--2------------------2--|
E|----------------0----------3---5---2---|-3--0----------3--------2--3--0--3--0------|


G|-------------------------------------|-------------------------|-------------------------------------|
D|-------------------------------------|-------------------------|----------------0--2--0-----0--------|
A|-0----------------------2--0------0--|-2-----------------------|-------------2-----------2-----2--3--|
E|-----3---5---2---3--0----------3-----|----2--3--0--3-----------|----------0--------------------------|


G|----------------------------------|-------------------------------------------|-------------------------------------------|
D|-------0--2--0-----0--------------|-----------0--2--0-----0-------------------|----------------------0--2--0-----0--------|
A|----2-----------2-----2--3--------|--------2-----------2-----2--3--0---2--7---|----0---2--7-------2-----------2-----2--3--|
E|-0--------------------------------|-----0-------------------------------------|----------------0--------------------------|


G|----------------------------------|-------------------------------------------|---------------------------|
D|-------0--2--0-----0--------------|-----------0--2--0-----0-------------------|---------------------------|
A|----2-----------2-----2--3--------|--------2-----------2-----2--3--0---2--7---|----0---2--7---------------|
E|-0--------------------------------|-----0-------------------------------------|----------------0----0-----|


G|----------------|----------------------|---------------------|----------------4--------|
D|----------------|----------------------|----------4-----5----|------4----5----------2--|
A|----------------|----------------------|---------------------|-------------------------|
E|-3----0------0--|-----0-----3----7-----|---------------------|-------------------------|


G|-------------------2--2--2--2--2--|-2--2--2--2--2--2--2-------------|----------------4--------|
D|---------4----5-------------------|----------------------4-----5----|------4----5----------2--|
A|----------------------------------|---------------------------------|-------------------------|
E|----------------------------------|---------------------------------|-------------------------|


G|-------------------2--2--2--2--2--|-2--2--2--2--2--2--2--2--2--2--2--2--2--2--2--2--|
D|---------4----5-------------------|-------------------------------------------------|
A|----------------------------------|-------------------------------------------------|
E|----------------------------------|-------------------------------------------------|


G|-2--2--2-------------------------------|-------------------------------------------|
D|---------------------------------------|-------------------------------------------|
A|--------------2--0---------------------|----2--0------0--2------------------2--0---|
E|----------0----------3---5---2---3--0--|-----------3--------2--3--0--3--0----------|


G|---------------------------------------|---------------------------------------|
D|---------------------------------------|-----------------------------0---2-----|
A|--------------------2--0------0--2-----|--------------3--2-------0-------------|
E|-3---5---2---3--0----------3--------2--|-3--0--3--0----------3--------------0--|


G|-------------------------------------------|---------------------------------------|
D|--------------0--2-------------------------|---------0---2----------------0--2-----|
A|----3--2------------2--3------------3--2---|-----0--------------3--2------------2--|
E|-----------0--------------0--3--0----------|-3--------------0----------0-----------|


G|---------------------------------------|--------------------------------------|--------------------|
D|---------------------------------------|--------------------------------2-----|----------2-----2---|
A|-3------------2--0---------------------|----2--0------0--2--------------------|--------------------|
E|----0--3--0----------3---5---2---3--0--|-----------3--------2--3--0--3--------|--------------------|


G|---------------------|----------4-----------|--------------2--2--2--2--2--2--2--2--2--|
D|-5----4-----5-----4--|-----5----------2-----|----4----5-------------------------------|
A|---------------------|----------------------|-----------------------------------------|
E|---------------------|----------------------|-----------------------------------------|


G|-2--2--2-----------------|----------4-----------|--------------2--2--2--2--2--2--2--2--2--|
D|----------4-----5-----4--|-----5----------2-----|----4----5-------------------------------|
A|-------------------------|----------------------|-----------------------------------------|
E|-------------------------|----------------------|-----------------------------------------|


G|-2--2--2--2--2--2--2--2--2--2--2--2--2--2--2-----|--------------------------|------------------------------|
D|-------------------------------------------------|--------------------------|------------------------------|
A|-------------------------------------------------|-----------------------0--|---------0--------------------|
E|----------------------------------------------0--|----0-----0---0----0------|------------3----2----0---0---|


G|----------------|
D|----------------|
A|----------------|
E|-----0----------|