Menu:

 

Search:

 

system of a down - peephole:

 



Title: Peephole
Artist: 
Album: System of a Down
Author: Daron Malakian, Serj Tankian, Shavo Odadjian, and John Dolmayan


Track 1: Slight dist.

D|---------------------------------|---------------------------------|---------------------------------|
A|---------3-----------3-----------|-3-----------3-----------3-------|-----3-----------3-----------3---|
F|-----3-----------3-----------3---|---------3-----------3-----------|-3-----------3-----------3-------|
C|-5-----------5-------------------|---------------------------------|---------------------------------|
G|-------------------------4-------|-----5-----------0-----------0---|---------4-----------5-----------|
C|---------------------------------|---------------------------------|---------------------------------|


D|---------------------------------|---------------------------------|---------------------------------|
A|---------3-----------3-----------|-3-----------3-----------3-------|-----3-----------3-----------3---|
F|-----3-----------3-----------3---|---------3-----------3-----------|-3-----------3-----------3-------|
C|-5-----------5-------------------|---------------------------------|---------------------------------|
G|-------------------------4-------|-----5-----------0-----------0---|---------4-----------5-----------|
C|---------------------------------|---------------------------------|---------------------------------|


D|--------|--------|--------|--------|--------|--------|--------|--------|--------|
A|--------|--------|--------|--------|--------|--------|--------|--------|--------|
F|--------|--------|--------|--------|--------|--------|--------|--------|--------|
C|--------|--------|--------|--------|--------|--------|--------|--------|--------|
G|--------|--------|--------|--------|--------|--------|--------|--------|--------|
C|--------|--------|--------|--------|--------|--------|--------|--------|--------|


D|-----------------------------------|---------------------------------|---------------------------------|
A|---------------------------14--14--|-14--15--15--15------------------|---------14--14--14--15--15--15--|
F|-12--12-12-12--12--12--12----------|-----------------14--14--14--14--|-14--14--------------------------|
C|-----------------------------------|---------------------------------|---------------------------------|
G|-----------------------------------|---------------------------------|---------------------------------|
C|-----------------------------------|---------------------------------|---------------------------------|


D|-----------------------------------|-----------------13-----------|-13--13--13--13--13--13--13--13--|
A|---------------------------14--14--|-14--15--15--15------15---15--|---------16--16--16--16--16--16--|
F|-12--12-12-12--12--12--12----------|------------------------------|---------------------------------|
C|-----------------------------------|------------------------------|---------------------------------|
G|-----------------------------------|------------------------------|---------------------------------|
C|-----------------------------------|------------------------------|---------------------------------|


D|--------|--------|--------|--------|--------|--------|---------------------------------|
A|--------|--------|--------|--------|--------|--------|---------3-----------3-----------|
F|--------|--------|--------|--------|--------|--------|-----3-----------3-----------3---|
C|--------|--------|--------|--------|--------|--------|-5-----------5-------------------|
G|--------|--------|--------|--------|--------|--------|-------------------------4-------|
C|--------|--------|--------|--------|--------|--------|---------------------------------|


D|---------------------------------|---------------------------------|---------------------------------|
A|-3-----------3-----------3-------|-----3-----------3-----------3---|---------3-----------3-----------|
F|---------3-----------3-----------|-3-----------3-----------3-------|-----3-----------3-----------3---|
C|---------------------------------|---------------------------------|-5-----------5-------------------|
G|-----5-----------0-----------0---|---------4-----------5-----------|-------------------------4-------|
C|---------------------------------|---------------------------------|---------------------------------|


D|---------------------------------|---------------------------------|--------|--------|
A|-3-----------3-----------3-------|-----3-----------3-----------3---|--------|--------|
F|---------3-----------3-----------|-3-----------3-----------3-------|--------|--------|
C|---------------------------------|---------------------------------|--------|--------|
G|-----5-----------0-----------0---|---------4-----------5-----------|--------|--------|
C|---------------------------------|---------------------------------|--------|--------|


D|--------|--------|--------|--------|--------|--------|--------|-----------------------------------|
A|--------|--------|--------|--------|--------|--------|--------|---------------------------14--14--|
F|--------|--------|--------|--------|--------|--------|--------|-12--12-12-12--12--12--12----------|
C|--------|--------|--------|--------|--------|--------|--------|-----------------------------------|
G|--------|--------|--------|--------|--------|--------|--------|-----------------------------------|
C|--------|--------|--------|--------|--------|--------|--------|-----------------------------------|


D|---------------------------------|---------------------------------|-----------------------------------|
A|-14--15--15--15------------------|---------14--14--14--15--15--15--|---------------------------14--14--|
F|-----------------14--14--14--14--|-14--14--------------------------|-12--12-12-12--12--12--12----------|
C|---------------------------------|---------------------------------|-----------------------------------|
G|---------------------------------|---------------------------------|-----------------------------------|
C|---------------------------------|---------------------------------|-----------------------------------|


D|-----------------13-----------|-13--13--13--13--13--13--13--13--|--------|--------|
A|-14--15--15--15------15---15--|---------16--16--16--16--16--16--|--------|--------|
F|------------------------------|---------------------------------|--------|--------|
C|------------------------------|---------------------------------|--------|--------|
G|------------------------------|---------------------------------|--------|--------|
C|------------------------------|---------------------------------|--------|--------|


D|--------|--------|--------|--------|--------|--------|--------|--------|--------|
A|--------|--------|--------|--------|--------|--------|--------|--------|--------|
F|--------|--------|--------|--------|--------|--------|--------|--------|--------|
C|--------|--------|--------|--------|--------|--------|--------|--------|--------|
G|--------|--------|--------|--------|--------|--------|--------|--------|--------|
C|--------|--------|--------|--------|--------|--------|--------|--------|--------|


D|--------|--------|----------------------------|--------------------------------------|
A|--------|--------|-----------3---4---3--4--3--|-----3-------3---4---3--4--3------3---|
F|--------|--------|----------------------------|-5----------------------------5-------|
C|--------|--------|----------------------------|--------------------------------------|
G|--------|--------|----------------------------|--------------------------------------|
C|--------|--------|----------------------------|--------------------------------------|


D|--------------------------------------|--------------------------------------|---------------------------------|
A|-----3---4---3--4--3------3-----------|--------------------------------------|---------------------------------|
F|----------------------5-------5---3---|-2---3---2--3--2----------0-------0---|-----0-------0-------0-------0---|
C|--------------------------------------|------------------5---4-------4-------|-4-------4-------4-------4-------|
G|--------------------------------------|--------------------------------------|---------------------------------|
C|--------------------------------------|--------------------------------------|---------------------------------|


D|--------------------------------------|-------------------------------------------|
A|-----15--16--15-16-15-----15------15--|-16--15-16-15-----15------15--16--15-16-15-|
F|----------------------17--------------|--------------17---------------------------|
C|--------------------------------------|-------------------------------------------|
G|--------------------------------------|-------------------------------------------|
C|--------------------------------------|-------------------------------------------|


D|--------------------------------------|---------------------------------|-----------------------|
A|-----15-------------------------------|---------------------------------|-----------------------|
F|-17------17--15--14--15--14-15-14-----|-----0-------0-------0-------0---|-----0-------0---------|
C|----------------------------------17--|-16------16------16------16------|-16------16------------|
G|--------------------------------------|---------------------------------|-----------------------|
C|--------------------------------------|---------------------------------|-----------------------|


D|--------|--------|--------|--------|--------|--------|--------|--------|--------|
A|--------|--------|--------|--------|--------|--------|--------|--------|--------|
F|--------|--------|--------|--------|--------|--------|--------|--------|--------|
C|--------|--------|--------|--------|--------|--------|--------|--------|--------|
G|--------|--------|--------|--------|--------|--------|--------|--------|--------|
C|--------|--------|--------|--------|--------|--------|--------|--------|--------|


D|--------|--------|--------|--------|--------|--------|--------|--------|--------|
A|--------|--------|--------|--------|--------|--------|--------|--------|--------|
F|--------|--------|--------|--------|--------|--------|--------|--------|--------|
C|--------|--------|--------|--------|--------|--------|--------|--------|--------|
G|--------|--------|--------|--------|--------|--------|--------|--------|--------|
C|--------|--------|--------|--------|--------|--------|--------|--------|--------|


D|--------|--------|--------|--------|--------|--------|--------|--------|--------|
A|--------|--------|--------|--------|--------|--------|--------|--------|--------|
F|--------|--------|--------|--------|--------|--------|--------|--------|--------|
C|--------|--------|--------|--------|--------|--------|--------|--------|--------|
G|--------|--------|--------|--------|--------|--------|--------|--------|--------|
C|--------|--------|--------|--------|--------|--------|--------|--------|--------|





Track 2: Dist. Left

D|--------|--------|--------|--------|--------|--------|---------------------------------|
A|--------|--------|--------|--------|--------|--------|-----3---3-------3---3-------3---|
F|--------|--------|--------|--------|--------|--------|-----3---3-------3---3-------3---|
C|--------|--------|--------|--------|--------|--------|-5-----------------------5-------|
G|--------|--------|--------|--------|--------|--------|-------------5-------------------|
C|--------|--------|--------|--------|--------|--------|---------------------------------|


D|---------------------------------|---------------------------------|---------------------------------|
A|-3-------3---3-------3---3-------|-3---3-------3---3-------3---3---|---------------------------------|
F|-3-------3---3-------3---3-------|-3---3-------3---3-------3---3---|---------------------------------|
C|-----------------5---------------|---------5-----------------------|-4---4---4---4---4---4---7---7---|
G|-----5-----------------------5---|---------------------5-----------|-4---4---4---4---4---4---7---7---|
C|---------------------------------|---------------------------------|-4---4---4---4---4---4---7---7---|


D|---------------------------------|---------------------------------|---------------------------------|
A|---------------------3---3-------|-3---3-------3---3-------3---3---|-----3---3-------3---3-------3---|
F|---------------------3---3-------|-3---3-------3---3-------3---3---|-----3---3-------3---3-------3---|
C|-7---7---7---0---5---------------|---------5-----------------------|-5-----------------------5-------|
G|-7---7---7---0---------------5---|---------------------5-----------|-------------5-------------------|
C|-7---7---7---0-------------------|---------------------------------|---------------------------------|


D|---------------------------------|---------------------------------|--------|--------|
A|-3-------3---3-------------------|---------------------------------|--------|--------|
F|-3-------3---3-------------------|---------------------------------|--------|--------|
C|-----------------4---4---4---4---|-4---4---7---7---7---7---7---0---|--------|--------|
G|-----5-----------4---4---4---4---|-4---4---7---7---7---7---7---0---|--------|--------|
C|-----------------4---4---4---4---|-4---4---7---7---7---7---7---0---|--------|--------|


D|--------|--------|--------|--------|--------------------------------------|-------------------------------|
A|--------|--------|--------|--------|--------------------------------------|-------------------------------|
F|--------|--------|--------|--------|---------------------------------6----|-----7-------------------------|
C|--------|--------|--------|--------|-5---5--5--5--5--5---5--5--5--5--6----|-----7-----7---7--7--7--7--7---|
G|--------|--------|--------|--------|-5---5--5--5--5--5---5--5--5--5--4----|-----5-----7---7--7--7--7--7---|
C|--------|--------|--------|--------|-5---5--5--5--5--5---5--5--5--5-------|-----------7---7--7--7--7--7---|


D|-------------------------|--------------------------------------|----------------------------------|
A|-------------------------|--------------------------------------|----------------------------------|
F|-------------6-----7-----|---------------------------------6----|-----7----------------------------|
C|-7--7--7--7--6-----7-----|-5---5--5--5--5--5---5--5--5--5--6----|-----7----0---3---3--3--3--3--3---|
G|-7--7--7--7--4-----5-----|-5---5--5--5--5--5---5--5--5--5--4----|-----5----0---3---3--3--3--3--3---|
C|-7--7--7--7--------------|-5---5--5--5--5--5---5--5--5--5-------|----------0---3---3--3--3--3--3---|


D|---------------------------------------|-------------|-------------|-------------|
A|---------------------------------------|-------------|-------------|-------------|
F|---------------------------------------|-------------|-------------|-------------|
C|-3---3--3--1---1---1--1--1---1---0--0--|-5------5----|-------5-----|-------------|
G|-3---3--3--1---1---1--1--1---1---0--0--|-------------|-------------|-------------|
C|-3---3--3--1---1---1--1--1---1---0--0--|-5------5----|-------5-----|-------------|


D|--------|--------|--------|---------------------------------|---------------------------------|
A|--------|--------|--------|-----3---3-------3---3-------3---|-3-------3---3-------3---3-------|
F|--------|--------|--------|-----3---3-------3---3-------3---|-3-------3---3-------3---3-------|
C|--------|--------|--------|-5-----------------------5-------|-----------------5---------------|
G|--------|--------|--------|-------------5-------------------|-----5-----------------------5---|
C|--------|--------|--------|---------------------------------|---------------------------------|


D|---------------------------------|---------------------------------|---------------------------------|
A|-3---3-------3---3-------3---3---|---------------------------------|---------------------3---3-------|
F|-3---3-------3---3-------3---3---|---------------------------------|---------------------3---3-------|
C|---------5-----------------------|-4---4---4---4---4---4---7---7---|-7---7---7---0---5---------------|
G|---------------------5-----------|-4---4---4---4---4---4---7---7---|-7---7---7---0---------------5---|
C|---------------------------------|-4---4---4---4---4---4---7---7---|-7---7---7---0-------------------|


D|---------------------------------|---------------------------------|---------------------------------|
A|-3---3-------3---3-------3---3---|-----3---3-------3---3-------3---|-3-------3---3-------------------|
F|-3---3-------3---3-------3---3---|-----3---3-------3---3-------3---|-3-------3---3-------------------|
C|---------5-----------------------|-5-----------------------5-------|-----------------4---4---4---4---|
G|---------------------5-----------|-------------5-------------------|-----5-----------4---4---4---4---|
C|---------------------------------|---------------------------------|-----------------4---4---4---4---|


D|---------------------------------|--------|--------|--------|--------|--------|--------|
A|---------------------------------|--------|--------|--------|--------|--------|--------|
F|---------------------------------|--------|--------|--------|--------|--------|--------|
C|-4---4---7---7---7---7---7---0---|--------|--------|--------|--------|--------|--------|
G|-4---4---7---7---7---7---7---0---|--------|--------|--------|--------|--------|--------|
C|-4---4---7---7---7---7---7---0---|--------|--------|--------|--------|--------|--------|


D|--------------------------------------|-------------------------------|-------------------------|
A|--------------------------------------|-------------------------------|-------------------------|
F|---------------------------------6----|-----7-------------------------|-------------6-----7-----|
C|-5---5--5--5--5--5---5--5--5--5--6----|-----7-----7---7--7--7--7--7---|-7--7--7--7--6-----7-----|
G|-5---5--5--5--5--5---5--5--5--5--4----|-----5-----7---7--7--7--7--7---|-7--7--7--7--4-----5-----|
C|-5---5--5--5--5--5---5--5--5--5-------|-----------7---7--7--7--7--7---|-7--7--7--7--------------|


D|--------------------------------------|----------------------------------|---------------------------------------|
A|--------------------------------------|----------------------------------|---------------------------------------|
F|---------------------------------6----|-----7----------------------------|---------------------------------------|
C|-5---5--5--5--5--5---5--5--5--5--6----|-----7----0---3---3--3--3--3--3---|-3---3--3--1---1---1--1--1---1---0--0--|
G|-5---5--5--5--5--5---5--5--5--5--4----|-----5----0---3---3--3--3--3--3---|-3---3--3--1---1---1--1--1---1---0--0--|
C|-5---5--5--5--5--5---5--5--5--5-------|----------0---3---3--3--3--3--3---|-3---3--3--1---1---1--1--1---1---0--0--|


D|--------------------------------------|-------------------------------|-------------------------|
A|--------------------------------------|-------------------------------|-------------------------|
F|---------------------------------6----|-----7-------------------------|-------------6-----7-----|
C|-5---5--5--5--5--5---5--5--5--5--6----|-----7-----7---7--7--7--7--7---|-7--7--7--7--6-----7-----|
G|-5---5--5--5--5--5---5--5--5--5--4----|-----5-----7---7--7--7--7--7---|-7--7--7--7--4-----5-----|
C|-5---5--5--5--5--5---5--5--5--5-------|-----------7---7--7--7--7--7---|-7--7--7--7--------------|


D|--------------------------------------|----------------------------------|---------------------------------------|
A|--------------------------------------|----------------------------------|---------------------------------------|
F|---------------------------------6----|-----7----------------------------|---------------------------------------|
C|-5---5--5--5--5--5---5--5--5--5--6----|-----7----0---3---3--3--3--3--3---|-3---3--3--1---1---1--1--1---1---0--0--|
G|-5---5--5--5--5--5---5--5--5--5--4----|-----5----0---3---3--3--3--3--3---|-3---3--3--1---1---1--1--1---1---0--0--|
C|-5---5--5--5--5--5---5--5--5--5-------|----------0---3---3--3--3--3--3---|-3---3--3--1---1---1--1--1---1---0--0--|


D|---------------------------------|-----------------|--------|--------|-----------------------|
A|---------------------------------|-----------------|--------|--------|-----------------------|
F|---------------------------------|-----------------|--------|--------|-----------------------|
C|-3---3---3---3---3---3---1-------|-----------------|--------|--------|-------4---4---4---4---|
G|-3---3---3---3---3---3---1-------|-----------------|--------|--------|-------4---4---4---4---|
C|-3---3---3---3---3---3---1-------|-----------------|--------|--------|-------4---4---4---4---|


D|---------------------------------|--------|--------|-----------------|---------------------------------|
A|---------------------------------|--------|--------|-----------------|---------------------------------|
F|---------------------------------|--------|--------|-----------------|---------------------------------|
C|-4---4---7---7---7---7---7---0---|--------|--------|-----------------|-4---4---4---4---4---4---7---7---|
G|-4---4---7---7---7---7---7---0---|--------|--------|-----------------|-4---4---4---4---4---4---7---7---|
C|-4---4---7---7---7---7---7---0---|--------|--------|-----------------|-4---4---4---4---4---4---7---7---|


D|-----------------------|--------|--------|--------|--------|--------|--------|--------|
A|-----------------------|--------|--------|--------|--------|--------|--------|--------|
F|-----------------------|--------|--------|--------|--------|--------|--------|--------|
C|-7---7---7---0---------|--------|--------|--------|--------|--------|--------|--------|
G|-7---7---7---0---------|--------|--------|--------|--------|--------|--------|--------|
C|-7---7---7---0---------|--------|--------|--------|--------|--------|--------|--------|


D|--------|--------|--------|--------|---------------------------|-------------------------|
A|--------|--------|--------|--------|---------------------------|-------------------------|
F|--------|--------|--------|--------|---------------------------|-------------6-----7-----|
C|--------|--------|--------|--------|-------5---5--5--5--5--5---|-5--5--5--5--6-----7-----|
G|--------|--------|--------|--------|-------5---5--5--5--5--5---|-5--5--5--5--4-----5-----|
C|--------|--------|--------|--------|-------5---5--5--5--5--5---|-5--5--5--5--------------|


D|--------------------------------------|-------------------------------|----------------------------|
A|--------------------------------------|-------------------------------|----------------------------|
F|---------------------------------6----|-----7-------------------------|-------------6-----7--------|
C|-7---7--7--7--7--7---7--7--7--7--6----|-----7-----5---5--5--5--5--5---|-5--5--5--5--6-----7----0---|
G|-7---7--7--7--7--7---7--7--7--7--4----|-----5-----5---5--5--5--5--5---|-5--5--5--5--4-----5----0---|
C|-7---7--7--7--7--7---7--7--7--7-------|-----------5---5--5--5--5--5---|-5--5--5--5-------------0---|


D|---------------------------------|---------------------------------|---------------------|
A|---------------------------------|---------------------------------|---------------------|
F|---------------------------------|---------------------------------|---------6-----7-----|
C|-------------------------6---6---|-6---7---7---0---5---5---5---5---|-5---5---6-----7-----|
G|-7---7---7---7---7---7---4---4---|-4---5---5---0---5---5---5---5---|-5---5---4-----5-----|
C|-7---7---7---7---7---7-----------|-----------------5---5---5---5---|-5---5---------------|


D|------------------------------|---------------------------|---------------------|
A|------------------------------|---------------------------|---------------------|
F|-------------------------6----|-----7---------------------|---------6-----7-----|
C|-7---7---7---7---7---7---6----|-----7-----5---5---5---5---|-5---5---6-----7-----|
G|-7---7---7---7---7---7---4----|-----5-----5---5---5---5---|-5---5---4-----5-----|
C|-7---7---7---7---7---7--------|-----------5---5---5---5---|-5---5---------------|


D|------------------------------|-----------------|-------------|-------------|-----------------|
A|------------------------------|-----------------|-------------|-------------|-----------------|
F|-------------------------6----|-----7-----------|-------------|-------------|-----------------|
C|-7---7---7---7---7---7---6----|-----7-----5-----|------5------|-5-----------|-----------------|
G|-7---7---7---7---7---7---4----|-----5-----5-----|------5------|-5-----------|-----------------|
C|-7---7---7---7---7---7--------|-----------5-----|------5------|-5------12---|-----------------|





Track 3: Solo

D|--------|--------|--------|--------|--------|--------|--------|--------|--------|
A|--------|--------|--------|--------|--------|--------|--------|--------|--------|
F|--------|--------|--------|--------|--------|--------|--------|--------|--------|
C|--------|--------|--------|--------|--------|--------|--------|--------|--------|
G|--------|--------|--------|--------|--------|--------|--------|--------|--------|
C|--------|--------|--------|--------|--------|--------|--------|--------|--------|


D|--------|--------|--------|--------|--------|--------|--------|--------|--------|
A|--------|--------|--------|--------|--------|--------|--------|--------|--------|
F|--------|--------|--------|--------|--------|--------|--------|--------|--------|
C|--------|--------|--------|--------|--------|--------|--------|--------|--------|
G|--------|--------|--------|--------|--------|--------|--------|--------|--------|
C|--------|--------|--------|--------|--------|--------|--------|--------|--------|


D|--------|--------|--------|--------|--------|--------|--------|--------|--------|
A|--------|--------|--------|--------|--------|--------|--------|--------|--------|
F|--------|--------|--------|--------|--------|--------|--------|--------|--------|
C|--------|--------|--------|--------|--------|--------|--------|--------|--------|
G|--------|--------|--------|--------|--------|--------|--------|--------|--------|
C|--------|--------|--------|--------|--------|--------|--------|--------|--------|


D|--------|--------|--------|--------|--------|--------|--------|--------|--------|
A|--------|--------|--------|--------|--------|--------|--------|--------|--------|
F|--------|--------|--------|--------|--------|--------|--------|--------|--------|
C|--------|--------|--------|--------|--------|--------|--------|--------|--------|
G|--------|--------|--------|--------|--------|--------|--------|--------|--------|
C|--------|--------|--------|--------|--------|--------|--------|--------|--------|


D|--------|--------|--------|--------|--------|--------|--------|--------|--------|
A|--------|--------|--------|--------|--------|--------|--------|--------|--------|
F|--------|--------|--------|--------|--------|--------|--------|--------|--------|
C|--------|--------|--------|--------|--------|--------|--------|--------|--------|
G|--------|--------|--------|--------|--------|--------|--------|--------|--------|
C|--------|--------|--------|--------|--------|--------|--------|--------|--------|


D|--------|--------|--------|--------|--------|--------|--------|--------|--------|
A|--------|--------|--------|--------|--------|--------|--------|--------|--------|
F|--------|--------|--------|--------|--------|--------|--------|--------|--------|
C|--------|--------|--------|--------|--------|--------|--------|--------|--------|
G|--------|--------|--------|--------|--------|--------|--------|--------|--------|
C|--------|--------|--------|--------|--------|--------|--------|--------|--------|


D|--------|--------|--------|--------|--------|--------|--------|--------|--------|
A|--------|--------|--------|--------|--------|--------|--------|--------|--------|
F|--------|--------|--------|--------|--------|--------|--------|--------|--------|
C|--------|--------|--------|--------|--------|--------|--------|--------|--------|
G|--------|--------|--------|--------|--------|--------|--------|--------|--------|
C|--------|--------|--------|--------|--------|--------|--------|--------|--------|


D|--------|--------|--------|--------|--------|--------|--------|-----------10----10----10----|
A|--------|--------|--------|--------|--------|--------|--------|-------8------8-----8-----8--|
F|--------|--------|--------|--------|--------|--------|--------|-----------------------------|
C|--------|--------|--------|--------|--------|--------|--------|-----------------------------|
G|--------|--------|--------|--------|--------|--------|--------|-----------------------------|
C|--------|--------|--------|--------|--------|--------|--------|-----------------------------|


D|-10--------------9-----9-----9-----7-----------|------16-16--16--16---16--16--|-16--16--16----------10----10----10----|
A|----8--8--8--7------7-----7-----7-----7--14-14-|-14---14-14--14--14---14--14--|-14--14--14--14--8------8-----8-----8--|
F|-----------------------------------------------|------------------------------|---------------------------------------|
C|-----------------------------------------------|------------------------------|---------------------------------------|
G|-----------------------------------------------|------------------------------|---------------------------------------|
C|-----------------------------------------------|------------------------------|---------------------------------------|


D|-10--------------9-----9-----9-----------------|------8--8---8--10--8--8--------6--|
A|----8--8--8--7------7-----7-----7--7--7--7--6--|-6-------------------------4-------|
F|-----------------------------------------------|-----------------------------------|
C|-----------------------------------------------|-----------------------------------|
G|-----------------------------------------------|-----------------------------------|
C|-----------------------------------------------|-----------------------------------|


D|-6---8---6-----------10----10----10----|-10--------------9-----9-----9-----------------|
A|-------------6---8------8-----8-----8--|----8--8--8--7------7-----7-----7--7--7--7--14-|
F|---------------------------------------|-----------------------------------------------|
C|---------------------------------------|-----------------------------------------------|
G|---------------------------------------|-----------------------------------------------|
C|---------------------------------------|-----------------------------------------------|


D|------16-16--1616--16-16-16-16-----16-16-|-16-16-16-16-16-14-----15-------15--|------15-------15-------|
A|-14---14-14--1414--------------14--------|-------------------12--14-------14--|------14-------14-------|
F|-----------------------------------------|-----------------------12-------12--|------12-------12-------|
C|-----------------------------------------|------------------------------------|------------------------|
G|-----------------------------------------|------------------------------------|------------------------|
C|-----------------------------------------|------------------------------------|------------------------|


D|-15--15--15--15------15--15------|-15--15--15---------|--------|--------|--------|
A|-14--14--14--14------14--14------|-14--14--14---------|--------|--------|--------|
F|-12--12--12--12------12--12------|-12--12--12---------|--------|--------|--------|
C|---------------------------------|--------------------|--------|--------|--------|
G|---------------------------------|--------------------|--------|--------|--------|
C|---------------------------------|--------------------|--------|--------|--------|


D|--------|--------|--------|--------|--------|--------|--------|--------|--------|
A|--------|--------|--------|--------|--------|--------|--------|--------|--------|
F|--------|--------|--------|--------|--------|--------|--------|--------|--------|
C|--------|--------|--------|--------|--------|--------|--------|--------|--------|
G|--------|--------|--------|--------|--------|--------|--------|--------|--------|
C|--------|--------|--------|--------|--------|--------|--------|--------|--------|


D|--------|--------|--------|
A|--------|--------|--------|
F|--------|--------|--------|
C|--------|--------|--------|
G|--------|--------|--------|
C|--------|--------|--------|





Track 4: Untitled

G|--------|--------|--------|--------|--------|--------|--------|--------|--------|
D|--------|--------|--------|--------|--------|--------|--------|--------|--------|
A|--------|--------|--------|--------|--------|--------|--------|--------|--------|
E|--------|--------|--------|--------|--------|--------|--------|--------|--------|


G|--------|--------|--------|--------|--------|--------|--------|--------|--------|
D|--------|--------|--------|--------|--------|--------|--------|--------|--------|
A|--------|--------|--------|--------|--------|--------|--------|--------|--------|
E|--------|--------|--------|--------|--------|--------|--------|--------|--------|


G|--------|--------|--------|--------|--------|--------|--------|--------|--------|
D|--------|--------|--------|--------|--------|--------|--------|--------|--------|
A|--------|--------|--------|--------|--------|--------|--------|--------|--------|
E|--------|--------|--------|--------|--------|--------|--------|--------|--------|


G|--------|--------|--------|--------|--------|--------|--------|--------|--------|
D|--------|--------|--------|--------|--------|--------|--------|--------|--------|
A|--------|--------|--------|--------|--------|--------|--------|--------|--------|
E|--------|--------|--------|--------|--------|--------|--------|--------|--------|


G|--------|--------|--------|--------|--------|--------|--------|--------|--------|
D|--------|--------|--------|--------|--------|--------|--------|--------|--------|
A|--------|--------|--------|--------|--------|--------|--------|--------|--------|
E|--------|--------|--------|--------|--------|--------|--------|--------|--------|


G|--------|--------|--------|--------|--------|--------|--------|--------|--------|
D|--------|--------|--------|--------|--------|--------|--------|--------|--------|
A|--------|--------|--------|--------|--------|--------|--------|--------|--------|
E|--------|--------|--------|--------|--------|--------|--------|--------|--------|


G|--------|--------|--------|--------|--------|--------|--------|--------|--------|
D|--------|--------|--------|--------|--------|--------|--------|--------|--------|
A|--------|--------|--------|--------|--------|--------|--------|--------|--------|
E|--------|--------|--------|--------|--------|--------|--------|--------|--------|


G|--------|--------|--------|--------|--------|--------|--------|--------|--------|
D|--------|--------|--------|--------|--------|--------|--------|--------|--------|
A|--------|--------|--------|--------|--------|--------|--------|--------|--------|
E|--------|--------|--------|--------|--------|--------|--------|--------|--------|


G|--------|--------|--------|--------|--------|--------|--------|--------|--------|
D|--------|--------|--------|--------|--------|--------|--------|--------|--------|
A|--------|--------|--------|--------|--------|--------|--------|--------|--------|
E|--------|--------|--------|--------|--------|--------|--------|--------|--------|


G|--------|--------|--------|--------|--------|--------|--------|--------|--------|
D|--------|--------|--------|--------|--------|--------|--------|--------|--------|
A|--------|--------|--------|--------|--------|--------|--------|--------|--------|
E|--------|--------|--------|--------|--------|--------|--------|--------|--------|


G|--------|--------|--------|--------|--------|--------|--------|--------|
D|--------|--------|--------|--------|--------|--------|--------|--------|
A|--------|--------|--------|--------|--------|--------|--------|--------|
E|--------|--------|--------|--------|--------|--------|--------|--------|