Menu:

 

Search:

 

system of a down - metro:

 



Title: Metro
Artist: 
Album: Dracula 2000 (Soundtrack)
Author: Berlin


Track 1: Electric Guitar

D|-------------------------------|-------------------------------|----------------------------|
A|-------------------------------|-------------------------------|----------------------------|
F|-------------0-----0-----0-----|-------------0-----0-----0-----|--------------0-0---0---0---|
C|----------0--0--0--0--0--0--0--|----------0--0--0--0--0--0--0--|------------0---0---0---0---|
G|----------0--0--0--0--0--0--0--|----------0--0--0--0--0--0--0--|----------0-----0---0---0---|
C|----------0--0--0--0--0--0--0--|----------0--0--0--0--0--0--0--|-------0--------0---0---0---|


D|------------|-14----14----14----14-14----14----14-14----14----|-------------------------------------------------|
A|------------|-------------------------------------------------|-------------------------------------------------|
F|-3----------|-------------------------------------------------|-------0-----0-----0-----------0-----0-----0-----|
C|-3----------|-------------------------------------------------|----0--0--0--0--0--0--0-----0--0--0--0--0--0-----|
G|-3----------|-------------------------------------------------|----0--0--0--0--0--0--0-----0--0--0--0--0--0-----|
C|-0----------|-------------------------------------------------|----0--0--0--0--0--0--0-----0--0--0--0--0--0-----|


D|-14----14----14----14-14----14----14-14----14----|-----------------------------------------------|
A|-------------------------------------------------|-----------------------------------------------|
F|-------------------------------------------------|-------0-----0-----0-----0--0--0--4--4--4--4---|
C|-------------------------------------------------|----0--0--0--0--0--0--0--0--0--0--4--4--4--4---|
G|-------------------------------------------------|----0--0--0--0--0--0--0--0--0--0--4--4--4--4---|
C|-------------------------------------------------|----0--0--0--0--0--0--0--0--0--0--0--0--0--0---|


D|-14----14----14----14-14----14----14-14----14----|--------|-14----14----14----14-14----14----14-14----14----|
A|-------------------------------------------------|--------|-------------------------------------------------|
F|-------------------------------------------------|--------|-------------------------------------------------|
C|-------------------------------------------------|--------|-------------------------------------------------|
G|-------------------------------------------------|--------|-------------------------------------------------|
C|-------------------------------------------------|--------|-------------------------------------------------|


D|--------|-10------------------------------------------|-------------|-10--------------------------------------------|
A|--------|-------10----11------10----------------------|-------------|-------10----11-11-----10----------------------|
F|--------|-----------------12--------10----12----9-----|-------------|-------------------12--------10----12----9-----|
C|--------|---------------------------------------------|-12----------|-----------------------------------------------|
G|--------|---------------------------------------------|-------------|-----------------------------------------------|
C|--------|---------------------------------------------|-------------|-----------------------------------------------|


D|-------------------------------------------------|--------|--------|--------|--------|
A|-------------------------------------------------|--------|--------|--------|--------|
F|-------------------------------------------------|--------|--------|--------|--------|
C|-12-12-12-12-12-12-12-12-12-12-12-12-12-12-12-12-|--------|--------|--------|--------|
G|-------------------------------------------------|--------|--------|--------|--------|
C|-------------------------------------------------|--------|--------|--------|--------|


D|--------|--------|--------|--------|------------------------------|------------------------|
A|--------|--------|--------|--------|------------------------------|------------------------|
F|--------|--------|--------|-3------|------------------------------|------------------------|
C|--------|--------|--------|-3------|-10--10--10--10---10--10--10--|-12--12--12---12---12---|
G|--------|--------|--------|--------|-10--10--10--10---10--10--10--|-12--12--12---12---12---|
C|--------|--------|--------|--------|-10--10--10--10---10--10--10--|-12--12--12---12---12---|


D|------------------------------|------------------------|------------------------------|
A|------------------------------|------------------------|------------------------------|
F|------------------------------|-10--10--10---10---10---|------------------------------|
C|-8---8---8---8----8---8---8---|-10--10--10---10---10---|-10--10--10--10---10--10--10--|
G|-8---8---8---8----8---8---8---|-8---8---8----8----8----|-10--10--10--10---10--10--10--|
C|-8---8---8---8----8---8---8---|------------------------|-10--10--10--10---10--10--10--|


D|------------------------|------------------------|------------------------|------------------------------|
A|------------------------|------------------------|------------------------|------------------------------|
F|------------------------|------------------------|------------------------|------------------------------|
C|-12--12--12---12---12---|-8----8---8----8---8----|-8---8----8---8----8----|-10--10--10--10---10--10--10--|
G|-12--12--12---12---12---|-8----8---8----8---8----|-8---8----8---8----8----|-10--10--10--10---10--10--10--|
C|-12--12--12---12---12---|-8----8---8----8---8----|-8---8----8---8----8----|-10--10--10--10---10--10--10--|


D|------------------------|------------------------------|------------------------|
A|------------------------|------------------------------|------------------------|
F|------------------------|------------------------------|-10--10--10---10---10---|
C|-12--12--12---12---12---|-8---8---8---8----8---8---8---|-10--10--10---10---10---|
G|-12--12--12---12---12---|-8---8---8---8----8---8---8---|-8---8---8----8----8----|
C|-12--12--12---12---12---|-8---8---8---8----8---8---8---|------------------------|


D|------------------------------|------------------------|------------------------|
A|------------------------------|------------------------|------------------------|
F|------------------------------|------------------------|------------------------|
C|-10--10--10--10---10--10--10--|-12--12--12---12---12---|-8----8---8----8---8----|
G|-10--10--10--10---10--10--10--|-12--12--12---12---12---|-8----8---8----8---8----|
C|-10--10--10--10---10--10--10--|-12--12--12---12---12---|-8----8---8----8---8----|


D|---------------------------|-------------------------------------|-------------------------------------|
A|---------------------------|-------------------------------------|-------------------------------------|
F|---------------------------|-------------------------------------|-------------------------------------|
C|-8---8----8---8---8---8----|-------------------------------------|-------------------------------------|
G|-8---8----8---8---8---8----|-----0----------3-----3------1---0---|-----0----------3-----3------1---0---|
C|-8---8----8---8---8---8----|-0-------3---3-----------5-----------|-0-------3---3-----------5-----------|


D|-------------------------------------|-------------------------------------|-----10------10------10------10----|
A|-------------------------------------|-------------------------------------|-----10------10------10------10----|
F|-------------------------------------|-------------------------------------|-----10------10------10------10----|
C|-------------------------------------|-------------------------------------|-----------------------------------|
G|-----0----------3-----3------1---0---|-----0----------3-----3------1---0---|-----------------------------------|
C|-0-------3---3-----------5-----------|-0-------3---3-----------5-----------|-----------------------------------|


D|-----10------10------10------10----|-----10------10------10------10----|-----10------10------10------10----|
A|-----10------10------10------10----|-----10------10------10------10----|-----10------10------10------10----|
F|-----10------10------10------10----|-----10------10------10------10----|-----10------10------10------10----|
C|-----------------------------------|-----------------------------------|-----------------------------------|
G|-----------------------------------|-----------------------------------|-----------------------------------|
C|-----------------------------------|-----------------------------------|-----------------------------------|


D|-----10------10------10------10----|-----10------10------10------10----|-----10------10------10------10----|
A|-----10------10------10------10----|-----10------10------10------10----|-----10------10------10------10----|
F|-----10------10------10------10----|-----10------10------10------10----|-----10------10------10------10----|
C|-----------------------------------|-----------------------------------|-----------------------------------|
G|-----------------------------------|-----------------------------------|-----------------------------------|
C|-----------------------------------|-----------------------------------|-----------------------------------|


D|-----10------10----------|------------------------------|------------------------|
A|-----10------10----------|------------------------------|------------------------|
F|-----10------10----3-----|------------------------------|------------------------|
C|-------------------3-----|-10--10--10--10---10--10--10--|-12--12--12---12---12---|
G|-------------------------|-10--10--10--10---10--10--10--|-12--12--12---12---12---|
C|-------------------------|-10--10--10--10---10--10--10--|-12--12--12---12---12---|


D|------------------------------|------------------------|------------------------------|
A|------------------------------|------------------------|------------------------------|
F|------------------------------|-10--10--10---10---10---|------------------------------|
C|-8---8---8---8----8---8---8---|-10--10--10---10---10---|-10--10--10--10---10--10--10--|
G|-8---8---8---8----8---8---8---|-8---8---8----8----8----|-10--10--10--10---10--10--10--|
C|-8---8---8---8----8---8---8---|------------------------|-10--10--10--10---10--10--10--|


D|------------------------|------------------------|------------------------|------------------------------|
A|------------------------|------------------------|------------------------|------------------------------|
F|------------------------|------------------------|------------------------|------------------------------|
C|-12--12--12---12---12---|-8----8---8----8---8----|-8---8----8---8----8----|-10--10--10--10---10--10--10--|
G|-12--12--12---12---12---|-8----8---8----8---8----|-8---8----8---8----8----|-10--10--10--10---10--10--10--|
C|-12--12--12---12---12---|-8----8---8----8---8----|-8---8----8---8----8----|-10--10--10--10---10--10--10--|


D|------------------------|------------------------------|------------------------|
A|------------------------|------------------------------|------------------------|
F|------------------------|------------------------------|-10--10--10---10---10---|
C|-12--12--12---12---12---|-8---8---8---8----8---8---8---|-10--10--10---10---10---|
G|-12--12--12---12---12---|-8---8---8---8----8---8---8---|-8---8---8----8----8----|
C|-12--12--12---12---12---|-8---8---8---8----8---8---8---|------------------------|


D|------------------------------|------------------------|------------------------|
A|------------------------------|------------------------|------------------------|
F|------------------------------|------------------------|------------------------|
C|-10--10--10--10---10--10--10--|-12--12--12---12---12---|-8----8---8----8---8----|
G|-10--10--10--10---10--10--10--|-12--12--12---12---12---|-8----8---8----8---8----|
C|-10--10--10--10---10--10--10--|-12--12--12---12---12---|-8----8---8----8---8----|


D|---------------------------|------------------------|------------------------|------------------------|
A|---------------------------|------------------------|------------------------|------------------------|
F|---------------------------|------------------------|------------------------|------------------------|
C|-8---8----8---8---8---8----|-8----8---8----8---8----|-8---8----8---8----8----|-8----8---8----8---8----|
G|-8---8----8---8---8---8----|-8----8---8----8---8----|-8---8----8---8----8----|-8----8---8----8---8----|
C|-8---8----8---8---8---8----|-8----8---8----8---8----|-8---8----8---8----8----|-8----8---8----8---8----|


D|------------------------|------------------------|------------------------|------------------------|
A|------------------------|------------------------|------------------------|------------------------|
F|------------------------|------------------------|------------------------|------------------------|
C|-8---8----8---8----8----|-8----8---8----8---8----|-8---8----8---8----8----|-8----8---8----8---8----|
G|-8---8----8---8----8----|-8----8---8----8---8----|-8---8----8---8----8----|-8----8---8----8---8----|
C|-8---8----8---8----8----|-8----8---8----8---8----|-8---8----8---8----8----|-8----8---8----8---8----|


D|------------------------|---------------------|---------------------|---------------------|
A|------------------------|-15------------------|---------------------|-15------------------|
F|------------------------|-----------14--------|-15--------14---15---|-----------14--------|
C|-8---8----8---8----8----|---------------------|------17-------------|---------------------|
G|-8---8----8---8----8----|---------------------|---------------------|---------------------|
C|-8---8----8---8----8----|---------------------|---------------------|---------------------|


D|---------------------|---------------------|-17---15-------------|-------------|
A|---------------------|-15------------------|-----------17---18---|-15----------|
F|-15--------14---15---|-----------14--------|---------------------|-------------|
C|------17-------------|---------------------|---------------------|-------------|
G|---------------------|---------------------|---------------------|-------------|
C|---------------------|---------------------|---------------------|-------------|


D|-------------|-------------|---------------------|-------------|---------------------|
A|-------------|-15----------|---------------------|-15----------|---------------------|
F|-14----------|-------14----|-15--------14---15---|-------14----|-15--------14---15---|
C|-------------|-------------|------17-------------|-------------|------17-------------|
G|-------------|-------------|---------------------|-------------|---------------------|
C|-------------|-------------|---------------------|-------------|---------------------|


D|-------------|-17---15-------------|---------------------|------------------------------|
A|-15----------|-----------17---18---|-15---14-------------|-15--15--14--14---------------|
F|-------14----|---------------------|-----------17---16---|-----------------17--17--16---|
C|-------------|---------------------|---------------------|------------------------------|
G|-------------|---------------------|---------------------|------------------------------|
C|-------------|---------------------|---------------------|------------------------------|


D|------------------------------|------------------------|------------------------------|
A|------------------------------|------------------------|------------------------------|
F|------------------------------|------------------------|------------------------------|
C|-10--10--10--10---10--10--10--|-12--12--12---12---12---|-8---8---8---8----8---8---8---|
G|-10--10--10--10---10--10--10--|-12--12--12---12---12---|-8---8---8---8----8---8---8---|
C|-10--10--10--10---10--10--10--|-12--12--12---12---12---|-8---8---8---8----8---8---8---|


D|------------------------|------------------------------|------------------------|
A|------------------------|------------------------------|------------------------|
F|-10--10--10---10---10---|------------------------------|------------------------|
C|-10--10--10---10---10---|-10--10--10--10---10--10--10--|-12--12--12---12---12---|
G|-8---8---8----8----8----|-10--10--10--10---10--10--10--|-12--12--12---12---12---|
C|------------------------|-10--10--10--10---10--10--10--|-12--12--12---12---12---|


D|------------------------|------------------------|------------------------------|
A|------------------------|------------------------|------------------------------|
F|------------------------|------------------------|------------------------------|
C|-8----8---8----8---8----|-8---8----8---8----8----|-10--10--10--10---10--10--10--|
G|-8----8---8----8---8----|-8---8----8---8----8----|-10--10--10--10---10--10--10--|
C|-8----8---8----8---8----|-8---8----8---8----8----|-10--10--10--10---10--10--10--|


D|------------------------|------------------------------|------------------------|
A|------------------------|------------------------------|------------------------|
F|------------------------|------------------------------|-10--10--10---10---10---|
C|-12--12--12---12---12---|-8---8---8---8----8---8---8---|-10--10--10---10---10---|
G|-12--12--12---12---12---|-8---8---8---8----8---8---8---|-8---8---8----8----8----|
C|-12--12--12---12---12---|-8---8---8---8----8---8---8---|------------------------|


D|------------------------------|------------------------|------------------------|
A|------------------------------|------------------------|------------------------|
F|------------------------------|------------------------|------------------------|
C|-10--10--10--10---10--10--10--|-12--12--12---12---12---|-8----8---8----8---8----|
G|-10--10--10--10---10--10--10--|-12--12--12---12---12---|-8----8---8----8---8----|
C|-10--10--10--10---10--10--10--|-12--12--12---12---12---|-8----8---8----8---8----|


D|---------------------------|---------------------------------|---------------------------------|
A|---------------------------|---------------------------------|---------------------------------|
F|---------------------------|---------------------------------|---------------------------------|
C|-8---8----8---8---8---8----|---------------------------------|---------------------------------|
G|-8---8----8---8---8---8----|---------0---0-------------------|-3---3-----------1---1---0---0---|
C|-8---8----8---8---8---8----|-0---0-----------3---3---5---5---|---------5---5-------------------|


D|---------------------------------|---------------------------------|---------------------------------|
A|---------------------------------|---------------------------------|---------------------------------|
F|---------------------------------|---------------------------------|---------------------------------|
C|---------------------------------|---------------------------------|---------------------------------|
G|---------0---0-------------------|-3---3-----------1---1---0---0---|---------0---0-------------------|
C|-0---0-----------3---3---5---5---|---------5---5-------------------|-0---0-----------3---3---5---5---|


D|---------------------------------|---------------------------------|---------------------------------|
A|---------------------------------|---------------------------------|---------------------------------|
F|---------------------------------|---------------------------------|---------------------------------|
C|---------------------------------|---------------------------------|---------------------------------|
G|-3---3-----------1---1---0---0---|---------0---0-------------------|-3---3-----------1-------0-------|
C|---------5---5-------------------|-0---0-----------3---3---5---5---|---------5---5-------------------|





Track 2: Electric Bass

F|--------|--------|--------|--------|--------|--------|--------|--------|-------------------------------------|
C|--------|--------|--------|--------|--------|--------|--------|--------|-------------------------------------|
G|--------|--------|--------|--------|--------|--------|--------|--------|-----0----------3-----3------1---0---|
C|--------|--------|--------|--------|--------|--------|--------|--------|-0-------3---3-----------5-----------|


F|-------------------------------------|-------------------------------------|-------------------------------------|
C|-------------------------------------|-------------------------------------|-------------------------------------|
G|-----0----------3-----3------1---0---|-----0----------3-----3------1---0---|-----0----------3-----3------1---0---|
C|-0-------3---3-----------5-----------|-0-------3---3-----------5-----------|-0-------3---3-----------5-----------|


F|-------------------------------------|-------------------------------------|-------------------------------------|
C|-------------------------------------|-------------------------------------|-------------------------------------|
G|-----0----------3-----3------1---0---|-----0----------3-----3------1---0---|-----0----------3-----3------1---0---|
C|-0-------3---3-----------5-----------|-0-------3---3-----------5-----------|-0-------3---3-----------5-----------|


F|-------------------------------------|-------------------------------------|-------------------------------------|
C|-------------------------------------|-------------------------------------|-------------------------------------|
G|-----0----------3-----3------1---0---|-----0----------3-----3------1---0---|-----0----------3-----3------1---0---|
C|-0-------3---3-----------5-----------|-0-------3---3-----------5-----------|-0-------3---3-----------5-----------|


F|-------------------------------------|-------------------------------------|-------------------------------------|
C|-------------------------------------|-------------------------------------|-------------------------------------|
G|-----0----------3-----3------1---0---|-----0----------3-----3------1---0---|-----0----------3-----3------1---0---|
C|-0-------3---3-----------5-----------|-0-------3---3-----------5-----------|-0-------3---3-----------5-----------|


F|-------------------------------------|-------------------------------------|-------------------------------------|
C|-------------------------------------|-------------------------------------|-------------------------------------|
G|-----0----------3-----3------1---0---|-----0----------3-----3------1---0---|-----0----------3-----3------1---0---|
C|-0-------3---3-----------5-----------|-0-------3---3-----------5-----------|-0-------3---3-----------5-----------|


F|------------------------------|------------------------|------------------------------|
C|------------------------------|------------------------|------------------------------|
G|------------------------------|------------------------|------------------------------|
C|-10--10--10--10---10--10--10--|-12--12--12---12---12---|-8---8---8---8----8---8---8---|


F|------------------------|------------------------------|------------------------|
C|------------------------|------------------------------|------------------------|
G|-8---8---8----8----8----|------------------------------|------------------------|
C|------------------------|-10--10--10--10---10--10--10--|-12--12--12---12---12---|


F|------------------------|------------------------|------------------------------|
C|------------------------|------------------------|------------------------------|
G|------------------------|------------------------|------------------------------|
C|-8----8---8----8---8----|-8---8----8---8----8----|-10--10--10--10---10--10--10--|


F|------------------------|------------------------------|------------------------|
C|------------------------|------------------------------|------------------------|
G|------------------------|------------------------------|-8---8---8----8----8----|
C|-12--12--12---12---12---|-8---8---8---8----8---8---8---|------------------------|


F|------------------------------|------------------------|------------------------|
C|------------------------------|------------------------|------------------------|
G|------------------------------|------------------------|------------------------|
C|-10--10--10--10---10--10--10--|-12--12--12---12---12---|-8----8---8----8---8----|


F|---------------------------|-------------------------------------|-------------------------------------|
C|---------------------------|-------------------------------------|-------------------------------------|
G|---------------------------|-----0----------3-----3------1---0---|-----0----------3-----3------1---0---|
C|-8---8----8---8---8---8----|-0-------3---3-----------5-----------|-0-------3---3-----------5-----------|


F|-------------------------------------|-------------------------------------|-------------------------------------|
C|-------------------------------------|-------------------------------------|-------------------------------------|
G|-----0----------3-----3------1---0---|-----0----------3-----3------1---0---|-----0----------3-----3------1---0---|
C|-0-------3---3-----------5-----------|-0-------3---3-----------5-----------|-0-------3---3-----------5-----------|


F|-------------------------------------|-------------------------------------|-------------------------------------|
C|-------------------------------------|-------------------------------------|-------------------------------------|
G|-----0----------3-----3------1---0---|-----0----------3-----3------1---0---|-----0----------3-----3------1---0---|
C|-0-------3---3-----------5-----------|-0-------3---3-----------5-----------|-0-------3---3-----------5-----------|


F|-------------------------------------|-------------------------------------|-------------------------------------|
C|-------------------------------------|-------------------------------------|-------------------------------------|
G|-----0----------3-----3------1---0---|-----0----------3-----3------1---0---|-----0----------3-----3------1---0---|
C|-0-------3---3-----------5-----------|-0-------3---3-----------5-----------|-0-------3---3-----------5-----------|


F|-------------------------------------|------------------------------|------------------------|
C|-------------------------------------|------------------------------|------------------------|
G|-----0----------3-----3------1---0---|------------------------------|------------------------|
C|-0-------3---3-----------5-----------|-10--10--10--10---10--10--10--|-12--12--12---12---12---|


F|------------------------------|------------------------|------------------------------|
C|------------------------------|------------------------|------------------------------|
G|------------------------------|-8---8---8----8----8----|------------------------------|
C|-8---8---8---8----8---8---8---|------------------------|-10--10--10--10---10--10--10--|


F|------------------------|------------------------|------------------------|------------------------------|
C|------------------------|------------------------|------------------------|------------------------------|
G|------------------------|------------------------|------------------------|------------------------------|
C|-12--12--12---12---12---|-8----8---8----8---8----|-8---8----8---8----8----|-10--10--10--10---10--10--10--|


F|------------------------|------------------------------|------------------------|
C|------------------------|------------------------------|------------------------|
G|------------------------|------------------------------|-8---8---8----8----8----|
C|-12--12--12---12---12---|-8---8---8---8----8---8---8---|------------------------|


F|------------------------------|------------------------|------------------------|
C|------------------------------|------------------------|------------------------|
G|------------------------------|------------------------|------------------------|
C|-10--10--10--10---10--10--10--|-12--12--12---12---12---|-8----8---8----8---8----|


F|---------------------------|-------------|--------|--------|--------|------------------------|
C|---------------------------|-------------|--------|--------|--------|------------------------|
G|---------------------------|-------------|--------|--------|--------|------------------------|
C|-8---8----8---8---8---8----|-8-----------|--------|--------|--------|-8----8---8----8---8----|


F|------------------------|------------------------|------------------------|---------------------|
C|------------------------|------------------------|------------------------|---------------------|
G|------------------------|------------------------|------------------------|------0--------------|
C|-8---8----8---8----8----|-8----8---8----8---8----|-8---8----8---8----8----|-0---------3----5----|


F|---------------------|---------------------|---------------------|---------------------|
C|---------------------|---------------------|---------------------|---------------------|
G|-3---------1----0----|------0--------------|-3---------1----0----|------0--------------|
C|------5--------------|-0---------3----5----|------5--------------|-0---------3----5----|


F|---------------------|---------------------|---------------------|---------------------|
C|---------------------|---------------------|---------------------|---------------------|
G|-3---------1----0----|------0--------------|-3---------1----0----|------0--------------|
C|------5--------------|-0---------3----5----|------5--------------|-0---------3----5----|


F|---------------------|---------------------|---------------------|---------------------|
C|---------------------|---------------------|---------------------|---------------------|
G|-3---------1----0----|------0--------------|-3---------1----0----|------0--------------|
C|------5--------------|-0---------3----5----|------5--------------|-0---------3----5----|


F|---------------------|---------------------|---------------------|------------------------------|
C|---------------------|---------------------|---------------------|------------------------------|
G|-3---------1----0----|------0--------------|-3---------1----0----|------------------------------|
C|------5--------------|-0---------3----5----|------5--------------|-10--10--10--10---10--10--10--|


F|------------------------|------------------------------|------------------------|
C|------------------------|------------------------------|------------------------|
G|------------------------|------------------------------|-8---8---8----8----8----|
C|-12--12--12---12---12---|-8---8---8---8----8---8---8---|------------------------|


F|------------------------------|------------------------|------------------------|
C|------------------------------|------------------------|------------------------|
G|------------------------------|------------------------|------------------------|
C|-10--10--10--10---10--10--10--|-12--12--12---12---12---|-8----8---8----8---8----|


F|------------------------|------------------------------|------------------------|
C|------------------------|------------------------------|------------------------|
G|------------------------|------------------------------|------------------------|
C|-8---8----8---8----8----|-10--10--10--10---10--10--10--|-12--12--12---12---12---|


F|------------------------------|------------------------|------------------------------|
C|------------------------------|------------------------|------------------------------|
G|------------------------------|-8---8---8----8----8----|------------------------------|
C|-8---8---8---8----8---8---8---|------------------------|-10--10--10--10---10--10--10--|


F|------------------------|------------------------|---------------------------|---------------------------------|
C|------------------------|------------------------|---------------------------|---------------------------------|
G|------------------------|------------------------|---------------------------|---------0---0-------------------|
C|-12--12--12---12---12---|-8----8---8----8---8----|-8---8----8---8---8---8----|-0---0-----------3---3---5---5---|


F|---------------------------------|---------------------------------|---------------------------------|
C|---------------------------------|---------------------------------|---------------------------------|
G|-3---3-----------1---1---0---0---|---------0---0-------------------|-3---3-----------1---1---0---0---|
C|---------5---5-------------------|-0---0-----------3---3---5---5---|---------5---5-------------------|


F|---------------------------------|---------------------------------|---------------------------------|
C|---------------------------------|---------------------------------|---------------------------------|
G|---------0---0-------------------|-3---3-----------1---1---0---0---|---------0---0-------------------|
C|-0---0-----------3---3---5---5---|---------5---5-------------------|-0---0-----------3---3---5---5---|


F|---------------------------------|
C|---------------------------------|
G|-3---3-----------1-------0-------|
C|---------5---5-------------------|