Menu:

 

Search:

 

system of a down - holy mountains live:

 



Title: Holy Mountain (Live)
Artist: 
Album: 
Author: Darron Malakian


Track 1: Soft - Clean

D#|---------------------------------|---------------------------------|---------------------------------|
A#|---------------------------------|---------------------------------|---------------------------------|
F#|---------------------------------|---------------------------------|---------------------------------|
C#|---------0-----------0-----------|---------0-----------0-----------|---------0-----------0-----------|
G#|-----0-----------0-----------0---|-----0-----------0-----------0---|-----0-----------0---------------|
C#|-0-----------0-----------8-------|-7-----------7-----------7-------|-12----------12----------8---7---|


D#|---------------------------------|---------------------------------|---------------------------------|
A#|---------------------------------|---------------------------------|---------------------------------|
F#|---------------------------------|---------------------------------|---------------------------------|
C#|---------0-----------0-----------|---------0-----------0-----------|---------0-----------0-----------|
G#|-----0-----------0-----------0---|-----0-----------0-----------0---|-----0-----------0-----------0---|
C#|-5-----------5-----------5-------|-3-----------3-----------8-------|-7-----------7-----------7-------|


D#|---------------------------------|---------------------------------|---------------------------------|
A#|---------------------------------|---------------------------------|---------------------------------|
F#|---------------------------------|---------------------------------|---------------------------------|
C#|---------0-----------0-----------|---------0-----------0-----------|---------0-----------0-----------|
G#|-----0-----------0---------------|-----0-----------0-----------0---|-----0-----------0-----------0---|
C#|-2-----------2-----------3---2---|-0-----------0-----------0-------|-0-----------0-----------8-------|


D#|---------------------------------|---------------------------------|---------------------------------|
A#|---------------------------------|---------------------------------|---------------------------------|
F#|---------------------------------|---------------------------------|---------------------------------|
C#|---------0-----------0-----------|---------0-----------0-----------|---------0-----------0-----------|
G#|-----0-----------0-----------0---|-----0-----------0---------------|-----0-----------0-----------0---|
C#|-7-----------7-----------7-------|-12----------12----------8---7---|-5-----------5-----------5-------|


D#|---------------------------------|---------------------------------|---------------------------------|
A#|---------------------------------|---------------------------------|---------------------------------|
F#|---------------------------------|---------------------------------|---------------------------------|
C#|---------0-----------0-----------|---------0-----------0-----------|---------0-----------0-----------|
G#|-----0-----------0-----------0---|-----0-----------0-----------0---|-----0-----------0---------------|
C#|-3-----------3-----------8-------|-7-----------7-----------7-------|-2-----------2-----------3---2---|


D#|--------|--------|--------|--------|--------|--------|--------|--------|--------|
A#|--------|--------|--------|--------|--------|--------|--------|--------|--------|
F#|--------|--------|--------|--------|--------|--------|--------|--------|--------|
C#|--------|--------|--------|--------|--------|--------|--------|--------|--------|
G#|--------|--------|--------|--------|--------|--------|--------|--------|--------|
C#|--------|--------|--------|--------|--------|--------|--------|--------|--------|


D#|--------|--------|--------|--------|--------|--------|--------|--------|--------|
A#|--------|--------|--------|--------|--------|--------|--------|--------|--------|
F#|--------|--------|--------|--------|--------|--------|--------|--------|--------|
C#|--------|--------|--------|--------|--------|--------|--------|--------|--------|
G#|--------|--------|--------|--------|--------|--------|--------|--------|--------|
C#|--------|--------|--------|--------|--------|--------|-0------|-0------|-0------|


D#|--------|--------|--------|--------|--------|--------|--------|-------------|-------------|
A#|--------|--------|--------|--------|--------|--------|--------|-------------|-------------|
F#|--------|--------|--------|--------|--------|--------|--------|-------------|-------------|
C#|--------|--------|--------|--------|--------|--------|--------|-------------|-------------|
G#|--------|--------|--------|--------|--------|--------|--------|-------------|-------------|
C#|-0------|-0------|-0------|-2------|-2------|-3------|-5------|-7-----8-----|-10----12----|


D#|-10----------10----------10------|-----10----------10--------------|-12----------12----------12------|
A#|-----10----------10----------10--|---------10----------10------10--|-----10----------10----------10--|
F#|---------7-----------7-----------|-7-----------7-----------7-------|---------9-----------9-----------|
C#|---------------------------------|---------------------------------|---------------------------------|
G#|---------------------------------|---------------------------------|---------------------------------|
C#|---------------------------------|---------------------------------|---------------------------------|


D#|-----12----------12--------------|-13----------13----------12------|-15--15--15--15--15--15--15--15--|
A#|---------10----------10------10--|-----10----------10----------10--|---------------------------------|
F#|-9-----------9-----------9-------|---------10----------10----------|---------------------------------|
C#|---------------------------------|---------------------------------|---------------------------------|
G#|---------------------------------|---------------------------------|---------------------------------|
C#|---------------------------------|---------------------------------|---------------------------------|


D#|-13--------------12--------------|-10--------------12--------------|--------|--------|
A#|-----10------10------10------10--|-----10------10------10------10--|--------|--------|
F#|---------10--------------10------|---------10--------------10------|--------|--------|
C#|---------------------------------|---------------------------------|--------|--------|
G#|---------------------------------|---------------------------------|--------|--------|
C#|---------------------------------|---------------------------------|--------|--------|


D#|--------|--------|--------|--------|--------|--------|--------|--------|--------|
A#|--------|--------|--------|--------|--------|--------|--------|--------|--------|
F#|--------|--------|--------|--------|--------|--------|--------|--------|--------|
C#|--------|--------|--------|--------|--------|--------|--------|--------|--------|
G#|--------|--------|--------|--------|--------|--------|--------|--------|--------|
C#|--------|--------|--------|--------|--------|--------|--------|--------|--------|


D#|--------|--------|--------|--------|--------|--------|--------|--------|--------|
A#|--------|--------|--------|--------|--------|--------|--------|--------|--------|
F#|--------|--------|--------|--------|--------|--------|--------|--------|--------|
C#|--------|--------|--------|--------|--------|--------|--------|--------|--------|
G#|--------|--------|--------|--------|--------|--------|--------|--------|--------|
C#|--------|--------|--------|--------|--------|--------|--------|--------|--------|


D#|--------|--------|--------|--------|--------|--------|--------|--------|--------|
A#|--------|--------|--------|--------|--------|--------|--------|--------|--------|
F#|--------|--------|--------|--------|--------|--------|--------|--------|--------|
C#|--------|--------|--------|--------|--------|--------|--------|--------|--------|
G#|--------|--------|--------|--------|--------|--------|--------|--------|--------|
C#|--------|--------|--------|--------|--------|--------|--------|--------|--------|


D#|--------|--------|--------|--------|-10----------10----------10------|-----10----------10--------------|
A#|--------|--------|--------|--------|-----10----------10----------10--|---------10----------10------10--|
F#|--------|--------|--------|--------|---------7-----------7-----------|-7-----------7-----------7-------|
C#|--------|--------|--------|--------|---------------------------------|---------------------------------|
G#|--------|--------|--------|--------|---------------------------------|---------------------------------|
C#|--------|--------|--------|--------|---------------------------------|---------------------------------|


D#|-12----------12----------12------|-----12----------12--------------|-13----------13----------12------|
A#|-----10----------10----------10--|---------10----------10------10--|-----10----------10----------10--|
F#|---------9-----------9-----------|-9-----------9-----------9-------|---------10----------10----------|
C#|---------------------------------|---------------------------------|---------------------------------|
G#|---------------------------------|---------------------------------|---------------------------------|
C#|---------------------------------|---------------------------------|---------------------------------|


D#|-15--15--15--15--15--15--15--15--|-13--------------12--------------|-10--------------12--------------|
A#|---------------------------------|-----10------10------10------10--|-----10------10------10------10--|
F#|---------------------------------|---------10--------------10------|---------10--------------10------|
C#|---------------------------------|---------------------------------|---------------------------------|
G#|---------------------------------|---------------------------------|---------------------------------|
C#|---------------------------------|---------------------------------|---------------------------------|


D#|--------|--------|--------|--------|--------|--------|--------|--------|--------|
A#|--------|--------|--------|--------|--------|--------|--------|--------|--------|
F#|--------|--------|--------|--------|--------|--------|--------|--------|--------|
C#|--------|--------|--------|--------|--------|--------|--------|--------|--------|
G#|--------|--------|--------|--------|--------|--------|--------|--------|--------|
C#|--------|--------|--------|--------|--------|--------|--------|--------|--------|


D#|--------|--------|--------|--------|--------|--------|--------|--------|--------|
A#|--------|--------|--------|--------|--------|--------|--------|--------|--------|
F#|--------|--------|--------|--------|--------|--------|--------|--------|--------|
C#|--------|--------|--------|--------|--------|--------|--------|--------|--------|
G#|--------|--------|--------|--------|--------|--------|--------|--------|--------|
C#|--------|--------|--------|--------|--------|--------|--------|--------|--------|


D#|--------|--------|--------|--------|--------|--------|--------|--------|-------------|
A#|--------|--------|--------|--------|--------|--------|--------|--------|-------------|
F#|--------|--------|--------|--------|--------|--------|--------|--------|-------------|
C#|--------|--------|--------|--------|--------|--------|--------|--------|-------------|
G#|--------|--------|--------|--------|--------|--------|--------|--------|-------------|
C#|--------|--------|--------|--------|--------|--------|--------|--------|-7-----8-----|


D#|-------------|-------------|-------------|---------------------|---------------------|
A#|-------------|-------------|-------------|---------------------|---------------------|
F#|-------------|-------------|-------------|---------------------|---------------------|
C#|-------------|-------------|-------------|----------------0----|----------------0----|
G#|-------------|-------------|-3-----5-----|-0----1----3---------|-0----1----3---------|
C#|-10----12----|-7-----8-----|-------------|---------------------|---------------------|


D#|---------------------|---------------------|--------|--------|--------|--------|
A#|---------------------|---------------------|--------|--------|--------|--------|
F#|---------------------|---------------------|--------|--------|--------|--------|
C#|----------------0----|----------------0----|--------|--------|--------|--------|
G#|-0----1----3---------|-0----1----3---------|--------|--------|--------|--------|
C#|---------------------|---------------------|--------|--------|--------|--------|


D#|--------|--------|--------|--------|--------|--------|--------|--------|--------|
A#|--------|--------|--------|--------|--------|--------|--------|--------|--------|
F#|--------|--------|--------|--------|--------|--------|--------|--------|--------|
C#|--------|--------|--------|--------|--------|--------|--------|--------|--------|
G#|--------|--------|--------|--------|--------|--------|--------|--------|--------|
C#|--------|--------|--------|--------|--------|--------|--------|--------|--------|


D#|--------|--------|--------|--------|--------|--------|--------|--------|--------|
A#|--------|--------|--------|--------|--------|--------|--------|--------|--------|
F#|--------|--------|--------|--------|--------|--------|--------|--------|--------|
C#|--------|--------|--------|--------|--------|--------|--------|--------|--------|
G#|--------|--------|--------|--------|--------|--------|--------|--------|--------|
C#|--------|--------|--------|--------|--------|--------|--------|--------|--------|


D#|--------|--------|--------|--------|--------|--------|--------|--------|--------|
A#|--------|--------|--------|--------|--------|--------|--------|--------|--------|
F#|--------|--------|--------|--------|--------|--------|--------|--------|--------|
C#|--------|--------|--------|--------|--------|--------|--------|--------|--------|
G#|--------|--------|--------|--------|--------|--------|--------|--------|--------|
C#|--------|--------|--------|--------|--------|--------|--------|--------|--------|


D#|--------|--------|--------|--------|--------|--------|--------|--------|--------|
A#|--------|--------|--------|--------|--------|--------|--------|--------|--------|
F#|--------|--------|--------|--------|--------|--------|--------|--------|--------|
C#|--------|--------|--------|--------|--------|--------|--------|--------|--------|
G#|--------|--------|--------|--------|--------|--------|--------|--------|--------|
C#|--------|--------|--------|--------|--------|--------|--------|--------|--------|


D#|--------|--------|--------|--------|--------|--------|--------|--------|--------|
A#|--------|--------|--------|--------|--------|--------|--------|--------|--------|
F#|--------|--------|--------|--------|--------|--------|--------|--------|--------|
C#|--------|--------|--------|--------|--------|--------|--------|--------|--------|
G#|--------|--------|--------|--------|--------|--------|--------|--------|--------|
C#|--------|--------|--------|--------|--------|--------|--------|--------|--------|


D#|--------|--------|--------|--------|--------|--------|--------|--------|--------|
A#|--------|--------|--------|--------|--------|--------|--------|--------|--------|
F#|--------|--------|--------|--------|--------|--------|--------|--------|--------|
C#|--------|--------|--------|--------|--------|--------|--------|--------|--------|
G#|--------|--------|--------|--------|--------|--------|--------|--------|--------|
C#|--------|--------|--------|--------|--------|--------|--------|--------|--------|


D#|--------|--------|--------|--------|--------|--------|--------|--------|--------|
A#|--------|--------|--------|--------|--------|--------|--------|--------|--------|
F#|--------|--------|--------|--------|--------|--------|--------|--------|--------|
C#|--------|--------|--------|--------|--------|--------|--------|--------|--------|
G#|--------|--------|--------|--------|--------|--------|--------|--------|--------|
C#|--------|--------|--------|--------|--------|--------|--------|--------|--------|


D#|--------|--------|--------|---------------------------------|---------------------------------|
A#|--------|--------|--------|---------------------------------|---------------------------------|
F#|--------|--------|--------|---------------------------------|---------------------------------|
C#|--------|--------|--------|---------0-----------0-----------|---------0-----------0-----------|
G#|--------|--------|--------|-----0-----------0-----------0---|-----0-----------0-----------0---|
C#|--------|--------|--------|-0-----------0-----------8-------|-7-----------7-----------7-------|


D#|---------------------------------|---------------------------------|---------------------------------|
A#|---------------------------------|---------------------------------|---------------------------------|
F#|---------------------------------|---------------------------------|---------------------------------|
C#|---------0-----------0-----------|---------0-----------0-----------|---------0-----------0-----------|
G#|-----0-----------0---------------|-----0-----------0-----------0---|-----0-----------0-----------0---|
C#|-12----------12----------8---7---|-5-----------5-----------5-------|-3-----------3-----------8-------|


D#|---------------------------------|---------------------------------|--------|--------|
A#|---------------------------------|---------------------------------|--------|--------|
F#|---------------------------------|---------------------------------|--------|--------|
C#|---------0-----------0-----------|---------0-----------0-----------|--------|--------|
G#|-----0-----------0-----------0---|-----0-----------0---------------|--------|--------|
C#|-7-----------7-----------7-------|-2-----------2-----------3---2---|-0------|--------|





Track 2: Loud - Disortion

D#|--------|--------|--------|--------|--------|--------|--------|--------|--------|
A#|--------|--------|--------|--------|--------|--------|--------|--------|--------|
F#|--------|--------|--------|--------|--------|--------|--------|--------|--------|
C#|--------|--------|--------|--------|--------|--------|--------|--------|--------|
G#|--------|--------|--------|--------|--------|--------|--------|--------|--------|
C#|--------|--------|--------|--------|--------|--------|--------|--------|--------|


D#|--------|--------|--------|--------|--------|--------|---------------------|---------------------|
A#|--------|--------|--------|--------|--------|--------|---------------------|---------------------|
F#|--------|--------|--------|--------|--------|--------|---------------------|---------------------|
C#|--------|--------|--------|--------|--------|--------|-0----0----0----8----|-7----7----7----7----|
G#|--------|--------|--------|--------|--------|--------|-0----0----0----8----|-7----7----7----7----|
C#|--------|--------|--------|--------|--------|--------|-0----0----0----8----|-7----7----7----7----|


D#|------------------------|---------------------|---------------------|---------------------|
A#|------------------------|---------------------|---------------------|---------------------|
F#|------------------------|---------------------|---------------------|---------------------|
C#|-12---12---12---8---7---|-5----5----5----5----|-3----3----3----8----|-7----7----7----7----|
G#|-12---12---12---8---7---|-5----5----5----5----|-3----3----3----8----|-7----7----7----7----|
C#|-12---12---12---8---7---|-5----5----5----5----|-3----3----3----8----|-7----7----7----7----|


D#|------------------------|---------------------|-------------|--------|----------------|
A#|------------------------|---------------------|-------------|--------|----------------|
F#|------------------------|---------------------|-------------|--------|----------------|
C#|-2----2----2----3---2---|-0----0----0----0----|-0------8----|-7------|-12-----8---7---|
G#|-2----2----2----3---2---|-0----0----0----0----|-0------8----|-7------|-12-----8---7---|
C#|-2----2----2----3---2---|-0----0----0----0----|-0------8----|-7------|-12-----8---7---|


D#|--------|-------------|--------|-----------------|--------|--------|--------|--------|
A#|--------|-------------|--------|-----------------|--------|--------|--------|--------|
F#|--------|-------------|--------|-----------------|--------|--------|--------|--------|
C#|-5------|-3------8----|-7------|-2-----3----2----|--------|--------|--------|--------|
G#|-5------|-3------8----|-7------|-2-----3----2----|--------|--------|--------|--------|
C#|-5------|-3------8----|-7------|-2-----3----2----|--------|--------|--------|--------|


D#|--------|--------|--------|--------|--------|--------|--------|--------|--------|
A#|--------|--------|--------|--------|--------|--------|--------|--------|--------|
F#|--------|--------|--------|--------|--------|--------|--------|--------|--------|
C#|--------|--------|--------|--------|--------|--------|--------|--------|--------|
G#|--------|--------|--------|--------|--------|--------|--------|--------|--------|
C#|--------|--------|--------|--------|--------|--------|--------|--------|--------|


D#|--------|--------|--------|--------|--------|--------|--------|---------------------|
A#|--------|--------|--------|--------|--------|--------|--------|---------------------|
F#|--------|--------|--------|--------|--------|--------|--------|---------------------|
C#|--------|--------|--------|--------|--------|--------|--------|-1----1---------1----|
G#|--------|--------|--------|--------|--------|--------|--------|-1----1---------1----|
C#|--------|--------|--------|--------|--------|--------|--------|-1----1---------1----|


D#|---------------------|---------------------|---------------------|---------------------------------|
A#|---------------------|---------------------|---------------------|---------------------------------|
F#|---------------------|---------------------|---------------------|---------------------------------|
C#|-1---------1----1----|------1----1----0----|-3----1----0----1----|---------------------------------|
G#|-1---------1----1----|------1----1----0----|-3----1----0----1----|-5---5---5---5---7---7---7---7---|
C#|-1---------1----1----|------1----1----0----|-3----1----0----1----|---------------------------------|


D#|---------------------------------|---------------------------------|---------------------------------|
A#|---------------------------------|---------------------------------|---------------------------------|
F#|---------------------------------|---------------------------------|-5---5---5---5---7---7---7---7---|
C#|-----------------5---5---5---5---|-7---7---7---7---8---8---8---8---|---------------------------------|
G#|-8---8---8---8-------------------|---------------------------------|---------------------------------|
C#|---------------------------------|---------------------------------|---------------------------------|


D#|---------------------|---------------------|---------------------|---------------------|
A#|---------------------|---------------------|---------------------|---------------------|
F#|---------------------|---------------------|---------------------|---------------------|
C#|-1----1---------1----|-1---------1----1----|------1----1----0----|-3----1----0----1----|
G#|-1----1---------1----|-1---------1----1----|------1----1----0----|-3----1----0----1----|
C#|-1----1---------1----|-1---------1----1----|------1----1----0----|-3----1----0----1----|


D#|-----------------|---------------------|-----------------|--------------------|
A#|-----------------|---------------------|-----------------|--------------------|
F#|-----------------|---------------------|-----------------|--------------------|
C#|-8-----8-----8---|-8----7----5----7----|-0-----0-----0---|-0-----0----0---0---|
G#|-8-----8-----8---|-8----7----5----7----|-0-----0-----0---|-0-----0----0---0---|
C#|-8-----8-----8---|-8----7----5----7----|-0-----0-----0---|-0-----0----0---0---|


D#|-----------------|---------------------|-----------------|--------------------|
A#|-----------------|---------------------|-----------------|--------------------|
F#|-----------------|---------------------|-----------------|--------------------|
C#|-8-----8-----8---|-8----7----5----7----|-0-----0-----0---|-0-----0----0---0---|
G#|-8-----8-----8---|-8----7----5----7----|-0-----0-----0---|-0-----0----0---0---|
C#|-8-----8-----8---|-8----7----5----7----|-0-----0-----0---|-0-----0----0---0---|


D#|-----------------|---------------------|-----------------|--------------------|
A#|-----------------|---------------------|-----------------|--------------------|
F#|-----------------|---------------------|-----------------|--------------------|
C#|-8-----8-----8---|-8----7----5----7----|-0-----0-----0---|-0-----0----0---0---|
G#|-8-----8-----8---|-8----7----5----7----|-0-----0-----0---|-0-----0----0---0---|
C#|-8-----8-----8---|-8----7----5----7----|-0-----0-----0---|-0-----0----0---0---|


D#|-----------------|---------------------|-------------|--------|----------------|
A#|-----------------|---------------------|-------------|--------|----------------|
F#|-----------------|---------------------|-------------|--------|----------------|
C#|-8-----8-----8---|-8----7----5----7----|-0------8----|-7------|-12-----8---7---|
G#|-8-----8-----8---|-8----7----5----7----|-0------8----|-7------|-12-----8---7---|
C#|-8-----8-----8---|-8----7----5----7----|-0------8----|-7------|-12-----8---7---|


D#|--------|-------------|--------|-----------------|--------|--------|--------|--------|
A#|--------|-------------|--------|-----------------|--------|--------|--------|--------|
F#|--------|-------------|--------|-----------------|--------|--------|--------|--------|
C#|-5------|-3------8----|-7------|-2-----3----2----|--------|--------|--------|--------|
G#|-5------|-3------8----|-7------|-2-----3----2----|--------|--------|--------|--------|
C#|-5------|-3------8----|-7------|-2-----3----2----|--------|--------|--------|--------|


D#|--------|--------|--------|--------|---------------------|---------------------|
A#|--------|--------|--------|--------|---------------------|---------------------|
F#|--------|--------|--------|--------|---------------------|---------------------|
C#|--------|--------|--------|--------|-1----1---------1----|-1---------1----1----|
G#|--------|--------|--------|--------|-1----1---------1----|-1---------1----1----|
C#|--------|--------|--------|--------|-1----1---------1----|-1---------1----1----|


D#|---------------------|---------------------|---------------------------------|---------------------------------|
A#|---------------------|---------------------|---------------------------------|---------------------------------|
F#|---------------------|---------------------|---------------------------------|---------------------------------|
C#|------1----1----0----|-3----1----0----1----|---------------------------------|-----------------5---5---5---5---|
G#|------1----1----0----|-3----1----0----1----|-5---5---5---5---7---7---7---7---|-8---8---8---8-------------------|
C#|------1----1----0----|-3----1----0----1----|---------------------------------|---------------------------------|


D#|---------------------------------|---------------------------------|---------------------|
A#|---------------------------------|---------------------------------|---------------------|
F#|---------------------------------|-5---5---5---5---7---7---7---7---|---------------------|
C#|-7---7---7---7---8---8---8---8---|---------------------------------|-1----1---------1----|
G#|---------------------------------|---------------------------------|-1----1---------1----|
C#|---------------------------------|---------------------------------|-1----1---------1----|


D#|---------------------|---------------------|---------------------|-----------------|
A#|---------------------|---------------------|---------------------|-----------------|
F#|---------------------|---------------------|---------------------|-----------------|
C#|-1---------1----1----|------1----1----0----|-3----1----0----1----|-8-----8-----8---|
G#|-1---------1----1----|------1----1----0----|-3----1----0----1----|-8-----8-----8---|
C#|-1---------1----1----|------1----1----0----|-3----1----0----1----|-8-----8-----8---|


D#|---------------------|-----------------|--------------------|-----------------|
A#|---------------------|-----------------|--------------------|-----------------|
F#|---------------------|-----------------|--------------------|-----------------|
C#|-8----7----5----7----|-0-----0-----0---|-0-----0----0---0---|-8-----8-----8---|
G#|-8----7----5----7----|-0-----0-----0---|-0-----0----0---0---|-8-----8-----8---|
C#|-8----7----5----7----|-0-----0-----0---|-0-----0----0---0---|-8-----8-----8---|


D#|---------------------|-----------------|--------------------|-----------------|
A#|---------------------|-----------------|--------------------|-----------------|
F#|---------------------|-----------------|--------------------|-----------------|
C#|-8----7----5----7----|-0-----0-----0---|-0-----0----0---0---|-8-----8-----8---|
G#|-8----7----5----7----|-0-----0-----0---|-0-----0----0---0---|-8-----8-----8---|
C#|-8----7----5----7----|-0-----0-----0---|-0-----0----0---0---|-8-----8-----8---|


D#|---------------------|-----------------|--------------------|-----------------|
A#|---------------------|-----------------|--------------------|-----------------|
F#|---------------------|-----------------|--------------------|-----------------|
C#|-8----7----5----7----|-0-----0-----0---|-0-----0----0---0---|-8-----8-----8---|
G#|-8----7----5----7----|-0-----0-----0---|-0-----0----0---0---|-8-----8-----8---|
C#|-8----7----5----7----|-0-----0-----0---|-0-----0----0---0---|-8-----8-----8---|


D#|---------------------|--------|--------|--------|--------|--------|--------|--------|
A#|---------------------|--------|--------|--------|--------|--------|--------|--------|
F#|---------------------|--------|--------|--------|--------|--------|--------|--------|
C#|-8----7----5----7----|--------|--------|--------|--------|--------|--------|--------|
G#|-8----7----5----7----|--------|--------|--------|--------|--------|--------|--------|
C#|-8----7----5----7----|--------|--------|--------|--------|--------|--------|--------|


D#|--------|---------------------------------|---------------------------------|---------------------------------|
A#|--------|---------------------------------|---------------------------------|---------------------------------|
F#|--------|---------------------------------|---------------------------------|---------------------------------|
C#|--------|---------------------------------|---------------------------------|---------------------------------|
G#|--------|-0---1---3---5---0---1---3---5---|-0---1---3---5---0---1---3---5---|-0---1---3---5---0---1---3---5---|
C#|--------|---------------------------------|---------------------------------|---------------------------------|


D#|---------------------------------|---------------------|---------------------|------------------------|
A#|---------------------------------|---------------------|---------------------|------------------------|
F#|---------------------------------|---------------------|---------------------|------------------------|
C#|---------------------------------|-0----0----0----8----|-7----7----7----7----|-12---12---12---8---7---|
G#|-0---1---3---5---0---1---3---5---|-0----0----0----8----|-7----7----7----7----|-12---12---12---8---7---|
C#|---------------------------------|-0----0----0----8----|-7----7----7----7----|-12---12---12---8---7---|


D#|---------------------|---------------------|---------------------|---------------------|
A#|---------------------|---------------------|---------------------|---------------------|
F#|---------------------|---------------------|---------------------|---------------------|
C#|-5----5----5----5----|-3----3----3----8----|-7----7----7----7----|-2----2----3----2----|
G#|-5----5----5----5----|-3----3----3----8----|-7----7----7----7----|-2----2----3----2----|
C#|-5----5----5----5----|-3----3----3----8----|-7----7----7----7----|-2----2----3----2----|


D#|---------------------|---------------------|---------------------|------------------------|
A#|---------------------|---------------------|---------------------|------------------------|
F#|---------------------|---------------------|---------------------|------------------------|
C#|-0----0----0----0----|-0----0----0----8----|-7----7----7----7----|-12---12---12---8---7---|
G#|-0----0----0----0----|-0----0----0----8----|-7----7----7----7----|-12---12---12---8---7---|
C#|-0----0----0----0----|-0----0----0----8----|-7----7----7----7----|-12---12---12---8---7---|


D#|---------------------|---------------------|---------------------|---------------------|
A#|---------------------|---------------------|---------------------|---------------------|
F#|---------------------|---------------------|---------------------|---------------------|
C#|-5----5----5----5----|-3----3----3----8----|-7----7----7----7----|-2----2----3----2----|
G#|-5----5----5----5----|-3----3----3----8----|-7----7----7----7----|-2----2----3----2----|
C#|-5----5----5----5----|-3----3----3----8----|-7----7----7----7----|-2----2----3----2----|


D#|---------------------|---------------------|------------------------|---------------------|
A#|---------------------|---------------------|------------------------|---------------------|
F#|---------------------|---------------------|------------------------|---------------------|
C#|-0----0----0----8----|-7----7----7----7----|-12---12---12---8---7---|-5----5----5----5----|
G#|-0----0----0----8----|-7----7----7----7----|-12---12---12---8---7---|-5----5----5----5----|
C#|-0----0----0----8----|-7----7----7----7----|-12---12---12---8---7---|-5----5----5----5----|


D#|---------------------|---------------------|---------------------|------------------------|
A#|---------------------|---------------------|---------------------|------------------------|
F#|---------------------|---------------------|---------------------|------------------------|
C#|-3----3----3----8----|-7----7----7----7----|-2----2----3----2----|-1----1---------1---1---|
G#|-3----3----3----8----|-7----7----7----7----|-2----2----3----2----|-1----1---------1---1---|
C#|-3----3----3----8----|-7----7----7----7----|-2----2----3----2----|-1----1---------1---1---|


D#|----------------------------|---------------------|---------------------|---------------------|
A#|----------------------------|---------------------|---------------------|---------------------|
F#|----------------------------|---------------------|---------------------|---------------------|
C#|-1---------1---1---1---1----|------1----1----0----|-3----1----0----1----|-0----0----0----8----|
G#|-1---------1---1---1---1----|------1----1----0----|-3----1----0----1----|-0----0----0----8----|
C#|-1---------1---1---1---1----|------1----1----0----|-3----1----0----1----|-0----0----0----8----|


D#|---------------------|------------------------|---------------------|---------------------|
A#|---------------------|------------------------|---------------------|---------------------|
F#|---------------------|------------------------|---------------------|---------------------|
C#|-7----7----7----7----|-12---12---12---8---7---|-5----5----5----5----|-3----3----3----8----|
G#|-7----7----7----7----|-12---12---12---8---7---|-5----5----5----5----|-3----3----3----8----|
C#|-7----7----7----7----|-12---12---12---8---7---|-5----5----5----5----|-3----3----3----8----|


D#|---------------------|---------------------|------------------------|----------------------------|
A#|---------------------|---------------------|------------------------|----------------------------|
F#|---------------------|---------------------|------------------------|----------------------------|
C#|-7----7----7----7----|-2----2----3----2----|-1----1---------1---1---|-1---------1---1---1---1----|
G#|-7----7----7----7----|-2----2----3----2----|-1----1---------1---1---|-1---------1---1---1---1----|
C#|-7----7----7----7----|-2----2----3----2----|-1----1---------1---1---|-1---------1---1---1---1----|


D#|---------------------|---------------------|-----------------|---------------------|
A#|---------------------|---------------------|-----------------|---------------------|
F#|---------------------|---------------------|-----------------|---------------------|
C#|------1----1----0----|-3----1----0----1----|-8-----8-----8---|-8----7----5----7----|
G#|------1----1----0----|-3----1----0----1----|-8-----8-----8---|-8----7----5----7----|
C#|------1----1----0----|-3----1----0----1----|-8-----8-----8---|-8----7----5----7----|


D#|-----------------|--------------------|-----------------|---------------------|
A#|-----------------|--------------------|-----------------|---------------------|
F#|-----------------|--------------------|-----------------|---------------------|
C#|-0-----0-----0---|-0-----0----0---0---|-8-----8-----8---|-8----7----5----7----|
G#|-0-----0-----0---|-0-----0----0---0---|-8-----8-----8---|-8----7----5----7----|
C#|-0-----0-----0---|-0-----0----0---0---|-8-----8-----8---|-8----7----5----7----|


D#|-----------------|--------------------|-----------------|---------------------|
A#|-----------------|--------------------|-----------------|---------------------|
F#|-----------------|--------------------|-----------------|---------------------|
C#|-0-----0-----0---|-0-----0----0---0---|-8-----8-----8---|-8----7----5----7----|
G#|-0-----0-----0---|-0-----0----0---0---|-8-----8-----8---|-8----7----5----7----|
C#|-0-----0-----0---|-0-----0----0---0---|-8-----8-----8---|-8----7----5----7----|


D#|-----------------|--------------------|-----------------|---------------------|
A#|-----------------|--------------------|-----------------|---------------------|
F#|-----------------|--------------------|-----------------|---------------------|
C#|-0-----0-----0---|-0-----0----0---0---|-8-----8-----8---|-8----7----5----7----|
G#|-0-----0-----0---|-0-----0----0---0---|-8-----8-----8---|-8----7----5----7----|
C#|-0-----0-----0---|-0-----0----0---0---|-8-----8-----8---|-8----7----5----7----|


D#|---------------------|---------------------|------------------------|---------------------|
A#|---------------------|---------------------|------------------------|---------------------|
F#|---------------------|---------------------|------------------------|---------------------|
C#|-0----0----0----8----|-7----7----7----7----|-12---12---12---8---7---|-5----5----5----5----|
G#|-0----0----0----8----|-7----7----7----7----|-12---12---12---8---7---|-5----5----5----5----|
C#|-0----0----0----8----|-7----7----7----7----|-12---12---12---8---7---|-5----5----5----5----|


D#|---------------------|---------------------|------------------------|---------------------|
A#|---------------------|---------------------|------------------------|---------------------|
F#|---------------------|---------------------|------------------------|---------------------|
C#|-3----3----3----8----|-7----7----7----7----|-2----2----2----3---2---|-0----0----0----0----|
G#|-3----3----3----8----|-7----7----7----7----|-2----2----2----3---2---|-0----0----0----0----|
C#|-3----3----3----8----|-7----7----7----7----|-2----2----2----3---2---|-0----0----0----0----|


D#|-------------|--------|----------------|--------|-------------|--------|-----------------|
A#|-------------|--------|----------------|--------|-------------|--------|-----------------|
F#|-------------|--------|----------------|--------|-------------|--------|-----------------|
C#|-0------8----|-7------|-12-----8---7---|-5------|-3------8----|-7------|-2-----3----2----|
G#|-0------8----|-7------|-12-----8---7---|-5------|-3------8----|-7------|-2-----3----2----|
C#|-0------8----|-7------|-12-----8---7---|-5------|-3------8----|-7------|-2-----3----2----|


D#|--------|--------|--------|--------|--------|--------|--------|--------|--------|
A#|--------|--------|--------|--------|--------|--------|--------|--------|--------|
F#|--------|--------|--------|--------|--------|--------|--------|--------|--------|
C#|--------|--------|--------|--------|--------|--------|--------|--------|--------|
G#|--------|--------|--------|--------|--------|--------|--------|--------|--------|
C#|--------|--------|--------|--------|--------|--------|--------|--------|--------|





Track 3: Shavo-bass

F#|--------|--------|--------|--------|--------|--------|--------|--------|--------|
C#|--------|--------|--------|--------|--------|--------|--------|--------|--------|
G#|--------|--------|--------|--------|--------|--------|--------|--------|--------|
C#|--------|--------|--------|--------|--------|--------|--------|--------|--------|


F#|--------|--------|--------|--------|--------|--------|---------------------|---------------------|
C#|--------|--------|--------|--------|--------|--------|---------------------|---------------------|
G#|--------|--------|--------|--------|--------|--------|---------------------|---------------------|
C#|--------|--------|--------|--------|--------|--------|-0----0----0----8----|-7----7----7----7----|


F#|------------------------|---------------------|---------------------|---------------------|
C#|------------------------|---------------------|---------------------|---------------------|
G#|------------------------|---------------------|---------------------|---------------------|
C#|-12---12---12---8---7---|-5----5----5----5----|-3----3----3----8----|-7----7----7----7----|


F#|------------------------|---------------------|-------------|--------|----------------|
C#|------------------------|---------------------|-------------|--------|----------------|
G#|------------------------|---------------------|-------------|--------|----------------|
C#|-2----2----2----3---2---|-0----0----0----0----|-0------8----|-7------|-12-----8---7---|


F#|--------|-------------|--------|-----------------|--------|--------|--------|--------|
C#|--------|-------------|--------|-----------------|--------|--------|--------|--------|
G#|--------|-------------|--------|-----------------|--------|--------|--------|--------|
C#|-5------|-3------8----|-7------|-2-----3----2----|-0------|-0------|-0------|-0------|


F#|---------------------------------|---------------------------------|---------------------------------|
C#|---------------------------------|---------------------------------|---------------------------------|
G#|---------------------------------|---------------------------------|---------------------------------|
C#|-0---0---0---0---0---0---0---0---|-0---0---0---0---0---0---0---0---|-2---2---2---2---2---2---2---2---|


F#|---------------------------------|---------------------------------|---------------------------------|
C#|---------------------------------|---------------------------------|---------------------------------|
G#|---------------------------------|---------------------------------|---------------------------------|
C#|-2---2---2---2---2---2---2---2---|-3---3---3---3---3---3---3---3---|-5---5---5---5---5---5---5---5---|


F#|---------------------------------|---------------------------------|---------------------------------|
C#|---------------------------------|---------------------------------|---------------------------------|
G#|---------------------------------|---------------------------------|---------------------------------|
C#|-7---7---7---7---8---8---8---8---|-10--10--10--10--12--12--12--12--|-0---0---0---0---0---0---0---0---|


F#|---------------------------------|---------------------------------|---------------------------------|
C#|---------------------------------|---------------------------------|---------------------------------|
G#|---------------------------------|---------------------------------|---------------------------------|
C#|-0---0---0---0---0---0---0---0---|-2---2---2---2---2---2---2---2---|-2---2---2---2---2---2---2---2---|


F#|---------------------------------|---------------------------------|---------------------------------|
C#|---------------------------------|---------------------------------|---------------------------------|
G#|---------------------------------|---------------------------------|---------------------------------|
C#|-3---3---3---3---3---3---3---3---|-5---5---5---5---5---5---5---5---|-7---7---7---7---8---8---8---8---|


F#|---------------------------------|---------------------|---------------------|---------------------|
C#|---------------------------------|---------------------|---------------------|---------------------|
G#|---------------------------------|---------------------|---------------------|---------------------|
C#|-10--10--10--10--12--12--12--12--|-1----1---------1----|-1---------1----1----|------1----1----0----|


F#|---------------------|---------------------------------|---------------------------------|
C#|---------------------|---------------------------------|---------------------------------|
G#|---------------------|---------------------------------|---------------------------------|
C#|-3----1----0----1----|-0---0---0---0---2---2---2---2---|-3---3---3---3---5---5---5---5---|


F#|---------------------------------|---------------------------------|---------------------|
C#|---------------------------------|---------------------------------|---------------------|
G#|---------------------------------|---------------------------------|---------------------|
C#|-7---7---7---7---8---8---8---8---|-10--10--10--10--12--12--12--12--|-1----1---------1----|


F#|---------------------|---------------------|---------------------|-------------|
C#|---------------------|---------------------|---------------------|-------------|
G#|---------------------|---------------------|---------------------|-------------|
C#|-1---------1----1----|------1----1----0----|-3----1----0----1----|-8-----8-----|


F#|---------------------|-------------|-------------|-------------|---------------------|
C#|---------------------|-------------|-------------|-------------|---------------------|
G#|---------------------|-------------|-------------|-------------|---------------------|
C#|-8----7----5----7----|-0-----0-----|-0-----0-----|-8-----8-----|-8----7----5----7----|


F#|-------------|-------------|-------------|---------------------|-------------|-------------|
C#|-------------|-------------|-------------|---------------------|-------------|-------------|
G#|-------------|-------------|-------------|---------------------|-------------|-------------|
C#|-0-----0-----|-0-----0-----|-8-----8-----|-8----7----5----7----|-0-----0-----|-0-----0-----|


F#|-------------|---------------------|-----------------|-------------|--------------------|
C#|-------------|---------------------|-----------------|-------------|--------------------|
G#|-------------|---------------------|-----------------|-------------|--------------------|
C#|-8-----8-----|-8----7----5----7----|-0-----0----8----|-7-----7-----|-12----12---8---7---|


F#|-------------|-----------------|-------------|-----------------|---------------------------------|
C#|-------------|-----------------|-------------|-----------------|---------------------------------|
G#|-------------|-----------------|-------------|-----------------|---------------------------------|
C#|-5-----5-----|-3-----3----8----|-7-----7-----|-2-----3----2----|-0---0---0---0---0---0---0---0---|


F#|---------------------------------|---------------------------------|---------------------------------|
C#|---------------------------------|---------------------------------|---------------------------------|
G#|---------------------------------|---------------------------------|---------------------------------|
C#|-0---0---0---0---0---0---0---0---|-2---2---2---2---2---2---2---2---|-2---2---2---2---2---2---2---2---|


F#|---------------------------------|---------------------------------|---------------------------------|
C#|---------------------------------|---------------------------------|---------------------------------|
G#|---------------------------------|---------------------------------|---------------------------------|
C#|-3---3---3---3---3---3---3---3---|-5---5---5---5---5---5---5---5---|-7---7---7---7---8---8---8---8---|


F#|---------------------------------|---------------------|---------------------|---------------------|
C#|---------------------------------|---------------------|---------------------|---------------------|
G#|---------------------------------|---------------------|---------------------|---------------------|
C#|-10--10--10--10--12--12--12--12--|-1----1---------1----|-1---------1----1----|------1----1----0----|


F#|---------------------|---------------------------------|---------------------------------|
C#|---------------------|---------------------------------|---------------------------------|
G#|---------------------|---------------------------------|---------------------------------|
C#|-3----1----0----1----|-0---0---0---0---2---2---2---2---|-3---3---3---3---5---5---5---5---|


F#|---------------------------------|---------------------------------|---------------------|
C#|---------------------------------|---------------------------------|---------------------|
G#|---------------------------------|---------------------------------|---------------------|
C#|-7---7---7---7---8---8---8---8---|-10--10--10--10--12--12--12--12--|-1----1---------1----|


F#|---------------------|---------------------|---------------------|-------------|
C#|---------------------|---------------------|---------------------|-------------|
G#|---------------------|---------------------|---------------------|-------------|
C#|-1---------1----1----|------1----1----0----|-3----1----0----1----|-8-----8-----|


F#|---------------------|-------------|-------------|-------------|---------------------|
C#|---------------------|-------------|-------------|-------------|---------------------|
G#|---------------------|-------------|-------------|-------------|---------------------|
C#|-8----7----5----7----|-0-----0-----|-0-----0-----|-8-----8-----|-8----7----5----7----|


F#|-------------|-------------|-------------|---------------------|-------------|-------------|
C#|-------------|-------------|-------------|---------------------|-------------|-------------|
G#|-------------|-------------|-------------|---------------------|-------------|-------------|
C#|-0-----0-----|-0-----0-----|-8-----8-----|-8----7----5----7----|-0-----0-----|-0-----0-----|


F#|-------------|---------------------|-------------|-------------|-------------|-------------|
C#|-------------|---------------------|-------------|-------------|-------------|-------------|
G#|-------------|---------------------|-------------|-------------|-------------|-3-----5-----|
C#|-8-----8-----|-8----7----5----7----|-7-----8-----|-10----12----|-7-----8-----|-------------|


F#|---------------------|---------------------|---------------------|---------------------|
C#|----------------0----|----------------0----|----------------0----|----------------0----|
G#|-0----1----3---------|-0----1----3---------|-0----1----3---------|-0----1----3---------|
C#|---------------------|---------------------|---------------------|---------------------|


F#|---------------------------------|---------------------------------|---------------------------------|
C#|---------------------------------|---------------------------------|---------------------------------|
G#|-0---1---3---5---0---1---3---5---|-0---1---3---5---0---1---3---5---|-0---1---3---5---0---1---3---5---|
C#|---------------------------------|---------------------------------|---------------------------------|


F#|---------------------------------|---------------------|---------------------|------------------------|
C#|---------------------------------|---------------------|---------------------|------------------------|
G#|-0---1---3---5---0---1---3---5---|---------------------|---------------------|------------------------|
C#|---------------------------------|-0----0----0----8----|-7----7----7----7----|-12---12---12---8---7---|


F#|---------------------|---------------------|---------------------|---------------------|
C#|---------------------|---------------------|---------------------|---------------------|
G#|---------------------|---------------------|---------------------|---------------------|
C#|-5----5----5----5----|-3----3----3----8----|-7----7----7----7----|-2----2----3----2----|


F#|---------------------|---------------------|---------------------|------------------------|
C#|---------------------|---------------------|---------------------|------------------------|
G#|---------------------|---------------------|---------------------|------------------------|
C#|-0----0----0----0----|-0----0----0----8----|-7----7----7----7----|-12---12---12---8---7---|


F#|---------------------|---------------------|---------------------|---------------------|
C#|---------------------|---------------------|---------------------|---------------------|
G#|---------------------|---------------------|---------------------|---------------------|
C#|-5----5----5----5----|-3----3----3----8----|-7----7----7----7----|-2----2----3----2----|


F#|---------------------|---------------------|------------------------|---------------------|
C#|---------------------|---------------------|------------------------|---------------------|
G#|---------------------|---------------------|------------------------|---------------------|
C#|-0----0----0----8----|-7----7----7----7----|-12---12---12---8---7---|-5----5----5----5----|


F#|---------------------|---------------------|---------------------|---------------------|
C#|---------------------|---------------------|---------------------|---------------------|
G#|---------------------|---------------------|---------------------|---------------------|
C#|-3----3----3----8----|-7----7----7----7----|-2----2----3----2----|-1----1---------1----|


F#|---------------------|---------------------|---------------------|---------------------|
C#|---------------------|---------------------|---------------------|---------------------|
G#|---------------------|---------------------|---------------------|---------------------|
C#|-1---------1----1----|------1----1----0----|-3----1----0----1----|-0----0----0----8----|


F#|---------------------|------------------------|---------------------|---------------------|
C#|---------------------|------------------------|---------------------|---------------------|
G#|---------------------|------------------------|---------------------|---------------------|
C#|-7----7----7----7----|-12---12---12---8---7---|-5----5----5----5----|-3----3----3----8----|


F#|---------------------|---------------------|---------------------|---------------------|
C#|---------------------|---------------------|---------------------|---------------------|
G#|---------------------|---------------------|---------------------|---------------------|
C#|-7----7----7----7----|-2----2----3----2----|-1----1---------1----|-1---------1----1----|


F#|---------------------|---------------------|-------------|---------------------|
C#|---------------------|---------------------|-------------|---------------------|
G#|---------------------|---------------------|-------------|---------------------|
C#|------1----1----0----|-3----1----0----1----|-8-----8-----|-8----7----5----7----|


F#|-------------|-------------|-------------|---------------------|-------------|-------------|
C#|-------------|-------------|-------------|---------------------|-------------|-------------|
G#|-------------|-------------|-------------|---------------------|-------------|-------------|
C#|-0-----0-----|-0-----0-----|-8-----8-----|-8----7----5----7----|-0-----0-----|-0-----0-----|


F#|-------------|---------------------|-------------|-------------|-------------|---------------------|
C#|-------------|---------------------|-------------|-------------|-------------|---------------------|
G#|-------------|---------------------|-------------|-------------|-------------|---------------------|
C#|-8-----8-----|-8----7----5----7----|-0-----0-----|-0-----0-----|-8-----8-----|-8----7----5----7----|


F#|---------------------|---------------------|------------------------|---------------------|
C#|---------------------|---------------------|------------------------|---------------------|
G#|---------------------|---------------------|------------------------|---------------------|
C#|-0----0----0----8----|-7----7----7----7----|-12---12---12---8---7---|-5----5----5----5----|


F#|---------------------|---------------------|------------------------|---------------------|
C#|---------------------|---------------------|------------------------|---------------------|
G#|---------------------|---------------------|------------------------|---------------------|
C#|-3----3----3----8----|-7----7----7----7----|-2----2----2----3---2---|-0----0----0----0----|


F#|---------------------|---------------------|------------------------|---------------------|
C#|---------------------|---------------------|------------------------|---------------------|
G#|---------------------|---------------------|------------------------|---------------------|
C#|-0----0----0----8----|-7----7----7----7----|-12---12---12---8---7---|-5----5----5----5----|


F#|---------------------|---------------------|---------------------|--------|--------|
C#|---------------------|---------------------|---------------------|--------|--------|
G#|---------------------|---------------------|---------------------|--------|--------|
C#|-3----3----3----8----|-7----7----7----7----|-2----2----3----2----|-0------|-0------|


F#|--------|--------|--------|--------|--------|--------|--------|
C#|--------|--------|--------|--------|--------|--------|--------|
G#|--------|--------|--------|--------|--------|--------|--------|
C#|-0------|-0------|--------|--------|--------|--------|--------|





Track 4: John - drums

F#|--------|--------|--------|--------|--------|--------|--------|--------|--------|
C#|--------|--------|--------|--------|--------|--------|--------|--------|--------|
G#|--------|--------|--------|--------|--------|--------|--------|--------|--------|
C#|--------|--------|--------|--------|--------|--------|--------|--------|--------|


F#|--------|--------|--------|--------|--------|--------|------0----0----------0----|
C#|--------|--------|--------|--------|--------|--------|---------------------------|
G#|--------|--------|--------|--------|--------|--------|---------------------------|
C#|--------|--------|--------|--------|--------|--------|-0------------0---0--------|


F#|------0----0----------0----|------0----0----------0----|------0----0----------0----|
C#|---------------------------|---------------------------|---------------------------|
G#|---------------------------|---------------------------|---------------------------|
C#|-0------------0---0--------|-0------------0---0--------|-0------------0---0--------|


F#|------0----0----------0----|------0----0----------0----|------0----0----------0----|
C#|---------------------------|---------------------------|---------------------------|
G#|---------------------------|---------------------------|---------------------------|
C#|-0------------0---0--------|-0------------0---0--------|-0------------0---0--------|


F#|-----0---0-------0---------0------0--|-----------0---------|-------0-----|-----------0---------|
C#|-------------------------------------|---------------------|-------------|---------------------|
G#|-------------------------------------|---------------------|-------------|---------------------|
C#|-0-----------0-------0--0-----0------|-0-----0--------0----|-0-----------|-0-----0--------0----|


F#|-------0-----|-----------0---------|-------0-----|-----------0---------|-------0-----|
C#|-------------|---------------------|-------------|---------------------|-------------|
G#|-------------|---------------------|-------------|---------------------|-------------|
C#|-0-----------|-0-----0--------0----|-0-----------|-0-----0--------0----|-0-----------|


F#|-----------0-----|-------0-----|-----------0---------|-------0-----|-----------0-----|
C#|-----------------|-------------|---------------------|-------------|-----------------|
G#|-----------------|-------------|----------------0----|-------------|-----------------|
C#|-0----0----------|-0-----------|-0-----0-------------|-0-----------|-0----0----------|


F#|-------0-----|-----------0-----|-------0-----|-----------0-----|-------0-----|--------------0---------|
C#|-------------|-----------------|-------------|-----------------|-------------|------------------------|
G#|-------------|-----------------|-------------|-----------------|-------------|------------------------|
C#|-0-----------|-0----0----------|-0-----------|-0----0----------|-0-----------|-0---0----0--------0----|


F#|-------0-----|-----------0-----|-------0-----|-----------0-----|-------0-----|-----------0-----|
C#|-------------|-----------------|-------------|-----------------|-------------|-----------------|
G#|-------------|-----------------|-------------|-----------------|-------------|-----------------|
C#|-0-----------|-0----0----------|-0-----------|-0----0----------|-0-----------|-0----0----------|


F#|-------0-----|--------------0---------|-----------0--0--0--0-------|------0--0--0--0------------|
C#|-------------|------------------------|----------------------------|----------------------------|
G#|-------------|------------------------|----------------------------|----------------------------|
C#|-0-----------|-0---0----0--------0----|-0----0----------------0----|-0----------------0----0----|


F#|-0--0--0--0------------0----|-----------0------------|-----------0---------|-----------0---------|
C#|----------------------------|----------------0-------|---------------------|---------------------|
G#|----------------------------|--------------------0---|---------------------|---------------------|
C#|-------------0----0---------|-0----0-----------------|-0----0----------0---|-0----0----------0---|


F#|-----------0---------|-----------0-------0----|-----------0--0--0--0-------|------0--0--0--0------------|
C#|---------------------|------------------------|----------------------------|----------------------------|
G#|---------------------|------------------------|----------------------------|----------------------------|
C#|-0----0----------0---|-0----0--------0--------|-0----0----------------0----|-0----------------0----0----|


F#|-0--0--0--0------------0----|-----------0------------|-------0---------|-----------0---------|
C#|----------------------------|----------------0-------|-----------------|---------------------|
G#|----------------------------|--------------------0---|-----------------|---------------------|
C#|-------------0----0---------|-0----0-----------------|-0-----------0---|-0----0---------0----|


F#|-------0---------|-----------0---------|-------0---------|-----------0---------|
C#|-----------------|---------------------|-----------------|---------------------|
G#|-----------------|---------------------|-----------------|---------------------|
C#|-0-----------0---|-0----0---------0----|-0-----------0---|-0----0---------0----|


F#|-------0---------|-----------0---------|-------0---------|-----------0---------|
C#|-----------------|---------------------|-----------------|---------------------|
G#|-----------------|---------------------|-----------------|---------------------|
C#|-0-----------0---|-0----0---------0----|-0-----------0---|-0----0---------0----|


F#|-------0---------|-----------0---------|-------0---------|-----------0---------|
C#|-----------------|---------------------|-----------------|---------------------|
G#|-----------------|---------------------|-----------------|---------------------|
C#|-0-----------0---|-0----0---------0----|-0-----------0---|-0----0---------0----|


F#|-----------0---------|-0---------0---------|-0---------0------------|-0---------0---------|
C#|---------------------|---------------------|------------------------|---------------------|
G#|---------------------|---------------------|------------------------|---------------------|
C#|-0-----0--------0----|-------0--------0----|-------0--------0---0---|-------0--------0----|


F#|-0---------0-----------|-0---------0---------|-0---------0---------|-------0-----|
C#|-----------------------|---------------------|----------------0----|-------------|
G#|-----------------------|---------------------|---------------------|-------------|
C#|-------0---------0--0--|-------0--------0----|-------0-------------|-0-----------|


F#|-----------0-----|-------0-----|-----------0-----|-------0-----|-----------0-----|
C#|-----------------|-------------|-----------------|-------------|-----------------|
G#|-----------------|-------------|-----------------|-------------|-----------------|
C#|-0----0----------|-0-----------|-0----0----------|-0-----------|-0----0----------|


F#|-------0-----|--------------0---------|-----------0--0--0--0-------|------0--0--0--0------------|
C#|-------------|------------------------|----------------------------|----------------------------|
G#|-------------|------------------------|----------------------------|----------------------------|
C#|-0-----------|-0---0----0--------0----|-0----0----------------0----|-0----------------0----0----|


F#|-0--0--0--0------------0----|-----------0------------|-----------0---------|-----------0---------|
C#|----------------------------|----------------0-------|---------------------|---------------------|
G#|----------------------------|--------------------0---|---------------------|---------------------|
C#|-------------0----0---------|-0----0-----------------|-0----0----------0---|-0----0----------0---|


F#|-----------0---------|-----------0-------0----|-----------0--0--0--0-------|------0--0--0--0------------|
C#|---------------------|------------------------|----------------------------|----------------------------|
G#|---------------------|------------------------|----------------------------|----------------------------|
C#|-0----0----------0---|-0----0--------0--------|-0----0----------------0----|-0----------------0----0----|


F#|-0--0--0--0------------0----|-----------0------------|-------0---------|-----------0---------|
C#|----------------------------|----------------0-------|-----------------|---------------------|
G#|----------------------------|--------------------0---|-----------------|---------------------|
C#|-------------0----0---------|-0----0-----------------|-0-----------0---|-0----0---------0----|


F#|-------0---------|-----------0---------|-------0---------|-----------0---------|
C#|-----------------|---------------------|-----------------|---------------------|
G#|-----------------|---------------------|-----------------|---------------------|
C#|-0-----------0---|-0----0---------0----|-0-----------0---|-0----0---------0----|


F#|-------0---------|-----------0---------|-------0---------|-----------0---------|
C#|-----------------|---------------------|-----------------|---------------------|
G#|-----------------|---------------------|-----------------|---------------------|
C#|-0-----------0---|-0----0---------0----|-0-----------0---|-0----0---------0----|


F#|-------0---------|-----------0---------|-------0---------|-----------0---------|
C#|-----------------|---------------------|-----------------|---------------------|
G#|-----------------|---------------------|-----------------|---------------------|
C#|-0-----------0---|-0----0---------0----|-0-----------0---|-0----0---------0----|


F#|---------------------|---------------------|---------------------|---------------------|
C#|---------------------|---------------------|---------------------|---------------------|
G#|---------------------|---------------------|---------------------|---------------------|
C#|-0----0----0----0----|-0----0----0----0----|-0----0----0----0----|-0----0----0----0----|


F#|---------------------------------|---------------------------------|---------------------------------|
C#|---------------------------------|---------------------------------|---------------------------------|
G#|-0---0---0---0---0---0---0---0---|-0---0---0---0---0---0---0---0---|-0---0---0---0---0---0---0---0---|
C#|-0-------0-------0-------0-------|-0-------0-------0-------0-------|-0-------0-------0-------0-------|


F#|---------------------------------|---------0--0--0--0----------0--0--0--0--|---------0--0--0--0----------0--0--0--0--|
C#|---------------------------------|-----------------------------------------|-----------------------------------------|
G#|-0---0---0---0---0---0---0---0---|-----------------------------------------|-----------------------------------------|
C#|-0-------0-------0-------0-------|-0---0---------------0---0---------------|-0---0---------------0---0---------------|


F#|---------0--0--0--0----------0--0--0--0--|---------0--0--0--0----------0--0--0--0--|
C#|-----------------------------------------|-----------------------------------------|
G#|-----------------------------------------|-----------------------------------------|
C#|-0---0---------------0---0---------------|-0---0---------------0---0---------------|


F#|------0----0----------0----|------0----0----------0----|------0----0----------0----|
C#|---------------------------|---------------------------|---------------------------|
G#|---------------------------|---------------------------|---------------------------|
C#|-0------------0---0--------|-0------------0---0--------|-0------------0---0--------|


F#|------0----0----------0----|------0----0----------0----|------0----0----------0----|
C#|---------------------------|---------------------------|---------------------------|
G#|---------------------------|---------------------------|---------------------------|
C#|-0------------0---0--------|-0------------0---0--------|-0------------0---0--------|


F#|------0----0----------0----|------0----0----------0----|------0----0----------0----|
C#|---------------------------|---------------------------|---------------------------|
G#|---------------------------|---------------------------|---------------------------|
C#|-0------------0---0--------|-0------------0---0--------|-0------------0---0--------|


F#|------0----0----------0----|------0----0----------0----|------0----0----------0----|
C#|---------------------------|---------------------------|---------------------------|
G#|---------------------------|---------------------------|---------------------------|
C#|-0------------0---0--------|-0------------0---0--------|-0------------0---0--------|


F#|------0----0----------0----|------0----0----------0----|------0----0----------0----|
C#|---------------------------|---------------------------|---------------------------|
G#|---------------------------|---------------------------|---------------------------|
C#|-0------------0---0--------|-0------------0---0--------|-0------------0---0--------|


F#|------0----0----------0----|------0----0----------0----|------0----0----------0----|
C#|---------------------------|---------------------------|---------------------------|
G#|---------------------------|---------------------------|---------------------------|
C#|-0------------0---0--------|-0------------0---0--------|-0------------0---0--------|


F#|------0----0----------0----|------0----0----------0----|------0----0----------0----|
C#|---------------------------|---------------------------|---------------------------|
G#|---------------------------|---------------------------|---------------------------|
C#|-0------------0---0--------|-0------------0---0--------|-0------------0---0--------|


F#|------0----0----------0----|-----------0--0--0--0-------|------0--0--0--0------------|
C#|---------------------------|----------------------------|----------------------------|
G#|---------------------------|----------------------------|----------------------------|
C#|-0------------0---0--------|-0----0----------------0----|-0----------------0----0----|


F#|-0--0--0--0------------0----|-----------0------------|------0----0----------0----|
C#|----------------------------|----------------0-------|---------------------------|
G#|----------------------------|--------------------0---|---------------------------|
C#|-------------0----0---------|-0----0-----------------|-0------------0---0--------|


F#|------0----0----------0----|------0----0----------0----|------0----0----------0----|
C#|---------------------------|---------------------------|---------------------------|
G#|---------------------------|---------------------------|---------------------------|
C#|-0------------0---0--------|-0------------0---0--------|-0------------0---0--------|


F#|------0----0----------0----|------0----0----------0----|------0----0----------0----|
C#|---------------------------|---------------------------|---------------------------|
G#|---------------------------|---------------------------|---------------------------|
C#|-0------------0---0--------|-0------------0---0--------|-0------------0---0--------|


F#|-----------0--0--0--0-------|------0--0--0--0------------|-0--0--0--0------------0----|
C#|----------------------------|----------------------------|----------------------------|
G#|----------------------------|----------------------------|----------------------------|
C#|-0----0----------------0----|-0----------------0----0----|-------------0----0---------|


F#|-----------0------------|-------0---------|-----------0---------|-------0---------|
C#|----------------0-------|-----------------|---------------------|-----------------|
G#|--------------------0---|-----------------|---------------------|-----------------|
C#|-0----0-----------------|-0-----------0---|-0----0---------0----|-0-----------0---|


F#|-----------0---------|-------0---------|-----------0---------|-------0---------|
C#|---------------------|-----------------|---------------------|-----------------|
G#|---------------------|-----------------|---------------------|-----------------|
C#|-0----0---------0----|-0-----------0---|-0----0---------0----|-0-----------0---|


F#|-----------0---------|-------0---------|-----------0---------|-------0---------|
C#|---------------------|-----------------|---------------------|-----------------|
G#|---------------------|-----------------|---------------------|-----------------|
C#|-0----0---------0----|-0-----------0---|-0----0---------0----|-0-----------0---|


F#|-----------0---------|-------0---------|-----------0---------|------0----0----------0----|
C#|---------------------|-----------------|---------------------|---------------------------|
G#|---------------------|-----------------|---------------------|---------------------------|
C#|-0----0---------0----|-0-----------0---|-0----0---------0----|-0------------0---0--------|


F#|------0----0----------0----|------0----0----------0----|------0----0----------0----|
C#|---------------------------|---------------------------|---------------------------|
G#|---------------------------|---------------------------|---------------------------|
C#|-0------------0---0--------|-0------------0---0--------|-0------------0---0--------|


F#|------0----0----------0----|------0----0----------0----|------0----0----------0----|
C#|---------------------------|---------------------------|---------------------------|
G#|---------------------------|---------------------------|---------------------------|
C#|-0------------0---0--------|-0------------0---0--------|-0------------0---0--------|


F#|-----0---0-------0---------0------0--|-----------0---------|-------0-----|-----------0---------|
C#|-------------------------------------|---------------------|-------------|---------------------|
G#|-------------------------------------|---------------------|-------------|---------------------|
C#|-0-----------0-------0--0-----0------|-0-----0--------0----|-0-----------|-0-----0--------0----|


F#|-------0-----|-----------0---------|-------0-----|-----------0---------|--------|
C#|-------------|---------------------|-------------|-----------------0---|--------|
G#|-------------|---------------------|-------------|---------------------|--------|
C#|-0-----------|-0-----0--------0----|-0-----------|-0-----0-------------|-0------|


F#|--------|--------|--------|--------|--------|--------|--------|--------|
C#|--------|--------|--------|--------|--------|--------|--------|--------|
G#|--------|--------|--------|--------|--------|--------|--------|--------|
C#|--------|--------|--------|--------|--------|--------|--------|--------|