Menu:

 

Search:

 

system of a down - highway song:

 



Title: Highway Song
Artist: 
Album: Steal this Album!
Author: System Of A Down


Track 1: Distortion

D|---------------------------|---------------------------|---------------------------|
A|---------------------------|---------------------------|---------------------------|
F|---------------------------|---------------------------|---------------------------|
C|-0---0--------0---0--------|-0---0--------0---0--------|-0---0--------0---0--------|
G|-0---0--------0---0--------|-0---0--------0---0--------|-0---0--------0---0--------|
C|-0---0--------0---0--------|-0---0--------0---0--------|-0---0--------0---0--------|


D|---------------------------|-------------------------------------|-------------------------------------|
A|---------------------------|-------------------------------------|-------------------------------------|
F|---------------------------|-------------------------------------|-------------------------------------|
C|-0---0--------0---0--------|-------------------------------------|-------------------------------------|
G|-0---0--------0---0--------|-0---0---0--0--0---0---0---0--0--0---|-0---0---0--0--0---0---0---0--0--0---|
C|-0---0--------0---0--------|-0---0---0--0--0---0---0---0--0--0---|-0---0---0--0--0---0---0---0--0--0---|


D|-------------------------------------|-------------------------------------|-----------------------------------|
A|-------------------------------------|-------------------------------------|-----------------------------------|
F|-------------------------------------|-------------------------------------|-----------------------------------|
C|-------------------------------------|-------------------------------------|---------5--5--5-----------5---5---|
G|-0---0---0--0--0---0---0---0--0--0---|-0---0---0--0--0---0---0---0--0--0---|-0---0-------------0---0-----------|
C|-0---0---0--0--0---0---0---0--0--0---|-0---0---0--0--0---0---0---0--0--0---|-0---0-------------0---0-----------|


D|-----------------------------------|-----------------------------------|-----------------------------------|
A|-----------------------------------|-----------------------------------|-----------------------------------|
F|---------5--5--5-------------------|-----------------------------------|---------------------------5-------|
C|---------5--5--5-----------5---5---|---------5--5--5-----------5---5---|---------5--5--5-----------5---5---|
G|-0---0-------------0---0-----------|-0---0-------------0---0-----------|-0---0-------------0---0-----------|
C|-0---0-------------0---0-----------|-0---0-------------0---0-----------|-0---0-------------0---0-----------|


D|--------|--------|--------|--------|--------|--------|--------|--------|--------|
A|--------|--------|--------|--------|--------|--------|--------|--------|--------|
F|--------|--------|--------|--------|--------|--------|--------|--------|--------|
C|--------|--------|--------|--------|--------|--------|--------|--------|--------|
G|--------|--------|--------|--------|--------|--------|--------|--------|--------|
C|--------|--------|--------|--------|--------|--------|--------|--------|--------|


D|--------|--------|--------|--------|--------|--------|--------|-------------------------------------|
A|--------|--------|--------|--------|--------|--------|--------|-------------------------------------|
F|--------|--------|--------|--------|--------|--------|--------|-------------------------------------|
C|--------|--------|--------|--------|--------|--------|--------|-7---7---8---7--7---7--7--7--8---7---|
G|--------|--------|--------|--------|--------|--------|--------|-5---5---5---5--5---5--5--5--5---5---|
C|--------|--------|--------|--------|--------|--------|--------|-------------------------------------|


D|-------------------------------------|-------------------------------------|-------------------------------------|
A|-------------------------------------|-------------------------------------|-------------------------------------|
F|-------------------------------------|-------------------------------------|-------------------------------------|
C|-6---6---7---6--6---6--6--6--7---6---|-------------------------------------|-------------------------------------|
G|-4---4---4---4--4---4--4--4--4---4---|-7---7---8---7--7---7--7--7--8---7---|-10--10--11--10-10--10-10-10-11--10--|
C|-------------------------------------|-7---7---7---7--7---7--7--7--7---7---|-10--10--10--10-10--10-10-10-10--10--|


D|-------------------------------------|-------------------------------------|-------------------------------------|
A|-------------------------------------|-------------------------------------|-------------------------------------|
F|-------------------------------------|-------------------------------------|-------------------------------------|
C|-7---7---8---7--7---7--7--7--8---7---|-6---6---7---6--6---6--6--6--7---6---|-------------------------------------|
G|-5---5---5---5--5---5--5--5--5---5---|-4---4---4---4--4---4--4--4--4---4---|-7---7---8---7--7---7--7--7--8---7---|
C|-------------------------------------|-------------------------------------|-7---7---7---7--7---7--7--7--7---7---|


D|---------------------|--------|--------|--------|--------|--------|--------|--------|
A|---------------------|--------|--------|--------|--------|--------|--------|--------|
F|---------------------|--------|--------|--------|--------|--------|--------|--------|
C|-10---10---10---10---|-12-----|--------|--------|--------|--------|--------|--------|
G|-10---10---10---10---|-12-----|--------|--------|--------|--------|--------|--------|
C|-10---10---10---10---|-12-----|--------|--------|--------|--------|--------|--------|


D|--------|--------|--------|--------|--------|--------|--------|--------|--------|
A|--------|--------|--------|--------|--------|--------|--------|--------|--------|
F|--------|--------|--------|--------|--------|--------|--------|--------|--------|
C|--------|--------|--------|--------|--------|--------|--------|--------|--------|
G|--------|--------|--------|--------|--------|--------|--------|--------|--------|
C|--------|--------|--------|--------|--------|--------|--------|--------|--------|


D|-------------------------------------|-------------------------------------|-------------------------------------|
A|-------------------------------------|-------------------------------------|-------------------------------------|
F|-------------------------------------|-------------------------------------|-------------------------------------|
C|-7---7---8---7--7---7--7--7--8---7---|-6---6---7---6--6---6--6--6--7---6---|-------------------------------------|
G|-5---5---5---5--5---5--5--5--5---5---|-4---4---4---4--4---4--4--4--4---4---|-7---7---8---7--7---7--7--7--8---7---|
C|-------------------------------------|-------------------------------------|-7---7---7---7--7---7--7--7--7---7---|


D|-------------------------------------|-------------------------------------|-------------------------------------|
A|-------------------------------------|-------------------------------------|-------------------------------------|
F|-------------------------------------|-------------------------------------|-------------------------------------|
C|-------------------------------------|-7---7---8---7--7---7--7--7--8---7---|-6---6---7---6--6---6--6--6--7---6---|
G|-10--10--11--10-10--10-10-10-11--10--|-5---5---5---5--5---5--5--5--5---5---|-4---4---4---4--4---4--4--4--4---4---|
C|-10--10--10--10-10--10-10-10-10--10--|-------------------------------------|-------------------------------------|


D|-------------------------------------|---------------------|-------------------------------------|
A|-------------------------------------|---------------------|-------------------------------------|
F|-------------------------------------|---------------------|-------------------------------------|
C|-------------------------------------|-10---10---10---10---|-7---7---8---7--7---7--7--7--8---7---|
G|-7---7---8---7--7---7--7--7--8---7---|-10---10---10---10---|-5---5---5---5--5---5--5--5--5---5---|
C|-7---7---7---7--7---7--7--7--7---7---|-10---10---10---10---|-------------------------------------|


D|-------------------------------------|-------------------------------------|-------------------------------------|
A|-------------------------------------|-------------------------------------|-------------------------------------|
F|-------------------------------------|-------------------------------------|-------------------------------------|
C|-6---6---7---6--6---6--6--6--7---6---|-------------------------------------|-------------------------------------|
G|-4---4---4---4--4---4--4--4--4---4---|-7---7---8---7--7---7--7--7--8---7---|-10--10--11--10-10--10-10-10-11--10--|
C|-------------------------------------|-7---7---7---7--7---7--7--7--7---7---|-10--10--10--10-10--10-10-10-10--10--|


D|-------------------------------------|-------------------------------------|-------------------------------------|
A|-------------------------------------|-------------------------------------|-------------------------------------|
F|-------------------------------------|-------------------------------------|-------------------------------------|
C|-7---7---8---7--7---7--7--7--8---7---|-6---6---7---6--6---6--6--6--7---6---|-------------------------------------|
G|-5---5---5---5--5---5--5--5--5---5---|-4---4---4---4--4---4--4--4--4---4---|-7---7---8---7--7---7--7--7--8---7---|
C|-------------------------------------|-------------------------------------|-7---7---7---7--7---7--7--7--7---7---|


D|---------------------|--------|--------|--------|--------|--------|--------|--------|
A|---------------------|--------|--------|--------|--------|--------|--------|--------|
F|---------------------|--------|--------|--------|--------|--------|--------|--------|
C|-10---10---10---10---|-0------|--------|--------|--------|--------|--------|--------|
G|-10---10---10---10---|-0------|--------|--------|--------|--------|--------|--------|
C|-10---10---10---10---|-0------|--------|--------|--------|--------|--------|--------|


D|--------|---------------------------|---------------------------|-------------------------------------|
A|--------|---------------------------|---------------------------|-------------------------------------|
F|--------|---------------------------|---------------------------|-------------------------------------|
C|--------|-0---0--------0---0--------|-0---0--------0---0--------|-------------------------------------|
G|--------|-0---0--------0---0--------|-0---0--------0---0--------|-0---0---0--0--0---0---0---0--0--0---|
C|--------|-0---0--------0---0--------|-0---0--------0---0--------|-0---0---0--0--0---0---0---0--0--0---|


D|-------------------------------------|-------------------------------------|---------------------------------|
A|-------------------------------------|-------------------------------------|---------------------------------|
F|-------------------------------------|-------------------------------------|---------------------------------|
C|-------------------------------------|-------------------------------------|---------------------------------|
G|-0---0---0--0--0---0---0---0--0--0---|-0---0---0--0--0---0---0---0--0--0---|-0---0---0---0---0---0---0---0---|
C|-0---0---0--0--0---0---0---0--0--0---|-0---0---0--0--0---0---0---0--0--0---|-0---0---0---0---0---0---0---0---|


D|--------|--------|--------|--------|--------|--------|--------|--------|-------------------------------------|
A|--------|--------|--------|--------|--------|--------|--------|--------|-------------------------------------|
F|--------|--------|--------|--------|--------|--------|--------|--------|-------------------------------------|
C|-0------|-11-----|-7------|-10-----|-0------|-11-----|-7------|-10-----|-------------------------------------|
G|-0------|-11-----|-7------|-10-----|-0------|-11-----|-7------|-10-----|-0---0---0--0--0---0---0---0--0--0---|
C|-0------|-11-----|-7------|-10-----|-0------|-11-----|-7------|-10-----|-0---0---0--0--0---0---0---0--0--0---|


D|-------------------------------------|-------------------------------------|-------------------------------------|
A|-------------------------------------|-------------------------------------|-------------------------------------|
F|-------------------------------------|-------------------------------------|-------------------------------------|
C|-------------------------------------|-------------------------------------|-------------------------------------|
G|-11--11--11-11-11--11--11--11-11-11--|-7---7---7--7--7---7---7---7--7--7---|-10--10--10-10-10--10--10--10-10-10--|
C|-11--11--11-11-11--11--11--11-11-11--|-7---7---7--7--7---7---7---7--7--7---|-10--10--10-10-10--10--10--10-10-10--|


D|-------------------------------------|-------------------------------------|-------------------------------------|
A|-------------------------------------|-------------------------------------|-------------------------------------|
F|-------------------------------------|-------------------------------------|-------------------------------------|
C|-------------------------------------|-------------------------------------|-------------------------------------|
G|-0---0---0--0--0---0---0---0--0--0---|-11--11--11-11-11--11--11--11-11-11--|-7---7---7--7--7---7---7---7--7--7---|
C|-0---0---0--0--0---0---0---0--0--0---|-11--11--11-11-11--11--11--11-11-11--|-7---7---7--7--7---7---7---7--7--7---|


D|-----------------------------------|-------------|--------|--------|--------|--------|
A|-----------------------------------|-------------|--------|--------|--------|--------|
F|-----------------------------------|-------------|--------|--------|--------|--------|
C|-----------------------------------|-0-----------|--------|--------|--------|--------|
G|-10--10--10-10-10--10--10--10--10--|-0-----------|--------|--------|--------|--------|
C|-10--10--10-10-10--10--10--10--10--|-0-----------|--------|--------|--------|--------|


D|--------|--------|--------|--------|--------|--------|--------|--------|--------|
A|--------|--------|--------|--------|--------|--------|--------|--------|--------|
F|--------|--------|--------|--------|--------|--------|--------|--------|--------|
C|--------|--------|--------|--------|--------|--------|--------|--------|--------|
G|--------|--------|--------|--------|--------|--------|--------|--------|--------|
C|--------|--------|--------|--------|--------|--------|--------|--------|--------|


D|--------|--------|-------------------------------------|-------------------------------------|
A|--------|--------|-------------------------------------|-------------------------------------|
F|--------|--------|-------------------------------------|-------------------------------------|
C|--------|--------|-------------------------------------|-------------------------------------|
G|--------|--------|-0---0---0--0--0---0---0---0--0--0---|-0---0---0--0--0---0---0---0--0--0---|
C|--------|--------|-0---0---0--0--0---0---0---0--0--0---|-0---0---0--0--0---0---0---0--0--0---|


D|-------------------------------------|--------------------------------|
A|-------------------------------------|--------------------------------|
F|-------------------------------------|--------------------------------|
C|---------5--5--5-----------5--5--5---|---------5--4--------------0----|
G|-0---0-------------0---0-------------|-0---0---------5---0---0---0----|
C|-0---0-------------0---0-------------|-0---0-------------0---0---0----|





Track 2: Distortion

D|---------------------------|---------------------------|---------------------------|
A|---------------------------|---------------------------|---------------------------|
F|---------------------------|---------------------------|---------------------------|
C|-0---0--------0---0--------|-0---0--------0---0--------|-0---0--------0---0--------|
G|-0---0--------0---0--------|-0---0--------0---0--------|-0---0--------0---0--------|
C|-0---0--------0---0--------|-0---0--------0---0--------|-0---0--------0---0--------|


D|---------------------------|-------------------------------------|-------------------------------------|
A|---------------------------|-------------------------------------|-------------------------------------|
F|---------------------------|-------------------------------------|-------------------------------------|
C|-0---0--------0---0--------|-0---0---0--0--0---0---0---0--0--0---|-0---0---0--0--0---0---0---0--0--0---|
G|-0---0--------0---0--------|-0---0---0--0--0---0---0---0--0--0---|-0---0---0--0--0---0---0---0--0--0---|
C|-0---0--------0---0--------|-0---0---0--0--0---0---0---0--0--0---|-0---0---0--0--0---0---0---0--0--0---|


D|-------------------------------------|-------------------------------------|-----------------------------------|
A|-------------------------------------|-------------------------------------|-----------------------------------|
F|-------------------------------------|-------------------------------------|-----------------------------------|
C|-0---0---0--0--0---0---0---0--0--0---|-0---0---0--0--0---0---0---0--0--0---|-0---0---5--5--5---0---0---5---5---|
G|-0---0---0--0--0---0---0---0--0--0---|-0---0---0--0--0---0---0---0--0--0---|-0---0-------------0---0-----------|
C|-0---0---0--0--0---0---0---0--0--0---|-0---0---0--0--0---0---0---0--0--0---|-0---0-------------0---0-----------|


D|-----------------------------------|-----------------------------------|-----------------------------------|
A|-----------------------------------|-----------------------------------|-----------------------------------|
F|-----------------------------------|-----------------------------------|-----------------------------------|
C|-0---0---5--5--5---0---0---5---5---|-0---0---5--5--5---0---0---5---5---|-0---0---5--5--5---0---0---5---5---|
G|-0---0-------------0---0-----------|-0---0-------------0---0-----------|-0---0-------------0---0-----------|
C|-0---0-------------0---0-----------|-0---0-------------0---0-----------|-0---0-------------0---0-----------|


D|--------|--------|--------|--------|--------|--------|--------|--------|--------|
A|--------|--------|--------|--------|--------|--------|--------|--------|--------|
F|--------|--------|--------|--------|--------|--------|--------|--------|--------|
C|--------|--------|--------|--------|--------|--------|--------|--------|--------|
G|--------|--------|--------|--------|--------|--------|--------|--------|--------|
C|--------|--------|--------|--------|--------|--------|--------|--------|--------|


D|--------|--------|--------|--------|--------|--------|--------|--------|--------|
A|--------|--------|--------|--------|--------|--------|--------|--------|--------|
F|--------|--------|--------|--------|--------|--------|--------|--------|--------|
C|--------|--------|--------|--------|--------|--------|--------|--------|--------|
G|--------|--------|--------|--------|--------|--------|--------|--------|--------|
C|--------|--------|--------|--------|--------|--------|--------|--------|--------|


D|--------|--------|--------|--------|--------|--------|--------|--------|--------|
A|--------|--------|--------|--------|--------|--------|--------|--------|--------|
F|--------|--------|--------|--------|--------|--------|--------|--------|--------|
C|--------|--------|--------|--------|--------|--------|--------|--------|--------|
G|--------|--------|--------|--------|--------|--------|--------|--------|--------|
C|--------|--------|--------|--------|--------|--------|--------|--------|--------|


D|--------|--------|--------|--------|--------|--------|--------|--------|--------|
A|--------|--------|--------|--------|--------|--------|--------|--------|--------|
F|--------|--------|--------|--------|--------|--------|--------|--------|--------|
C|--------|--------|--------|--------|--------|--------|--------|--------|--------|
G|--------|--------|--------|--------|--------|--------|--------|--------|--------|
C|--------|--------|--------|--------|--------|--------|--------|--------|--------|


D|--------|--------|--------|--------|--------|--------|--------|--------|--------|
A|--------|--------|--------|--------|--------|--------|--------|--------|--------|
F|--------|--------|--------|--------|--------|--------|--------|--------|--------|
C|--------|--------|--------|--------|--------|--------|--------|--------|--------|
G|--------|--------|--------|--------|--------|--------|--------|--------|--------|
C|--------|--------|--------|--------|--------|--------|--------|--------|--------|


D|--------|--------|--------|--------|--------|--------|--------|--------|--------|
A|--------|--------|--------|--------|--------|--------|--------|--------|--------|
F|--------|--------|--------|--------|--------|--------|--------|--------|--------|
C|--------|--------|--------|--------|--------|--------|--------|--------|--------|
G|--------|--------|--------|--------|--------|--------|--------|--------|--------|
C|--------|--------|--------|--------|--------|--------|--------|--------|--------|


D|--------|--------|--------|--------|--------|--------|--------|--------|--------|
A|--------|--------|--------|--------|--------|--------|--------|--------|--------|
F|--------|--------|--------|--------|--------|--------|--------|--------|--------|
C|--------|--------|--------|--------|--------|--------|--------|--------|--------|
G|--------|--------|--------|--------|--------|--------|--------|--------|--------|
C|--------|--------|--------|--------|--------|--------|--------|--------|--------|


D|--------|---------------------------|---------------------------|-------------------------------------|
A|--------|---------------------------|---------------------------|-------------------------------------|
F|--------|---------------------------|---------------------------|-------------------------------------|
C|--------|-0---0--------0---0--------|-0---0--------0---0--------|-0---0---0--0--0---0---0---0--0--0---|
G|--------|-0---0--------0---0--------|-0---0--------0---0--------|-0---0---0--0--0---0---0---0--0--0---|
C|--------|-0---0--------0---0--------|-0---0--------0---0--------|-0---0---0--0--0---0---0---0--0--0---|


D|-------------------------------------|-------------------------------------|---------------------------------|
A|-------------------------------------|-------------------------------------|---------------------------------|
F|-------------------------------------|-------------------------------------|---------------------------------|
C|-0---0---0--0--0---0---0---0--0--0---|-0---0---0--0--0---0---0---0--0--0---|-0---0---0---0---0---0---0---0---|
G|-0---0---0--0--0---0---0---0--0--0---|-0---0---0--0--0---0---0---0--0--0---|-0---0---0---0---0---0---0---0---|
C|-0---0---0--0--0---0---0---0--0--0---|-0---0---0--0--0---0---0---0--0--0---|-0---0---0---0---0---0---0---0---|


D|--------|--------|--------|--------|--------|--------|--------|--------|-------------------------------------|
A|--------|--------|--------|--------|--------|--------|--------|--------|-------------------------------------|
F|--------|--------|--------|--------|--------|--------|--------|--------|-------------------------------------|
C|--------|--------|--------|--------|--------|--------|--------|--------|-0---0---0--0--0---0---0---0--0--0---|
G|--------|--------|--------|--------|--------|--------|--------|--------|-0---0---0--0--0---0---0---0--0--0---|
C|--------|--------|--------|--------|--------|--------|--------|--------|-0---0---0--0--0---0---0---0--0--0---|


D|-------------------------------------|-------------------------------------|-------------------------------------|
A|-------------------------------------|-------------------------------------|-------------------------------------|
F|-------------------------------------|-------------------------------------|-------------------------------------|
C|-11--11--11-11-11--11--11--11-11-11--|-7---7---7--7--7---7---7---7--7--7---|-10--10--10-10-10--10--10--10-10-10--|
G|-11--11--11-11-11--11--11--11-11-11--|-7---7---7--7--7---7---7---7--7--7---|-10--10--10-10-10--10--10--10-10-10--|
C|-11--11--11-11-11--11--11--11-11-11--|-7---7---7--7--7---7---7---7--7--7---|-10--10--10-10-10--10--10--10-10-10--|


D|-------------------------------------|-------------------------------------|-------------------------------------|
A|-------------------------------------|-------------------------------------|-------------------------------------|
F|-------------------------------------|-------------------------------------|-------------------------------------|
C|-0---0---0--0--0---0---0---0--0--0---|-11--11--11-11-11--11--11--11-11-11--|-7---7---7--7--7---7---7---7--7--7---|
G|-0---0---0--0--0---0---0---0--0--0---|-11--11--11-11-11--11--11--11-11-11--|-7---7---7--7--7---7---7---7--7--7---|
C|-0---0---0--0--0---0---0---0--0--0---|-11--11--11-11-11--11--11--11-11-11--|-7---7---7--7--7---7---7---7--7--7---|


D|-----------------------------------|--------|--------|--------|--------|--------|
A|-----------------------------------|--------|--------|--------|--------|--------|
F|-----------------------------------|--------|--------|--------|--------|--------|
C|-10--10--10-10-10--10--10--10--10--|--------|--------|--------|--------|--------|
G|-10--10--10-10-10--10--10--10--10--|--------|--------|--------|--------|--------|
C|-10--10--10-10-10--10--10--10--10--|--------|--------|--------|--------|--------|


D|--------|--------|--------|--------|--------|--------|--------|--------|--------|
A|--------|--------|--------|--------|--------|--------|--------|--------|--------|
F|--------|--------|--------|--------|--------|--------|--------|--------|--------|
C|--------|--------|--------|--------|--------|--------|--------|--------|--------|
G|--------|--------|--------|--------|--------|--------|--------|--------|--------|
C|--------|--------|--------|--------|--------|--------|--------|--------|--------|


D|--------|--------|-------------------------------------|-------------------------------------|
A|--------|--------|-------------------------------------|-------------------------------------|
F|--------|--------|-------------------------------------|-------------------------------------|
C|--------|--------|-0---0---5--5--5---0---0---5--5--5---|-0---0---5--5--5---0---0---5--5--5---|
G|--------|--------|-0---0-------------0---0-------------|-0---0-------------0---0-------------|
C|--------|--------|-0---0-------------0---0-------------|-0---0-------------0---0-------------|


D|-------------------------------------|--------------------------------|
A|-------------------------------------|--------------------------------|
F|-------------------------------------|--------------------------------|
C|-0---0---5--5--5---0---0---5--5--5---|-0---0---5--5--5---0---0---5----|
G|-0---0-------------0---0-------------|-0---0-------------0---0--------|
C|-0---0-------------0---0-------------|-0---0-------------0---0--------|





Track 3: Clean

D|--------|--------|--------|--------|--------|--------|--------|--------|--------|
A|--------|--------|--------|--------|--------|--------|--------|--------|--------|
F|--------|--------|--------|--------|--------|--------|--------|--------|--------|
C|--------|--------|--------|--------|--------|--------|--------|--------|--------|
G|--------|--------|--------|--------|--------|--------|--------|--------|--------|
C|--------|--------|--------|--------|--------|--------|--------|--------|--------|


D|--------|--------|--------|-10-----|-10-----|-9------|-9------|-5------|-5------|
A|--------|--------|--------|-10-----|-10-----|-9------|-9------|-5------|-5------|
F|--------|--------|--------|-10-----|-10-----|-9------|-9------|-6------|-6------|
C|--------|--------|--------|-12-----|-12-----|-11-----|-11-----|-7------|-7------|
G|--------|--------|--------|--------|--------|--------|--------|--------|--------|
C|--------|--------|--------|--------|--------|--------|--------|--------|--------|


D|-8------|-8------|-10------------10------|-------10---10------10--|-9-------------------|
A|-8------|-8------|-----10--10--------10--|-10-------------10------|-9-----9---------9---|
F|-9------|-9------|-----------------------|------------------------|------------9--------|
C|-10-----|-10-----|-----------------------|------------------------|---------------------|
G|--------|--------|-----------------------|------------------------|---------------------|
C|--------|--------|-----------------------|------------------------|---------------------|


D|----------9---9-----|-5------|-5------|-8------|-8------|--------|--------|--------|
A|-9------------------|-5------|-5------|-8------|-8------|--------|--------|--------|
F|-----9--------------|-6------|-6------|-9------|-9------|--------|--------|--------|
C|--------------------|-7------|-7------|-10-----|-10-----|--------|--------|--------|
G|--------------------|--------|--------|--------|--------|--------|--------|--------|
C|--------------------|--------|--------|--------|--------|--------|--------|--------|


D|--------|--------|--------|--------|--------|-10-----|-10-----|-9------|-9------|
A|--------|--------|--------|--------|--------|-10-----|-10-----|-9------|-9------|
F|--------|--------|--------|--------|--------|-10-----|-10-----|-9------|-9------|
C|--------|--------|--------|--------|--------|-12-----|-12-----|-11-----|-11-----|
G|--------|--------|--------|--------|--------|--------|--------|--------|--------|
C|--------|--------|--------|--------|--------|--------|--------|--------|--------|


D|-5------|-5------|-8------|-8------|------------------13----------|---------------------|
A|-5------|-5------|-8------|-8------|-15-------------------15------|-------15---15-------|
F|-6------|-6------|-9------|-9------|-----14-------------------14--|-14-------------14---|
C|-7------|-7------|-10-----|-10-----|---------12---12--------------|---------------------|
G|--------|--------|--------|--------|------------------------------|---------------------|
C|--------|--------|--------|--------|------------------------------|---------------------|


D|------------------12----------|-12---------12-------|-5------|-5------|-8------|
A|-14-------------------14------|----------------14---|-5------|-5------|-8------|
F|-----13-------------------13--|-------13------------|-6------|-6------|-9------|
C|---------11---11--------------|---------------------|-7------|-7------|-10-----|
G|------------------------------|---------------------|--------|--------|--------|
C|------------------------------|---------------------|--------|--------|--------|


D|-8------|--------|--------|--------|--------|--------|--------|--------|--------|
A|-8------|--------|--------|--------|--------|--------|--------|--------|--------|
F|-9------|--------|--------|--------|--------|--------|--------|--------|--------|
C|-10-----|--------|--------|--------|--------|--------|--------|--------|--------|
G|--------|--------|--------|--------|--------|--------|--------|--------|--------|
C|--------|--------|--------|--------|--------|--------|--------|--------|--------|


D|--------|--------|--------|--------|--------|--------|--------|--------|--------|
A|--------|--------|--------|--------|--------|--------|--------|--------|--------|
F|--------|--------|--------|--------|--------|--------|--------|--------|--------|
C|--------|--------|--------|--------|--------|--------|--------|--------|--------|
G|--------|--------|--------|--------|--------|--------|--------|--------|--------|
C|--------|--------|--------|--------|--------|--------|--------|--------|--------|


D|--------|--------|--------|--------|--------|--------|--------|--------|--------|
A|--------|--------|--------|--------|--------|--------|--------|--------|--------|
F|--------|--------|--------|--------|--------|--------|--------|--------|--------|
C|--------|--------|--------|--------|--------|--------|--------|--------|--------|
G|--------|--------|--------|--------|--------|--------|--------|--------|--------|
C|--------|--------|--------|--------|--------|--------|--------|--------|--------|


D|--------|--------|--------|--------|--------|--------|--------|--------|--------|
A|--------|--------|--------|--------|--------|--------|--------|--------|--------|
F|--------|--------|--------|--------|--------|--------|--------|--------|--------|
C|--------|--------|--------|--------|--------|--------|--------|--------|--------|
G|--------|--------|--------|--------|--------|--------|--------|--------|--------|
C|--------|--------|--------|--------|--------|--------|--------|--------|--------|


D|--------|--------|--------|--------|--------|--------|--------|--------|--------|
A|--------|--------|--------|--------|--------|--------|--------|--------|--------|
F|--------|--------|--------|--------|--------|--------|--------|--------|--------|
C|--------|--------|--------|--------|--------|--------|--------|--------|--------|
G|--------|--------|--------|--------|--------|--------|--------|--------|--------|
C|--------|--------|--------|--------|--------|--------|--------|--------|--------|


D|--------|--------|--------|--------|--------|--------|--------|--------|--------|
A|--------|--------|--------|--------|--------|--------|--------|--------|--------|
F|--------|--------|--------|--------|--------|--------|--------|--------|--------|
C|--------|--------|--------|--------|--------|--------|--------|--------|--------|
G|--------|--------|--------|--------|--------|--------|--------|--------|--------|
C|--------|--------|--------|--------|--------|--------|--------|--------|--------|


D|--------|--------|--------|--------|--------|--------|--------|--------|--------|
A|--------|--------|--------|--------|--------|--------|--------|--------|--------|
F|--------|--------|--------|--------|--------|--------|--------|--------|--------|
C|--------|--------|--------|--------|--------|--------|--------|--------|--------|
G|--------|--------|--------|--------|--------|--------|--------|--------|--------|
C|--------|--------|--------|--------|--------|--------|--------|--------|--------|


D|--------|--------|--------|--------|
A|--------|--------|--------|--------|
F|--------|--------|--------|--------|
C|--------|--------|--------|--------|
G|--------|--------|--------|--------|
C|--------|--------|--------|--------|





Track 4: Grunge

D|--------|--------|--------|--------|--------|--------|--------|--------|--------|
A|--------|--------|--------|--------|--------|--------|--------|--------|--------|
F|--------|--------|--------|--------|--------|--------|--------|--------|--------|
C|--------|--------|--------|--------|--------|--------|--------|--------|--------|
G|--------|--------|--------|--------|--------|--------|--------|--------|--------|
C|--------|--------|--------|--------|--------|--------|--------|--------|--------|


D|--------|--------|--------|-5------|-5------|-4------|-4------|--------|--------|
A|--------|--------|--------|-6------|-6------|-5------|-5------|-2------|-2------|
F|--------|--------|--------|-7------|-7------|-6------|-6------|-2------|-2------|
C|--------|--------|--------|-7------|-7------|-6------|-6------|-2------|-2------|
G|--------|--------|--------|-5------|-5------|-4------|-4------|-0------|-0------|
C|--------|--------|--------|--------|--------|--------|--------|--------|--------|


D|--------|--------|-1----------------3-----------|-1-----------0---0---------------|
A|-5------|-5------|-----3----------------3-------|-----3-------3-------3-----------|
F|-5------|-5------|---------2----2-----------2---|---------2---2-----------2-------|
C|-5------|-5------|------------------------------|-------------0---------------0---|
G|-3------|-3------|------------------------------|---------------------------------|
C|--------|--------|------------------------------|---------------------------------|


D|-----------------4---|-4-------------------|--------|--------|--------|--------|
A|---------------------|-----5---------------|-2------|-2------|-5------|-5------|
F|-------6-------------|----------6----------|-2------|-2------|-5------|-5------|
C|------------6--------|---------------6-----|-2------|-2------|-5------|-5------|
G|-4-------------------|---------------------|-0------|-0------|-3------|-3------|
C|---------------------|---------------------|--------|--------|--------|--------|


D|--------|--------|--------|--------|--------|--------|--------|--------|-5------|
A|--------|--------|--------|--------|--------|--------|--------|--------|-6------|
F|--------|--------|--------|--------|--------|--------|--------|--------|-7------|
C|--------|--------|--------|--------|--------|--------|--------|--------|-7------|
G|--------|--------|--------|--------|--------|--------|--------|--------|-5------|
C|--------|--------|--------|--------|--------|--------|--------|--------|--------|


D|-5------|-4------|-4------|--------|--------|--------|--------|-1----------------3-----------|
A|-6------|-5------|-5------|-2------|-2------|-5------|-5------|-----3----------------3-------|
F|-7------|-6------|-6------|-2------|-2------|-5------|-5------|---------2----2-----------2---|
C|-7------|-6------|-6------|-2------|-2------|-5------|-5------|------------------------------|
G|-5------|-4------|-4------|-0------|-0------|-3------|-3------|------------------------------|
C|--------|--------|--------|--------|--------|--------|--------|------------------------------|


D|-1-----------0---0---------------|-----------------4---|-4----------------------|
A|-----3---------------3-----------|---------------------|-----5------------------|
F|---------2---------------2-------|-------6-------------|----------6-------------|
C|-----------------------------0---|------------6--------|---------------6--------|
G|---------------------------------|-4-------------------|--------------------4---|
C|---------------------------------|---------------------|------------------------|


D|--------|--------|--------|------------------|--------|--------|--------|--------|
A|-2------|-2------|-5------|------------------|--------|--------|--------|--------|
F|-2------|-2------|-5------|-5-----5-----5----|--------|--------|--------|--------|
C|-2------|-2------|-5------|-5-----5-----5----|--------|--------|--------|--------|
G|-0------|-0------|-3------|-3-----3-----3----|--------|--------|--------|--------|
C|--------|--------|--------|------------------|--------|--------|--------|--------|


D|--------|--------|--------|--------|--------|--------|--------|--------|--------|
A|--------|--------|--------|--------|--------|--------|--------|--------|--------|
F|--------|--------|--------|--------|--------|--------|--------|--------|--------|
C|--------|--------|--------|--------|--------|--------|--------|--------|--------|
G|--------|--------|--------|--------|--------|--------|--------|--------|--------|
C|--------|--------|--------|--------|--------|--------|--------|--------|--------|


D|--------|--------|--------|--------|--------|--------|--------|--------|--------|
A|--------|--------|--------|--------|--------|--------|--------|--------|--------|
F|--------|--------|--------|--------|--------|--------|--------|--------|--------|
C|--------|--------|--------|--------|--------|--------|--------|--------|--------|
G|--------|--------|--------|--------|--------|--------|--------|--------|--------|
C|--------|--------|--------|--------|--------|--------|--------|--------|--------|


D|--------|--------|--------|--------|--------|--------|--------|--------|--------|
A|--------|--------|--------|--------|--------|--------|--------|--------|--------|
F|--------|--------|--------|--------|--------|--------|--------|--------|--------|
C|--------|--------|--------|--------|--------|--------|--------|--------|--------|
G|--------|--------|--------|--------|--------|--------|--------|--------|--------|
C|--------|--------|--------|--------|--------|--------|--------|--------|--------|


D|--------|--------|--------|--------|--------|--------|--------|--------|--------|
A|--------|--------|--------|--------|--------|--------|--------|--------|--------|
F|--------|--------|--------|--------|--------|--------|--------|--------|--------|
C|--------|--------|--------|--------|--------|--------|--------|--------|--------|
G|--------|--------|--------|--------|--------|--------|--------|--------|--------|
C|--------|--------|--------|--------|--------|--------|--------|--------|--------|


D|--------|--------|--------|--------|--------|--------|--------|--------|--------|
A|--------|--------|--------|--------|--------|--------|--------|--------|--------|
F|--------|--------|--------|--------|--------|--------|--------|--------|--------|
C|--------|--------|--------|--------|--------|--------|--------|--------|--------|
G|--------|--------|--------|--------|--------|--------|--------|--------|--------|
C|--------|--------|--------|--------|--------|--------|--------|--------|--------|


D|--------|--------|--------|--------|--------|--------|--------|--------|--------|
A|--------|--------|--------|--------|--------|--------|--------|--------|--------|
F|--------|--------|--------|--------|--------|--------|--------|--------|--------|
C|--------|--------|--------|--------|--------|--------|--------|--------|--------|
G|--------|--------|--------|--------|--------|--------|--------|--------|--------|
C|--------|--------|--------|--------|--------|--------|--------|--------|--------|


D|--------|--------|--------|--------|--------|--------|--------|--------|
A|--------|--------|--------|--------|--------|--------|--------|--------|
F|--------|--------|--------|--------|--------|--------|--------|--------|
C|--------|--------|--------|--------|--------|--------|--------|--------|
G|--------|--------|--------|--------|--------|--------|--------|--------|
C|--------|--------|--------|--------|--------|--------|--------|--------|





Track 5: Clean

D|--------|--------|--------|--------|--------|--------|--------|--------|--------|
A|--------|--------|--------|--------|--------|--------|--------|--------|--------|
F|--------|--------|--------|--------|--------|--------|--------|--------|--------|
C|--------|--------|--------|--------|--------|--------|--------|--------|--------|
G|--------|--------|--------|--------|--------|--------|--------|--------|--------|
C|--------|--------|--------|--------|--------|--------|--------|--------|--------|


D|--------|--------|--------|--------|--------|--------|--------|--------|--------|
A|--------|--------|--------|--------|--------|--------|--------|--------|--------|
F|--------|--------|--------|--------|--------|--------|--------|--------|--------|
C|--------|--------|--------|--------|--------|--------|--------|--------|--------|
G|--------|--------|--------|--------|--------|--------|--------|--------|--------|
C|--------|--------|--------|--------|--------|--------|--------|--------|--------|


D|--------|--------|--------|--------|--------|--------|--------|--------|--------|
A|--------|--------|--------|--------|--------|--------|--------|--------|--------|
F|--------|--------|--------|--------|--------|--------|--------|--------|--------|
C|--------|--------|--------|--------|--------|--------|--------|--------|--------|
G|--------|--------|--------|--------|--------|--------|--------|--------|--------|
C|--------|--------|--------|--------|--------|--------|--------|--------|--------|


D|--------|--------|--------|--------|--------|--------|--------|--------|--------|
A|--------|--------|--------|--------|--------|--------|--------|--------|--------|
F|--------|--------|--------|--------|--------|--------|--------|--------|--------|
C|--------|--------|--------|--------|--------|--------|--------|--------|--------|
G|--------|--------|--------|--------|--------|--------|--------|--------|--------|
C|--------|--------|--------|--------|--------|--------|--------|--------|--------|


D|--------|--------|--------|--------|--------|--------|--------|--------|--------|
A|--------|--------|--------|--------|--------|--------|--------|--------|--------|
F|--------|--------|--------|--------|--------|--------|--------|--------|--------|
C|--------|--------|--------|--------|--------|--------|--------|--------|--------|
G|--------|--------|--------|--------|--------|--------|--------|--------|--------|
C|--------|--------|--------|--------|--------|--------|--------|--------|--------|


D|--------|--------|--------|--------|--------|--------|--------|--------|--------|
A|--------|--------|--------|--------|--------|--------|--------|--------|--------|
F|--------|--------|--------|--------|--------|--------|--------|--------|--------|
C|--------|--------|--------|--------|--------|--------|--------|--------|--------|
G|--------|--------|--------|--------|--------|--------|--------|--------|--------|
C|--------|--------|--------|--------|--------|--------|--------|--------|--------|


D|--------|--------|--------|--------|--------|--------|--------|--------|--------|
A|--------|--------|--------|--------|--------|--------|--------|--------|--------|
F|--------|--------|--------|--------|--------|--------|--------|--------|--------|
C|--------|--------|--------|--------|--------|--------|--------|--------|--------|
G|--------|--------|--------|--------|--------|--------|--------|--------|--------|
C|--------|--------|--------|--------|--------|--------|--------|--------|--------|


D|--------|--------|--------|--------|--------|-----10--12-------10-----12--10--|-----10--12-------10-----12--10--|
A|--------|--------|--------|--------|--------|-10-----------10------10---------|-9------------9-------9----------|
F|--------|--------|--------|--------|--------|---------------------------------|---------------------------------|
C|--------|--------|--------|--------|--------|---------------------------------|---------------------------------|
G|--------|--------|--------|--------|--------|---------------------------------|---------------------------------|
C|--------|--------|--------|--------|--------|---------------------------------|---------------------------------|


D|-----13--12-------13-----13--12--|-----13--12-------13-----13--12--|-----10--12-------10-----12--10--|
A|-11-----------11------11---------|-10-----------10------10---------|-10-----------10------10---------|
F|---------------------------------|---------------------------------|---------------------------------|
C|---------------------------------|---------------------------------|---------------------------------|
G|---------------------------------|---------------------------------|---------------------------------|
C|---------------------------------|---------------------------------|---------------------------------|


D|-----10--12-------10-----12--10--|-----13--12-------13-----13--12--|-----13--12-------13-----13--12--|
A|-9------------9-------9----------|-11-----------11------11---------|-10-----------10------10---------|
F|---------------------------------|---------------------------------|---------------------------------|
C|---------------------------------|---------------------------------|---------------------------------|
G|---------------------------------|---------------------------------|---------------------------------|
C|---------------------------------|---------------------------------|---------------------------------|


D|--------|--------|--------|--------|--------|--------|--------|--------|--------|
A|--------|--------|--------|--------|--------|--------|--------|--------|--------|
F|--------|--------|--------|--------|--------|--------|--------|--------|--------|
C|--------|--------|--------|--------|--------|--------|--------|--------|--------|
G|--------|--------|--------|--------|--------|--------|--------|--------|--------|
C|--------|--------|--------|--------|--------|--------|--------|--------|--------|


D|--------|--------|--------|--------|--------|--------|--------|--------|--------|
A|--------|--------|--------|--------|--------|--------|--------|--------|--------|
F|--------|--------|--------|--------|--------|--------|--------|--------|--------|
C|--------|--------|--------|--------|--------|--------|--------|--------|--------|
G|--------|--------|--------|--------|--------|--------|--------|--------|--------|
C|--------|--------|--------|--------|--------|--------|--------|--------|--------|


D|--------|--------|--------|--------|-----10--12-------10-----12--10--|-----10--12-------10-----12--10--|
A|--------|--------|--------|--------|-10-----------10------10---------|-9------------9-------9----------|
F|--------|--------|--------|--------|---------------------------------|---------------------------------|
C|--------|--------|--------|--------|---------------------------------|---------------------------------|
G|--------|--------|--------|--------|---------------------------------|---------------------------------|
C|--------|--------|--------|--------|---------------------------------|---------------------------------|


D|-----13--12-------13-----13--12--|-----13--12-------13-----13--12--|-----10--12-------10-----12--10--|
A|-11-----------11------11---------|-10-----------10------10---------|-10-----------10------10---------|
F|---------------------------------|---------------------------------|---------------------------------|
C|---------------------------------|---------------------------------|---------------------------------|
G|---------------------------------|---------------------------------|---------------------------------|
C|---------------------------------|---------------------------------|---------------------------------|


D|-----10--12-------10-----12--10--|-----13--12-------13-----13--12--|-----13--12-------13-----13--12--|
A|-9------------9-------9----------|-11-----------11------11---------|-10-----------10------10---------|
F|---------------------------------|---------------------------------|---------------------------------|
C|---------------------------------|---------------------------------|---------------------------------|
G|---------------------------------|---------------------------------|---------------------------------|
C|---------------------------------|---------------------------------|---------------------------------|


D|-----10--12-------10-----12--10--|-----10--12-------10-----12--10--|-----13--12-------13-----13--12--|
A|-10-----------10------10---------|-9------------9-------9----------|-11-----------11------11---------|
F|---------------------------------|---------------------------------|---------------------------------|
C|---------------------------------|---------------------------------|---------------------------------|
G|---------------------------------|---------------------------------|---------------------------------|
C|---------------------------------|---------------------------------|---------------------------------|


D|-----13--12-------13-----13--12--|-----10--12-------10-----12--10--|-----10--12-------10-----12--10--|
A|-10-----------10------10---------|-10-----------10------10---------|-9------------9-------9----------|
F|---------------------------------|---------------------------------|---------------------------------|
C|---------------------------------|---------------------------------|---------------------------------|
G|---------------------------------|---------------------------------|---------------------------------|
C|---------------------------------|---------------------------------|---------------------------------|


D|-----13--12-------13-----13--12--|-----13--12-------13-----13--12--|--------|--------|
A|-11-----------11------11---------|-10-----------10------10---------|--------|--------|
F|---------------------------------|---------------------------------|--------|--------|
C|---------------------------------|---------------------------------|--------|--------|
G|---------------------------------|---------------------------------|--------|--------|
C|---------------------------------|---------------------------------|--------|--------|


D|--------|--------|
A|--------|--------|
F|--------|--------|
C|--------|--------|
G|--------|--------|
C|--------|--------|





Track 6: Marimba

D|--------|--------|--------|--------|--------|--------|--------|--------|--------|
A|--------|--------|--------|--------|--------|--------|--------|--------|--------|
F|--------|--------|--------|--------|--------|--------|--------|--------|--------|
C|--------|--------|--------|--------|--------|--------|--------|--------|--------|
G|--------|--------|--------|--------|--------|--------|--------|--------|--------|
C|--------|--------|--------|--------|--------|--------|--------|--------|--------|


D|--------|--------|--------|--------|--------|--------|--------|--------|--------|
A|--------|--------|--------|--------|--------|--------|--------|--------|--------|
F|--------|--------|--------|--------|--------|--------|--------|--------|--------|
C|--------|--------|--------|--------|--------|--------|--------|--------|--------|
G|--------|--------|--------|--------|--------|--------|--------|--------|--------|
C|--------|--------|--------|--------|--------|--------|--------|--------|--------|


D|--------|--------|--------|--------|--------|--------|--------|--------|--------|
A|--------|--------|--------|--------|--------|--------|--------|--------|--------|
F|--------|--------|--------|--------|--------|--------|--------|--------|--------|
C|--------|--------|--------|--------|--------|--------|--------|--------|--------|
G|--------|--------|--------|--------|--------|--------|--------|--------|--------|
C|--------|--------|--------|--------|--------|--------|--------|--------|--------|


D|--------|--------|--------|--------|--------|--------|--------|--------|--------|
A|--------|--------|--------|--------|--------|--------|--------|--------|--------|
F|--------|--------|--------|--------|--------|--------|--------|--------|--------|
C|--------|--------|--------|--------|--------|--------|--------|--------|--------|
G|--------|--------|--------|--------|--------|--------|--------|--------|--------|
C|--------|--------|--------|--------|--------|--------|--------|--------|--------|


D|--------|--------|--------|--------|--------|--------|--------|--------|--------|
A|--------|--------|--------|--------|--------|--------|--------|--------|--------|
F|--------|--------|--------|--------|--------|--------|--------|--------|--------|
C|--------|--------|--------|--------|--------|--------|--------|--------|--------|
G|--------|--------|--------|--------|--------|--------|--------|--------|--------|
C|--------|--------|--------|--------|--------|--------|--------|--------|--------|


D|--------|--------|--------|--------|--------|--------|--------|--------|--------|
A|--------|--------|--------|--------|--------|--------|--------|--------|--------|
F|--------|--------|--------|--------|--------|--------|--------|--------|--------|
C|--------|--------|--------|--------|--------|--------|--------|--------|--------|
G|--------|--------|--------|--------|--------|--------|--------|--------|--------|
C|--------|--------|--------|--------|--------|--------|--------|--------|--------|


D|--------|--------|--------|--------|--------|--------|--------|--------|--------|
A|--------|--------|--------|--------|--------|--------|--------|--------|--------|
F|--------|--------|--------|--------|--------|--------|--------|--------|--------|
C|--------|--------|--------|--------|--------|--------|--------|--------|--------|
G|--------|--------|--------|--------|--------|--------|--------|--------|--------|
C|--------|--------|--------|--------|--------|--------|--------|--------|--------|


D|--------|--------|--------|--------|--------|--------|--------|--------|--------|
A|--------|--------|--------|--------|--------|--------|--------|--------|--------|
F|--------|--------|--------|--------|--------|--------|--------|--------|--------|
C|--------|--------|--------|--------|--------|--------|--------|--------|--------|
G|--------|--------|--------|--------|--------|--------|--------|--------|--------|
C|--------|--------|--------|--------|--------|--------|--------|--------|--------|


D|-----10--12-----|-----10--12-----|-----13--12-----|-----13--12-----|-----10--12-----|
A|-10-------------|-9--------------|-11-------------|-10-------------|-10-------------|
F|----------------|----------------|----------------|----------------|----------------|
C|----------------|----------------|----------------|----------------|----------------|
G|----------------|----------------|----------------|----------------|----------------|
C|----------------|----------------|----------------|----------------|----------------|


D|-----10--12-----|-----10--12-----|-----10--12-----|-----10--12-----|-----10--12-----|
A|-10-------------|-10-------------|-10-------------|-10-------------|-10-------------|
F|----------------|----------------|----------------|----------------|----------------|
C|----------------|----------------|----------------|----------------|----------------|
G|----------------|----------------|----------------|----------------|----------------|
C|----------------|----------------|----------------|----------------|----------------|


D|--------|--------|--------|--------|--------|--------|--------|--------|--------|
A|--------|--------|--------|--------|--------|--------|--------|--------|--------|
F|--------|--------|--------|--------|--------|--------|--------|--------|--------|
C|--------|--------|--------|--------|--------|--------|--------|--------|--------|
G|--------|--------|--------|--------|--------|--------|--------|--------|--------|
C|--------|--------|--------|--------|--------|--------|--------|--------|--------|


D|--------|--------|--------|--------|--------|--------|--------|--------|--------|
A|--------|--------|--------|--------|--------|--------|--------|--------|--------|
F|--------|--------|--------|--------|--------|--------|--------|--------|--------|
C|--------|--------|--------|--------|--------|--------|--------|--------|--------|
G|--------|--------|--------|--------|--------|--------|--------|--------|--------|
C|--------|--------|--------|--------|--------|--------|--------|--------|--------|


D|--------|--------|-----10--12-----|-----10--12-----|-----13--12-----|-----13--12-----|
A|--------|--------|-10-------------|-9--------------|-11-------------|-10-------------|
F|--------|--------|----------------|----------------|----------------|----------------|
C|--------|--------|----------------|----------------|----------------|----------------|
G|--------|--------|----------------|----------------|----------------|----------------|
C|--------|--------|----------------|----------------|----------------|----------------|


D|-----10--12-----|-----10--12-----|-----13--12-----|-----13--12-----|-----10--12---------10-----12--10--|
A|-10-------------|-9--------------|-11-------------|-10-------------|-10----------10-10------10---------|
F|----------------|----------------|----------------|----------------|-----------------------------------|
C|----------------|----------------|----------------|----------------|-----------------------------------|
G|----------------|----------------|----------------|----------------|-----------------------------------|
C|----------------|----------------|----------------|----------------|-----------------------------------|


D|-----10--12---------10-----12--10--|-----13--12---------13-----13--12--|-----13--12---------13-----13--12--|
A|-9-----------9--9-------9----------|-11----------11-11------11---------|-10----------10-10------10---------|
F|-----------------------------------|-----------------------------------|-----------------------------------|
C|-----------------------------------|-----------------------------------|-----------------------------------|
G|-----------------------------------|-----------------------------------|-----------------------------------|
C|-----------------------------------|-----------------------------------|-----------------------------------|


D|--------|--------|--------|--------|
A|--------|--------|--------|--------|
F|--------|--------|--------|--------|
C|--------|--------|--------|--------|
G|--------|--------|--------|--------|
C|--------|--------|--------|--------|





Track 7: Bass

F|---------------------------|---------------------------|---------------------------|
C|---------------------------|---------------------------|---------------------------|
G|---------------------------|---------------------------|---------------------------|
C|-0---0--------0---0--------|-0---0--------0---0--------|-0---0--------0---0--------|


F|---------------------------|-------------------------------------|-------------------------------------|
C|---------------------------|-------------------------------------|-------------------------------------|
G|---------------------------|-------------------------------------|-------------------------------------|
C|-0---0--------0---0--------|-0---0---0--0--0---0---0---0--0--0---|-0---0---0--0--0---0---0---0--0--0---|


F|-------------------------------------|-------------------------------------|-------------------------------------|
C|-------------------------------------|-------------------------------------|-------------------------------------|
G|-------------------------------------|-------------------------------------|-------------------------------------|
C|-0---0---0--0--0---0---0---0--0--0---|-0---0---0--0--0---0---0---0--0--0---|-0---0---0--0--0---0---0---0--0--0---|


F|-------------------------------------|-------------------------------------|-------------------------------------|
C|-------------------------------------|-------------------------------------|-------------------------------------|
G|-------------------------------------|-------------------------------------|-------------------------------------|
C|-0---0---0--0--0---0---0---0--0--0---|-0---0---0--0--0---0---0---0--0--0---|-0---0---0--0--0---0---0---0--0--0---|


F|---------------------|------------------------|---------------------|------------------------|
C|---------------------|------------------------|---------------------|------------------------|
G|-5----5----5----5----|-5----5----5----5---5---|-4----4----4----4----|-4----4----4----4---4---|
C|---------------------|------------------------|---------------------|------------------------|


F|---------------------|------------------------|---------------------|------------------------|
C|---------------------|------------------------|---------------------|------------------------|
G|-0----0----0----0----|-0----0----0----0---0---|-3----3----3----3----|-3----3----3----3---3---|
C|---------------------|------------------------|---------------------|------------------------|


F|------------------------------|---------------------------|------------------------------|
C|------------------------------|---------------------------|------------------------------|
G|-5----5---5---5---5---5---5---|-5---5----5---5----5---5---|-4----4---4---4---4---4---4---|
C|------------------------------|---------------------------|------------------------------|


F|------------------------------|------------------------------|------------------------------|
C|------------------------------|------------------------------|------------------------------|
G|-4---4----4---4---4---4---4---|-0----0---0---0---0---0---0---|-0---0----0---0---0---0---0---|
C|------------------------------|------------------------------|------------------------------|


F|------------------------------|---------------------------------|-------------------------------------|
C|------------------------------|---------------------------------|---------3-------------------3-------|
G|-3----3---3---3---3---3---3---|-3---3---3---3---3---3---3---3---|-5---5-------5--5---5--5--5------5---|
C|------------------------------|---------------------------------|-------------------------------------|


F|-------------------------------------|-------------------------------------|-------------------------------------|
C|---------2-------------------2-------|-------------------------------------|---------2-------------------2-------|
G|-4---4-------4--4---4--4--4------4---|-0---0---3---0--0---0--0--0--3---0---|-3---3-------3--3---3--3--3------3---|
C|-------------------------------------|-------------------------------------|-------------------------------------|


F|-------------------------------------|-------------------------------------|-------------------------------------|
C|---------3-------------------3-------|---------2-------------------2-------|-------------------------------------|
G|-5---5-------5--5---5--5--5------5---|-4---4-------4--4---4--4--4------4---|-0---0---3---0--0---0--0--0--3---0---|
C|-------------------------------------|-------------------------------------|-------------------------------------|


F|---------------------|---------------------|------------------------|---------------------|
C|---------------------|---------------------|------------------------|---------------------|
G|-3----3----3----3----|-5----5----5----5----|-5----5----5----5---5---|-4----4----4----4----|
C|---------------------|---------------------|------------------------|---------------------|


F|------------------------|---------------------|------------------------|---------------------|
C|------------------------|---------------------|------------------------|---------------------|
G|-4----4----4----4---4---|-0----0----0----0----|-0----0----0----0---0---|-3----3----3----3----|
C|------------------------|---------------------|------------------------|---------------------|


F|------------------------|------------------------------|------------------------------|
C|------------------------|------------------------------|------------------------------|
G|-3----3----3----3---3---|-5----5---5---5---5---5---5---|-5----5---5---5---5---5---5---|
C|------------------------|------------------------------|------------------------------|


F|------------------------------|------------------------------|------------------------------|
C|------------------------------|------------------------------|------------------------------|
G|-4----4---4---4---4---4---4---|-4---4----4---4---4---4---4---|-0----0---0---0---0---0---0---|
C|------------------------------|------------------------------|------------------------------|


F|------------------------------|------------------------------|---------------------------------|
C|------------------------------|------------------------------|---------------------------------|
G|-0---0----0---0---0---0---0---|-3----3---3---3---3---3---3---|-3---3---3---3---3---3---3---3---|
C|------------------------------|------------------------------|---------------------------------|


F|-------------------------------------|-------------------------------------|-------------------------------------|
C|---------3-------------------3-------|---------2-------------------2-------|-------------------------------------|
G|-5---5-------5--5---5--5--5------5---|-4---4-------4--4---4--4--4------4---|-0---0---3---0--0---0--0--0--3---0---|
C|-------------------------------------|-------------------------------------|-------------------------------------|


F|-------------------------------------|-------------------------------------|-------------------------------------|
C|---------2-------------------2-------|---------3-------------------3-------|---------2-------------------2-------|
G|-3---3-------3--3---3--3--3------3---|-5---5-------5--5---5--5--5------5---|-4---4-------4--4---4--4--4------4---|
C|-------------------------------------|-------------------------------------|-------------------------------------|


F|-------------------------------------|---------------------|-------------------------------------|
C|-------------------------------------|---------------------|---------3-------------------3-------|
G|-0---0---3---0--0---0--0--0--3---0---|-3----3----3----3----|-5---5-------5--5---5--5--5------5---|
C|-------------------------------------|---------------------|-------------------------------------|


F|-------------------------------------|-------------------------------------|-------------------------------------|
C|---------2-------------------2-------|-------------------------------------|---------2-------------------2-------|
G|-4---4-------4--4---4--4--4------4---|-0---0---3---0--0---0--0--0--3---0---|-3---3-------3--3---3--3--3------3---|
C|-------------------------------------|-------------------------------------|-------------------------------------|


F|-------------------------------------|-------------------------------------|-------------------------------------|
C|---------3-------------------3-------|---------2-------------------2-------|-------------------------------------|
G|-5---5-------5--5---5--5--5------5---|-4---4-------4--4---4--4--4------4---|-0---0---3---0--0---0--0--0--3---0---|
C|-------------------------------------|-------------------------------------|-------------------------------------|


F|---------------------|-------------------------------------|-------------------------------------|
C|---------------------|-------------------------------------|-------------------------------------|
G|-3----3----3----3----|-5---5---5---5--5---5--5--5--5---5---|-4---4---4---4--4---4--4--4--4---4---|
C|---------------------|-------------------------------------|-------------------------------------|


F|-------------------------------------|-------------------------------------|-7---7---7---7--7---7--7--7--7---7---|
C|-------------------------------------|-------------------------------------|-------------------------------------|
G|-0---0---0---0--0---0--0--0--0---0---|-3---3---3---3--3---3--3--3--3---3---|-------------------------------------|
C|-------------------------------------|-------------------------------------|-------------------------------------|


F|-6---6---6---6--6---6--6--6--6---6---|-------------------------------------|-5---5---5---5--5---5--5--5--5---5---|
C|-------------------------------------|-7---7---7---7--7---7--7--7--7---7---|-------------------------------------|
G|-------------------------------------|-------------------------------------|-------------------------------------|
C|-------------------------------------|-------------------------------------|-------------------------------------|


F|---------------------------|---------------------------|-------------------------------------|
C|---------------------------|---------------------------|-------------------------------------|
G|---------------------------|---------------------------|-------------------------------------|
C|-0---0--------0---0--------|-0---0--------0---0--------|-0---0---0--0--0---0---0---0--0--0---|


F|-------------------------------------|-------------------------------------|---------------------------------|
C|-------------------------------------|-------------------------------------|---------------------------------|
G|-------------------------------------|-------------------------------------|---------------------------------|
C|-0---0---0--0--0---0---0---0--0--0---|-0---0---0--0--0---0---0---0--0--0---|-0---0---0---0---0---0---0---0---|


F|--------|--------|--------|--------|--------|--------|--------|--------|-------------------------------------|
C|--------|--------|--------|--------|--------|--------|--------|--------|-------------------------------------|
G|--------|-4------|-0------|-3------|--------|-4------|-0------|-3------|-------------------------------------|
C|-0------|--------|--------|--------|-0------|--------|--------|--------|-0---0---0--0--0---0---0---0--0--0---|


F|-------------------------------------|-------------------------------------|-------------------------------------|
C|-------------------------------------|-------------------------------------|-------------------------------------|
G|-4---4---4--4--4---4---4---4--4--4---|-0---0---0--0--0---0---0---0--0--0---|-3---3---3--3--3---3---3---3--3--3---|
C|-------------------------------------|-------------------------------------|-------------------------------------|


F|-------------------------------------|-------------------------------------|-------------------------------------|
C|-------------------------------------|-------------------------------------|-------------------------------------|
G|-------------------------------------|-4---4---4--4--4---4---4---4--4--4---|-0---0---0--0--0---0---0---0--0--0---|
C|-0---0---0--0--0---0---0---0--0--0---|-------------------------------------|-------------------------------------|


F|-----------------------------------|--------|--------|--------|--------|--------|
C|-----------------------------------|--------|--------|--------|--------|--------|
G|-3---3---3--3--3---3---3---3---3---|--------|--------|--------|--------|--------|
C|-----------------------------------|--------|--------|--------|--------|--------|


F|--------|--------|--------|-7---7---7---7--7---7--7--7--7---7---|-6---6---6---6--6---6--6--6--6---6---|
C|--------|--------|--------|-------------------------------------|-------------------------------------|
G|--------|--------|--------|-------------------------------------|-------------------------------------|
C|--------|--------|--------|-------------------------------------|-------------------------------------|


F|-------------------------------------|-5---5---5---5--5---5--5--5--5---5---|-------------------------------------|
C|-7---7---7---7--7---7--7--7--7---7---|-------------------------------------|-------------------------------------|
G|-------------------------------------|-------------------------------------|-5---5---5---5--5---5--5--5--5---5---|
C|-------------------------------------|-------------------------------------|-------------------------------------|


F|-------------------------------------|-------------------------------------|-------------------------------------|
C|-------------------------------------|-------------------------------------|-------------------------------------|
G|-4---4---4---4--4---4--4--4--4---4---|-0---0---0---0--0---0--0--0--0---0---|-3---3---3---3--3---3--3--3--3---3---|
C|-------------------------------------|-------------------------------------|-------------------------------------|


F|-------------------------------------|-------------------------------------|-------------------------------------|
C|-------------------------------------|-------------------------------------|-------------------------------------|
G|-------------------------------------|-------------------------------------|-------------------------------------|
C|-0---0---0--0--0---0---0---0--0--0---|-0---0---0--0--0---0---0---0--0--0---|-0---0---0--0--0---0---0---0--0--0---|


F|-------------------------------------|
C|-------------------------------------|
G|-------------------------------------|
C|-0---0---0--0--0---0---0---0--0--0---|