Menu:

 

Search:

 

system of a down - deer dance:

 



Title: Deer Dance
Artist: 
Album: Toxicity
Author: Daron Malakian & Serj Tankian


Track 1: Gtr. 1 dist. left

D|---------------------------------------|---------------------------------------|
A|---------------------------------------|---------------------------------------|
F|---------------------------------------|---------------------------------------|
C|---------------------------------------|---------------------------------------|
G|-1--1--0---1--1--0---1--1--0---1-------|-1--1--0---1--1--0---1--1--0---1-------|
C|-1--1--0---1--1--0---1--1--0---1-------|-1--1--0---1--1--0---1--1--0---1-------|


D|---------------------------------------|---------------------------------------|
A|---------------------------------------|---------------------------------------|
F|---------------------------------------|---------------------------------------|
C|---------------------------------------|---------------------------------------|
G|-1--1--0---1--1--0---1--1--0---1-------|-1--1--0---1--1--0---1--1--0---1-------|
C|-1--1--0---1--1--0---1--1--0---1-------|-1--1--0---1--1--0---1--1--0---1-------|


D|---------------------------------|---------------------------------|---------------------------------|
A|---------------------------------|---------------------------------|---------------------------------|
F|---------------------------------|---------------------------------|---------------------------------|
C|---------------------------------|---------------------------------|---------------------------------|
G|-1---0---1---0---1---0---1---0---|-1---0---1---0---1---0---1---0---|-1---0---1---0---1---0---1-------|
C|-1---0---1---0---1---0---1---0---|-1---0---1---0---1---0---1---0---|-1---0---1---0---1---0---1-------|


D|---------------------------------|--------|--------|--------|--------|--------|--------|
A|---------------------------------|--------|--------|--------|--------|--------|--------|
F|---------------------------------|--------|--------|--------|--------|--------|--------|
C|---------------------------------|--------|--------|--------|--------|--------|--------|
G|-1---0---1---0---1---0---1-------|--------|--------|--------|--------|--------|--------|
C|-1---0---1---0---1---0---1-------|--------|--------|--------|--------|--------|--------|


D|--------|--------|--------|--------|--------|--------|--------|--------|--------|
A|--------|--------|--------|--------|--------|--------|--------|--------|--------|
F|--------|--------|--------|--------|--------|--------|--------|--------|--------|
C|--------|--------|--------|--------|--------|--------|--------|--------|--------|
G|--------|--------|--------|--------|--------|--------|--------|--------|--------|
C|--------|--------|--------|--------|--------|--------|--------|--------|--------|


D|--------|--------|--------|--------|--------|---------------------------------------|
A|--------|--------|--------|--------|--------|---------------------------------------|
F|--------|--------|--------|--------|--------|---------------------------------------|
C|--------|--------|--------|--------|--------|---------------------------------------|
G|--------|--------|--------|--------|--------|-1--1--0---1--1--0---1--1--0---1-------|
C|--------|--------|--------|--------|--------|-1--1--0---1--1--0---1--1--0---1-------|


D|---------------------------------------|---------------------------------------|
A|---------------------------------------|---------------------------------------|
F|---------------------------------------|---------------------------------------|
C|---------------------------------------|---------------------------------------|
G|-1--1--0---1--1--0---1--1--0---1-------|-1--1--0---1--1--0---1--1--0---1-------|
C|-1--1--0---1--1--0---1--1--0---1-------|-1--1--0---1--1--0---1--1--0---1-------|


D|---------------------------------------|---------------------------------|---------------------------------|
A|---------------------------------------|---------------------------------|---------------------------------|
F|---------------------------------------|---------------------------------|---------------------------------|
C|---------------------------------------|---------------------------------|---------------------------------|
G|-1--1--0---1--1--0---1--1--0---1-------|-1---0---1---0---1---0---1---0---|-1---0---1---0---1---0---1---0---|
C|-1--1--0---1--1--0---1--1--0---1-------|-1---0---1---0---1---0---1---0---|-1---0---1---0---1---0---1---0---|


D|---------------------------------|---------------------------------|--------|--------|
A|---------------------------------|---------------------------------|--------|--------|
F|---------------------------------|---------------------------------|--------|--------|
C|---------------------------------|---------------------------------|--------|--------|
G|-1---0---1---0---1---0---1-------|-1---0---1---0---1---0---1-------|--------|--------|
C|-1---0---1---0---1---0---1-------|-1---0---1---0---1---0---1-------|--------|--------|


D|--------|--------|--------|--------|--------|--------|--------|--------|--------|
A|--------|--------|--------|--------|--------|--------|--------|--------|--------|
F|--------|--------|--------|--------|--------|--------|--------|--------|--------|
C|--------|--------|--------|--------|--------|--------|--------|--------|--------|
G|--------|--------|--------|--------|--------|--------|--------|--------|--------|
C|--------|--------|--------|--------|--------|--------|--------|--------|--------|


D|--------|--------|--------|--------|--------|--------|--------|--------|--------|
A|--------|--------|--------|--------|--------|--------|--------|--------|--------|
F|--------|--------|--------|--------|--------|--------|--------|--------|--------|
C|--------|--------|--------|--------|--------|--------|--------|--------|--------|
G|--------|--------|--------|--------|--------|--------|--------|--------|--------|
C|--------|--------|--------|--------|--------|--------|--------|--------|--------|


D|---------------------------------------|---------------------------------------|
A|---------------------------------------|---------------------------------------|
F|---------------------------------------|---------------------------------------|
C|---------------------------------------|---------------------------------------|
G|-1--1--0---1--1--0---1--1--0---1-------|-1--1--0---1--1--0---1--1--0---1-------|
C|-1--1--0---1--1--0---1--1--0---1-------|-1--1--0---1--1--0---1--1--0---1-------|


D|---------------------------------------|---------------------------------------|
A|---------------------------------------|---------------------------------------|
F|---------------------------------------|---------------------------------------|
C|---------------------------------------|---------------------------------------|
G|-1--1--0---1--1--0---1--1--0---1-------|-1--1--0---1--1--0---1--1--0---1-------|
C|-1--1--0---1--1--0---1--1--0---1-------|-1--1--0---1--1--0---1--1--0---1-------|


D|---------------------------------|---------------------------------|---------------------------------|
A|---------------------------------|---------------------------------|---------------------------------|
F|---------------------------------|---------------------------------|---------------------------------|
C|---------------------------------|---------------------------------|---------------------------------|
G|-1---0---1---0---1---0---1---0---|-1---0---1---0---1---0---1---0---|-1---0---1---0---1---0---1-------|
C|-1---0---1---0---1---0---1---0---|-1---0---1---0---1---0---1---0---|-1---0---1---0---1---0---1-------|


D|---------------------------------|-------------|--------|--------|--------|--------|
A|---------------------------------|-------------|--------|--------|--------|--------|
F|---------------------------------|-------------|--------|--------|--------|--------|
C|---------------------------------|-------------|--------|--------|--------|--------|
G|-1---0---1---0---1---0---1-------|-------------|--------|--------|--------|--------|
C|-1---0---1---0---1---0---1-------|-5-----------|--------|--------|--------|--------|


D|--------|--------|--------|--------|--------|--------|--------|--------|--------|
A|--------|--------|--------|--------|--------|--------|--------|--------|--------|
F|--------|--------|--------|--------|--------|--------|--------|--------|--------|
C|--------|--------|--------|--------|--------|--------|--------|--------|--------|
G|--------|--------|--------|--------|--------|--------|--------|--------|--------|
C|--------|--------|--------|--------|--------|--------|--------|--------|--------|


D|--------|--------|--------|--------|--------|--------|--------|--------|--------|
A|--------|--------|--------|--------|--------|--------|--------|--------|--------|
F|--------|--------|--------|--------|--------|--------|--------|--------|--------|
C|--------|--------|--------|--------|--------|--------|--------|--------|--------|
G|--------|--------|--------|--------|--------|--------|--------|--------|--------|
C|--------|--------|--------|--------|--------|--------|--------|--------|--------|


D|--------|--------|--------|--------|--------|--------|--------|--------|--------|
A|--------|--------|--------|--------|--------|--------|--------|--------|--------|
F|--------|--------|--------|--------|--------|--------|--------|--------|--------|
C|--------|--------|--------|--------|--------|--------|--------|--------|--------|
G|--------|--------|--------|--------|--------|--------|--------|--------|--------|
C|--------|--------|--------|--------|--------|--------|--------|--------|--------|


D|--------|--------|--------|--------|---------------------------------------|---------------------------------------|
A|--------|--------|--------|--------|---------------------------------------|---------------------------------------|
F|--------|--------|--------|--------|---------------------------------------|---------------------------------------|
C|--------|--------|--------|--------|---------------------------------------|---------------------------------------|
G|--------|--------|--------|--------|-1--1--0---1--1--0---1--1--0---1-------|-1--1--0---1--1--0---1--1--0---1-------|
C|--------|--------|--------|--------|-1--1--0---1--1--0---1--1--0---1-------|-1--1--0---1--1--0---1--1--0---1-------|


D|---------------------------------------|---------------------------------------|
A|---------------------------------------|---------------------------------------|
F|---------------------------------------|---------------------------------------|
C|---------------------------------------|---------------------------------------|
G|-1--1--0---1--1--0---1--1--0---1-------|-1--1--0---1--1--0---1--1--0---1-------|
C|-1--1--0---1--1--0---1--1--0---1-------|-1--1--0---1--1--0---1--1--0---1-------|


D|---------------------------------|---------------------------------|---------------------------------|
A|---------------------------------|---------------------------------|---------------------------------|
F|---------------------------------|---------------------------------|---------------------------------|
C|---------------------------------|---------------------------------|---------------------------------|
G|-1---0---1---0---1---0---1---0---|-1---0---1---0---1---0---1---0---|-1---0---1---0---1---0---1-------|
C|-1---0---1---0---1---0---1---0---|-1---0---1---0---1---0---1---0---|-1---0---1---0---1---0---1-------|


D|---------------------------------|---------------------------------|---------------------------------|
A|---------------------------------|---------------------------------|---------------------------------|
F|---------------------------------|---------------------------------|---------------------------------|
C|---------------------------------|---------------------------------|---------------------------------|
G|-1---0---1---0---1---0---1-------|-1---0---1---0---1---0---1---0---|-1---0---1---0---1---0---1-------|
C|-1---0---1---0---1---0---1-------|-1---0---1---0---1---0---1---0---|-1---0---1---0---1---0---1-------|


D|---------------------------------|---------------------------------|---------------------------------|
A|---------------------------------|---------------------------------|---------------------------------|
F|---------------------------------|---------------------------------|---------------------------------|
C|---------------------------------|---------------------------------|---------------------------------|
G|-1---0---1---0---1---0---1---0---|-1---0---1---0---1---0---1-------|-1---0---1---0---1---0---1---0---|
C|-1---0---1---0---1---0---1---0---|-1---0---1---0---1---0---1-------|-1---0---1---0---1---0---1---0---|


D|---------------------------------|---------------------------------|---------------------------------|
A|---------------------------------|---------------------------------|---------------------------------|
F|---------------------------------|---------------------------------|---------------------------------|
C|---------------------------------|---------------------------------|---------------------------------|
G|-1---0---1---0---1---0---1-------|-1---0---1---0---1---0---1---0---|-1---0---1---0---1---0---1-------|
C|-1---0---1---0---1---0---1-------|-1---0---1---0---1---0---1---0---|-1---0---1---0---1---0---1-------|





Track 2: Gr. 2 dist.

D|--------|--------|--------|--------|--------|--------|--------|--------|---------------------|
A|--------|--------|--------|--------|--------|--------|--------|--------|---------------------|
F|--------|--------|--------|--------|--------|--------|--------|--------|---------------------|
C|--------|--------|--------|--------|--------|--------|--------|--------|---------------------|
G|--------|--------|--------|--------|--------|--------|--------|--------|---------------------|
C|--------|--------|--------|--------|--------|--------|--------|--------|-5----8----3----7----|


D|-----------------|---------------------|-----------------|---------------------|
A|-----------------|---------------------|-----------------|---------------------|
F|-----------7-----|---------------------|-----------7-----|---------------------|
C|-----------------|---------------------|-----------------|---------------------|
G|-----------------|---------------------|-----------------|---------------------|
C|-1----5----------|-5----8----3----7----|-1----5----------|-5----8----3----7----|


D|-----------------|---------------------|-----------------|---------------------|
A|-----------------|---------------------|-----------------|---------------------|
F|-----------7-----|---------------------|-----------7-----|---------------------|
C|-----------------|---------------------|-----------------|---------------------|
G|-----------------|---------------------|-----------------|---------------------|
C|-1----5----------|-5----8----3----7----|-1----5----------|-5----8----3----7----|


D|-----------------|---------------------|-----------------|-------------------------------------------------|
A|-----------------|---------------------|-----------------|-------------------------------------------------|
F|-----------7-----|---------------------|-----------7-----|-------------------------------------------------|
C|-----------------|---------------------|-----------------|-------------------------------------------------|
G|-----------------|---------------------|-----------------|-------------------------------------------------|
C|-1----5----------|-5----8----3----7----|-1----5----------|-5--5--5--5--8--8--8--8--3--3--3--3--7--7--7--7--|


D|-------------------------------------------------|-------------------------------------------------|
A|-------------------------------------------------|-------------------------------------------------|
F|-------------------------------------------------|-------------------------------------------------|
C|-------------------------------------------------|-------------------------------------------------|
G|-------------------------------------------------|-------------------------------------------------|
C|-1--1--1--1--5--5--5--5--0--0--0--0--0--0--0--0--|-5--5--5--5--8--8--8--8--3--3--3--3--7--7--7--7--|


D|-------------------------------|-------------------------------------------------|
A|-------------------------------|-------------------------------------------------|
F|-------------------------------|-------------------------------------------------|
C|-------------------------------|-------------------------------------------------|
G|-------------------------------|-------------------------------------------------|
C|-1--1--1--1--5--5--5--5--0-----|-5--5--5--5--8--8--8--8--3--3--3--3--7--7--7--7--|


D|-------------------------------------------------|-------------------------------------------------|
A|-------------------------------------------------|-------------------------------------------------|
F|-------------------------------------------------|-------------------------------------------------|
C|-------------------------------------------------|-------------------------------------------------|
G|-------------------------------------------------|-------------------------------------------------|
C|-1--1--1--1--5--5--5--5--0--0--0--0--0--0--0--0--|-5--5--5--5--8--8--8--8--3--3--3--3--7--7--7--7--|


D|-------------------------------|--------|--------|--------|--------|--------|--------|
A|-------------------------------|--------|--------|--------|--------|--------|--------|
F|-------------------------------|--------|--------|--------|--------|--------|--------|
C|-------------------------------|--------|--------|--------|--------|--------|--------|
G|-------------------------------|--------|--------|--------|--------|--------|--------|
C|-1--1--1--1--5--5--5--5--0-----|--------|--------|--------|--------|--------|--------|


D|--------|--------|---------------------|-----------------|---------------------|
A|--------|--------|---------------------|-----------------|---------------------|
F|--------|--------|---------------------|-----------------|---------------------|
C|--------|--------|---------------------|-----------12----|---------------------|
G|--------|--------|---------------------|-----------------|---------------------|
C|--------|--------|-5----8----3----7----|-1----5----------|-5----8----3----7----|


D|-----------------|---------------------|-----------------|---------------------|
A|-----------------|---------------------|-----------------|---------------------|
F|-----------------|---------------------|-----------------|---------------------|
C|-----------12----|---------------------|-----------12----|---------------------|
G|-----------------|---------------------|-----------------|---------------------|
C|-1----5----------|-5----8----3----7----|-1----5----------|-5----8----3----7----|


D|-----------------|---------------------|-----------------|---------------------|
A|-----------------|---------------------|-----------------|---------------------|
F|-----------------|---------------------|-----------------|---------------------|
C|-----------12----|---------------------|-----------12----|---------------------|
G|-----------------|---------------------|-----------------|---------------------|
C|-1----5----------|-5----8----3----7----|-1----5----------|-5----8----3----7----|


D|-----------------|-------------------------------------------------|-------------------------------------------------|
A|-----------------|-------------------------------------------------|-------------------------------------------------|
F|-----------------|-------------------------------------------------|-------------------------------------------------|
C|-----------12----|-------------------------------------------------|-------------------------------------------------|
G|-----------------|-------------------------------------------------|-------------------------------------------------|
C|-1----5----------|-5--5--5--5--8--8--8--8--3--3--3--3--7--7--7--7--|-1--1--1--1--5--5--5--5--0--0--0--0--0--0--0--0--|


D|-------------------------------------------------|-------------------------------|
A|-------------------------------------------------|-------------------------------|
F|-------------------------------------------------|-------------------------------|
C|-------------------------------------------------|-------------------------------|
G|-------------------------------------------------|-------------------------------|
C|-5--5--5--5--8--8--8--8--3--3--3--3--7--7--7--7--|-1--1--1--1--5--5--5--5--0-----|


D|-------------------------------------------------|-------------------------------------------------|
A|-------------------------------------------------|-------------------------------------------------|
F|-------------------------------------------------|-------------------------------------------------|
C|-------------------------------------------------|-------------------------------------------------|
G|-------------------------------------------------|-------------------------------------------------|
C|-5--5--5--5--8--8--8--8--3--3--3--3--7--7--7--7--|-1--1--1--1--5--5--5--5--0--0--0--0--0--0--0--0--|


D|-------------------------------------------------|-------------------------------|
A|-------------------------------------------------|-------------------------------|
F|-------------------------------------------------|-------------------------------|
C|-------------------------------------------------|-------------------------------|
G|-------------------------------------------------|-------------------------------|
C|-5--5--5--5--8--8--8--8--3--3--3--3--7--7--7--7--|-1--1--1--1--5--5--5--5--0-----|


D|--------|--------|--------|--------|--------|--------|--------|--------|--------|
A|--------|--------|--------|--------|--------|--------|--------|--------|--------|
F|--------|--------|--------|--------|--------|--------|--------|--------|--------|
C|--------|--------|--------|--------|--------|--------|--------|--------|--------|
G|--------|--------|--------|--------|--------|--------|--------|--------|--------|
C|--------|--------|--------|--------|--------|--------|--------|--------|--------|


D|--------|--------|--------|---------------------------------|---------------------------------|
A|--------|--------|--------|-----------------13--------------|-----------------13--------------|
F|--------|--------|--------|-15--14--------------15--14------|-15--14--------------15--14------|
C|--------|--------|--------|---------15--12--------------15--|---------15--12--------------15--|
G|--------|--------|--------|---------------------------------|---------------------------------|
C|--------|--------|--------|---------------------------------|---------------------------------|


D|---------------------------------|---------------------------------|---------------------------------|
A|-----------------13--------------|-----------------13--------------|-----------------13--------------|
F|-15--14--------------15--14------|-15--14--------------15--14------|-15--14--------------15--14------|
C|---------15--12--------------15--|---------15--12--------------15--|---------15--12--------------15--|
G|---------------------------------|---------------------------------|---------------------------------|
C|---------------------------------|---------------------------------|---------------------------------|


D|---------------------------------|---------------------------------|---------------------------------|
A|-----------------13--------------|-----------------13--------------|-----------------13--------------|
F|-15--14--------------15--14------|-15--14--------------15--14------|-15--14--------------15--14------|
C|---------15--12--------------15--|---------15--12--------------15--|---------15--12--------------15--|
G|---------------------------------|---------------------------------|---------------------------------|
C|---------------------------------|---------------------------------|---------------------------------|


D|--------------------|---------------------------------|---------------------------------|
A|--------------------|-----------------13--------------|---------------------------------|
F|---------------15---|-15--14--------------15--14--15--|-15--15--15--15--15--17--17--17--|
C|--------------------|---------15--12------------------|---------------------------------|
G|-13--12--10---------|---------------------------------|---------------------------------|
C|--------------------|---------------------------------|---------------------------------|


D|-----------------------------------|------------------------------|---------------------------------|
A|-----------------------------------|------------------------------|-----------------13--------------|
F|-19--19--19--20--20--19-19-19--17--|-17--14---15--15--14----------|-15--14--------------15--14------|
C|-----------------------------------|----------------------15--12--|---------15--12--------------15--|
G|-----------------------------------|------------------------------|---------------------------------|
C|-----------------------------------|------------------------------|---------------------------------|


D|---------------------------------|---------------------------------|-----------------------|
A|-----------------13--------------|-----------------13--------------|-----------------------|
F|-15--14--------------15--14------|-15--14--------------15--14------|---------------15--14--|
C|---------15--12--------------15--|---------15--12--------------15--|-----------------------|
G|---------------------------------|---------------------------------|-13--12--10------------|
C|---------------------------------|---------------------------------|-----------------------|


D|---------------------------------|---------------------------------|---------------------------|
A|-----------------13--------------|---------------------------------|---------------------------|
F|-15--14--------------15--14------|-14--15--15--15--15--17--17--17--|-19--19---20--20--19---17--|
C|---------15--12--------------15--|---------------------------------|---------------------------|
G|---------------------------------|---------------------------------|---------------------------|
C|---------------------------------|---------------------------------|---------------------------|


D|---------------------------|---------------------------------|------------------------------|
A|---------------------------|-----------------13--------------|------------------------------|
F|-17--14---15--15--14---15--|-15--14--------------15--14------|-15--15--15--14--14---14--14--|
C|---------------------------|---------15--12--------------15--|-15--15--15--15--15---15--15--|
G|---------------------------|---------------------------------|------------------------------|
C|---------------------------|---------------------------------|------------------------------|


D|---------------------------------|---------------------------------|---------------------------------|
A|---------------------------------|---------------------------------|---------------------------------|
F|-15--15--15--14--14--14--14--15--|-15--15--15--14--14--14--14--15--|-15--15--15--14--14--14--14--15--|
C|-15--15--15--15--15--15--15--15--|-15--15--15--15--15--15--15--15--|-15--15--15--15--15--15--15--15--|
G|---------------------------------|---------------------------------|---------------------------------|
C|---------------------------------|---------------------------------|---------------------------------|


D|---------------------------------|---------------------------------|--------|--------|
A|---------------------------------|---------------------------------|--------|--------|
F|-15--15--15--14--14--14--14--15--|-15--15--15--14--14--14--14--15--|--------|--------|
C|-15--15--15--15--15--15--15--15--|-15--15--15--15--15--15--15--15--|--------|--------|
G|---------------------------------|---------------------------------|--------|--------|
C|---------------------------------|---------------------------------|--------|--------|


D|--------|--------|--------|--------|--------|--------|--------|--------|--------|
A|--------|--------|--------|--------|--------|--------|--------|--------|--------|
F|--------|--------|--------|--------|--------|--------|--------|--------|--------|
C|--------|--------|--------|--------|--------|--------|--------|--------|--------|
G|--------|--------|--------|--------|--------|--------|--------|--------|--------|
C|--------|--------|--------|--------|--------|--------|--------|--------|--------|


D|--------|--------|--------|--------|--------|--------|--------|--------|--------|
A|--------|--------|--------|--------|--------|--------|--------|--------|--------|
F|--------|--------|--------|--------|--------|--------|--------|--------|--------|
C|--------|--------|--------|--------|--------|--------|--------|--------|--------|
G|--------|--------|--------|--------|--------|--------|--------|--------|--------|
C|--------|--------|--------|--------|--------|--------|--------|--------|--------|





Track 3: Gtr. 3 dist.

D|--------|--------|--------|--------|--------|--------|--------|--------|--------|
A|--------|--------|--------|--------|--------|--------|--------|--------|--------|
F|--------|--------|--------|--------|--------|--------|--------|--------|--------|
C|--------|--------|--------|--------|--------|--------|--------|--------|--------|
G|--------|--------|--------|--------|--------|--------|--------|--------|--------|
C|--------|--------|--------|--------|--------|--------|--------|--------|--------|


D|-------------|--------|-------------|--------|-------------|--------|-------------|
A|-------------|--------|-------------|--------|-------------|--------|-------------|
F|-------7-----|--------|-------------|--------|-------7-----|--------|-------------|
C|-------------|--------|-------------|--------|-------------|--------|-------------|
G|-------------|--------|-------------|--------|-------------|--------|-------------|
C|-------------|--------|-------12----|--------|-------------|--------|-------12----|


D|--------|-------------|--------|-------------|--------|--------|--------|-------------|
A|--------|-------------|--------|-------------|--------|--------|--------|-------------|
F|--------|-------7-----|--------|-------------|--------|--------|--------|-------7-----|
C|--------|-------------|--------|-------------|--------|--------|--------|-------------|
G|--------|-------------|--------|-------------|--------|--------|--------|-------------|
C|--------|-------------|--------|-------12----|--------|--------|--------|-------------|


D|--------|--------|--------|-------------|--------|--------|--------|--------|--------|
A|--------|--------|--------|-------------|--------|--------|--------|--------|--------|
F|--------|--------|--------|-------7-----|--------|--------|--------|--------|--------|
C|--------|--------|--------|-------------|--------|--------|--------|--------|--------|
G|--------|--------|--------|-------------|--------|--------|--------|--------|--------|
C|--------|--------|--------|-------------|--------|--------|--------|--------|--------|


D|--------|--------|--------|--------|-------------|--------|-------------|--------|
A|--------|--------|--------|--------|-------------|--------|-------------|--------|
F|--------|--------|--------|--------|-------7-----|--------|-------7-----|--------|
C|--------|--------|--------|--------|-------------|--------|-------------|--------|
G|--------|--------|--------|--------|-------------|--------|-------------|--------|
C|--------|--------|--------|--------|-------------|--------|-------------|--------|


D|-------------|--------|-------------|--------|-------------|--------|-------------|
A|-------------|--------|-------------|--------|-------------|--------|-------------|
F|-------7-----|--------|-------7-----|--------|-------7-----|--------|-------7-----|
C|-------------|--------|-------------|--------|-------------|--------|-------------|
G|-------------|--------|-------------|--------|-------------|--------|-------------|
C|-------------|--------|-------------|--------|-------------|--------|-------------|


D|--------|--------|--------|-------------|--------|--------|--------|-------------|
A|--------|--------|--------|-------------|--------|--------|--------|-------------|
F|--------|--------|--------|-------7-----|--------|--------|--------|-------------|
C|--------|--------|--------|-------------|--------|--------|--------|-------------|
G|--------|--------|--------|-------------|--------|--------|--------|-------------|
C|--------|--------|--------|-------------|--------|--------|--------|-------12----|


D|--------|--------|--------|--------|--------|--------|--------|--------|--------|
A|--------|--------|--------|--------|--------|--------|--------|--------|--------|
F|--------|--------|--------|--------|--------|--------|--------|--------|--------|
C|--------|--------|--------|--------|--------|--------|--------|--------|--------|
G|--------|--------|--------|--------|--------|--------|--------|--------|--------|
C|--------|--------|--------|--------|--------|--------|--------|--------|--------|


D|--------|--------|--------|---------------------------------|---------------------------------|
A|--------|--------|--------|---------------------------------|---------------------------------|
F|--------|--------|--------|---------------------------------|---------------------------------|
C|--------|--------|--------|---------------------------------|---------------------------------|
G|--------|--------|--------|---------------------------------|---------------------------------|
C|--------|--------|--------|-5---5---5---5---5---5---5---5---|-5---5---5---5---5---5---5---5---|


D|---------------------------------|---------------------------------|---------------------------------|
A|---------------------------------|---------------------------------|---------------------------------|
F|---------------------------------|---------------------------------|---------------------------------|
C|---------------------------------|---------------------------------|---------------------------------|
G|---------------------------------|---------------------------------|---------------------------------|
C|-5---5---5---5---5---5---5---5---|-5---5---5---5---5---5---5---5---|-3---3---3---3---3---3---3---3---|


D|---------------------------------|---------------------------------|---------------------------------|
A|---------------------------------|---------------------------------|---------------------------------|
F|---------------------------------|---------------------------------|---------------------------------|
C|---------------------------------|---------------------------------|---------------------------------|
G|---------------------------------|---------------------------------|---------------------------------|
C|-3---3---3---3---3---3---3---3---|-3---3---3---3---3---3---3---3---|-3---3---3---3---3---3---3---3---|


D|---------------------------------|---------------------------------|---------------------------------|
A|---------------------------------|---------------------------------|---------------------------------|
F|---------------------------------|---------------------------------|---------------------------------|
C|---------------------------------|---------------------------------|---------------------------------|
G|---------------------------------|---------------------------------|---------------------------------|
C|-5---5---5---5---5---5---5---5---|-5---5---5---5---5---5---5---5---|-5---5---5---5---5---5---5---5---|


D|---------------------------------|---------------------------------|---------------------------------|
A|---------------------------------|---------------------------------|---------------------------------|
F|---------------------------------|---------------------------------|---------------------------------|
C|---------------------------------|---------------------------------|---------------------------------|
G|---------------------------------|---------------------------------|---------------------------------|
C|-5---5---5---5---5---5---5---5---|-3---3---3---3---3---3---3---3---|-3---3---3---3---3---3---3---3---|


D|---------------------------------|---------------------------------|---------------------------------|
A|---------------------------------|---------------------------------|---------------------------------|
F|---------------------------------|---------------------------------|---------------------------------|
C|---------------------------------|---------------------------------|---------------------------------|
G|---------------------------------|---------------------------------|---------------------------------|
C|-3---3---3---3---3---3---3---3---|-3---3---3---3---3---3---3---3---|-5---5---5---5---5---5---5---5---|


D|---------------------------------|---------------------------------|---------------------------------|
A|---------------------------------|---------------------------------|---------------------------------|
F|---------------------------------|---------------------------------|---------------------------------|
C|---------------------------------|---------------------------------|---------------------------------|
G|---------------------------------|---------------------------------|---------------------------------|
C|-5---5---5---5---5---5---5---5---|-5---5---5---5---5---5---5---5---|-5---5---5---5---5---5---5---5---|


D|---------------------------------|---------------------------------|---------------------------------|
A|---------------------------------|---------------------------------|---------------------------------|
F|---------------------------------|---------------------------------|---------------------------------|
C|---------------------------------|---------------------------------|---------------------------------|
G|---------------------------------|---------------------------------|---------------------------------|
C|-3---3---3---3---3---3---3---3---|-3---3---3---3---3---3---3---3---|-1---1---1---1---1---1---1---1---|


D|---------------------------------|---------------------------------|---------------------------------|
A|---------------------------------|---------------------------------|---------------------------------|
F|---------------------------------|---------------------------------|---------------------------------|
C|---------------------------------|---------------------------------|---------------------------------|
G|---------------------------------|---------------------------------|---------------------------------|
C|-3---3---3---3---3---3---3---3---|-5---5---5---5---5---5---5---5---|-5---5---5---5---5---5---5---5---|


D|---------------------------------|---------------------------------|--------------------|
A|---------------------------------|---------------------------------|--------------------|
F|---------------------------------|---------------------------------|--------------------|
C|---------------------------------|---------------------------------|--------------------|
G|---------------------------------|---------------------------------|--------------------|
C|-5---5---5---5---5---5---5---5---|-5---5---5---5---5---5---5---5---|-5------------------|


D|--------|--------|--------|--------|--------|--------|--------|--------|--------|
A|--------|--------|--------|--------|--------|--------|--------|--------|--------|
F|--------|--------|--------|--------|--------|--------|--------|--------|--------|
C|--------|--------|--------|--------|--------|--------|--------|--------|--------|
G|--------|--------|--------|--------|--------|--------|--------|--------|--------|
C|--------|--------|--------|--------|--------|--------|--------|--------|--------|


D|--------|--------|--------|--------|--------|--------|--------|--------|--------|
A|--------|--------|--------|--------|--------|--------|--------|--------|--------|
F|--------|--------|--------|--------|--------|--------|--------|--------|--------|
C|--------|--------|--------|--------|--------|--------|--------|--------|--------|
G|--------|--------|--------|--------|--------|--------|--------|--------|--------|
C|--------|--------|--------|--------|--------|--------|--------|--------|--------|


D|--------|
A|--------|
F|--------|
C|--------|
G|--------|
C|--------|





Track 4: Gtr 4. Mandolin arr. for gtr.

D|--------|--------|--------|--------|--------|--------|--------|--------|--------|
A|--------|--------|--------|--------|--------|--------|--------|--------|--------|
F|--------|--------|--------|--------|--------|--------|--------|--------|--------|
C|--------|--------|--------|--------|--------|--------|--------|--------|--------|
G|--------|--------|--------|--------|--------|--------|--------|--------|--------|
C|--------|--------|--------|--------|--------|--------|--------|--------|--------|


D|--------|--------|--------|--------|--------|--------|--------|--------|--------|
A|--------|--------|--------|--------|--------|--------|--------|--------|--------|
F|--------|--------|--------|--------|--------|--------|--------|--------|--------|
C|--------|--------|--------|--------|--------|--------|--------|--------|--------|
G|--------|--------|--------|--------|--------|--------|--------|--------|--------|
C|--------|--------|--------|--------|--------|--------|--------|--------|--------|


D|--------|--------|--------|--------|--------|--------|--------|--------|--------|
A|--------|--------|--------|--------|--------|--------|--------|--------|--------|
F|--------|--------|--------|--------|--------|--------|--------|--------|--------|
C|--------|--------|--------|--------|--------|--------|--------|--------|--------|
G|--------|--------|--------|--------|--------|--------|--------|--------|--------|
C|--------|--------|--------|--------|--------|--------|--------|--------|--------|


D|--------|--------|--------|--------|--------|--------|--------|--------|--------|
A|--------|--------|--------|--------|--------|--------|--------|--------|--------|
F|--------|--------|--------|--------|--------|--------|--------|--------|--------|
C|--------|--------|--------|--------|--------|--------|--------|--------|--------|
G|--------|--------|--------|--------|--------|--------|--------|--------|--------|
C|--------|--------|--------|--------|--------|--------|--------|--------|--------|


D|--------|--------|--------|--------|--------|--------|--------|--------|--------|
A|--------|--------|--------|--------|--------|--------|--------|--------|--------|
F|--------|--------|--------|--------|--------|--------|--------|--------|--------|
C|--------|--------|--------|--------|--------|--------|--------|--------|--------|
G|--------|--------|--------|--------|--------|--------|--------|--------|--------|
C|--------|--------|--------|--------|--------|--------|--------|--------|--------|


D|--------|--------|--------|--------|--------|--------|--------|--------|--------|
A|--------|--------|--------|--------|--------|--------|--------|--------|--------|
F|--------|--------|--------|--------|--------|--------|--------|--------|--------|
C|--------|--------|--------|--------|--------|--------|--------|--------|--------|
G|--------|--------|--------|--------|--------|--------|--------|--------|--------|
C|--------|--------|--------|--------|--------|--------|--------|--------|--------|


D|--------|--------|--------|--------|--------|--------|--------|--------|--------|
A|--------|--------|--------|--------|--------|--------|--------|--------|--------|
F|--------|--------|--------|--------|--------|--------|--------|--------|--------|
C|--------|--------|--------|--------|--------|--------|--------|--------|--------|
G|--------|--------|--------|--------|--------|--------|--------|--------|--------|
C|--------|--------|--------|--------|--------|--------|--------|--------|--------|


D|--------|--------|--------|--------|--------|--------|--------|--------|--------|
A|--------|--------|--------|--------|--------|--------|--------|--------|--------|
F|--------|--------|--------|--------|--------|--------|--------|--------|--------|
C|--------|--------|--------|--------|--------|--------|--------|--------|--------|
G|--------|--------|--------|--------|--------|--------|--------|--------|--------|
C|--------|--------|--------|--------|--------|--------|--------|--------|--------|


D|--------|--------|--------|--------|----------------|---------------------|-----------------|
A|--------|--------|--------|--------|----------------|-----------------13--|-13----15--15----|
F|--------|--------|--------|--------|-15--14--12-----|-12---12---15----14--|-14----15--15----|
C|--------|--------|--------|--------|----------------|-----------17--------|-----------------|
G|--------|--------|--------|--------|----------------|---------------------|-----------------|
C|--------|--------|--------|--------|----------------|---------------------|-----------------|


D|------------------------|-----------------|-----------------------|-------------------------|
A|------------------------|-----------------|-----------------------|-------------------------|
F|-19----20--20--19---17--|-17--14----14----|-14--------------------|--------14---------------|
C|-20----22--22--20---19--|-19--15----15----|-15----15--15--15--15--|-15--15----15--15--15----|
G|------------------------|-----------------|-----------------------|-------------------------|
C|------------------------|-----------------|-----------------------|-------------------------|


D|--------|----------------|---------------------|-----------------|------------------------|
A|--------|----------------|-----------11----13--|-13----15--15----|------------------------|
F|--------|-15--14--12-----|-12---12---12----14--|-14----15--15----|-19----20--20--19---17--|
C|--------|----------------|---------------------|-----------------|-20----22--22--20---19--|
G|--------|----------------|---------------------|-----------------|------------------------|
C|--------|----------------|---------------------|-----------------|------------------------|


D|-----------------|--------|-----------------|---------------------|---------------------|
A|-----------------|--------|-----------------|---------------------|---------------------|
F|-17--14----14----|--------|-15----14--14----|-15----14--14----15--|-15----14--14----15--|
C|-19--15----15----|-15-----|-----------------|---------------------|---------------------|
G|-----------------|--------|-----------------|---------------------|---------------------|
C|-----------------|--------|-----------------|---------------------|---------------------|


D|---------------------------|---------------------------|-----------------|--------|
A|---------------------------|---------------------------|-----------------|--------|
F|-15----14--14--14--14--15--|-15----14--14--14--14--15--|-15----14--14----|--------|
C|---------------------------|---------------------------|-----------------|--------|
G|---------------------------|---------------------------|-----------------|--------|
C|---------------------------|---------------------------|-----------------|--------|


D|--------|--------|--------|--------|--------|--------|--------|--------|--------|
A|--------|--------|--------|--------|--------|--------|--------|--------|--------|
F|--------|--------|--------|--------|--------|--------|--------|--------|--------|
C|--------|--------|--------|--------|--------|--------|--------|--------|--------|
G|--------|--------|--------|--------|--------|--------|--------|--------|--------|
C|--------|--------|--------|--------|--------|--------|--------|--------|--------|


D|--------|--------|--------|--------|--------|--------|--------|--------|--------|
A|--------|--------|--------|--------|--------|--------|--------|--------|--------|
F|--------|--------|--------|--------|--------|--------|--------|--------|--------|
C|--------|--------|--------|--------|--------|--------|--------|--------|--------|
G|--------|--------|--------|--------|--------|--------|--------|--------|--------|
C|--------|--------|--------|--------|--------|--------|--------|--------|--------|


D|--------|
A|--------|
F|--------|
C|--------|
G|--------|
C|--------|





Track 5: Untitled

G|--------|--------|--------|--------|--------|--------|--------|--------|--------|
D|--------|--------|--------|--------|--------|--------|--------|--------|--------|
A|--------|--------|--------|--------|--------|--------|--------|--------|--------|
E|--------|--------|--------|--------|--------|--------|--------|--------|--------|


G|--------|--------|--------|--------|--------|--------|--------|--------|--------|
D|--------|--------|--------|--------|--------|--------|--------|--------|--------|
A|--------|--------|--------|--------|--------|--------|--------|--------|--------|
E|--------|--------|--------|--------|--------|--------|--------|--------|--------|


G|--------|--------|--------|--------|--------|--------|--------|--------|--------|
D|--------|--------|--------|--------|--------|--------|--------|--------|--------|
A|--------|--------|--------|--------|--------|--------|--------|--------|--------|
E|--------|--------|--------|--------|--------|--------|--------|--------|--------|


G|--------|--------|--------|--------|--------|--------|--------|--------|--------|
D|--------|--------|--------|--------|--------|--------|--------|--------|--------|
A|--------|--------|--------|--------|--------|--------|--------|--------|--------|
E|--------|--------|--------|--------|--------|--------|--------|--------|--------|


G|--------|--------|--------|--------|--------|--------|--------|--------|--------|
D|--------|--------|--------|--------|--------|--------|--------|--------|--------|
A|--------|--------|--------|--------|--------|--------|--------|--------|--------|
E|--------|--------|--------|--------|--------|--------|--------|--------|--------|


G|--------|--------|--------|--------|--------|--------|--------|--------|--------|
D|--------|--------|--------|--------|--------|--------|--------|--------|--------|
A|--------|--------|--------|--------|--------|--------|--------|--------|--------|
E|--------|--------|--------|--------|--------|--------|--------|--------|--------|


G|--------|--------|--------|--------|--------|--------|--------|--------|--------|
D|--------|--------|--------|--------|--------|--------|--------|--------|--------|
A|--------|--------|--------|--------|--------|--------|--------|--------|--------|
E|--------|--------|--------|--------|--------|--------|--------|--------|--------|


G|--------|--------|--------|--------|--------|--------|--------|--------|--------|
D|--------|--------|--------|--------|--------|--------|--------|--------|--------|
A|--------|--------|--------|--------|--------|--------|--------|--------|--------|
E|--------|--------|--------|--------|--------|--------|--------|--------|--------|


G|--------|--------|--------|--------|--------|--------|--------|--------|--------|
D|--------|--------|--------|--------|--------|--------|--------|--------|--------|
A|--------|--------|--------|--------|--------|--------|--------|--------|--------|
E|--------|--------|--------|--------|--------|--------|--------|--------|--------|


G|--------|--------|--------|--------|--------|--------|--------|--------|--------|
D|--------|--------|--------|--------|--------|--------|--------|--------|--------|
A|--------|--------|--------|--------|--------|--------|--------|--------|--------|
E|--------|--------|--------|--------|--------|--------|--------|--------|--------|


G|--------|--------|--------|--------|--------|--------|--------|--------|--------|
D|--------|--------|--------|--------|--------|--------|--------|--------|--------|
A|--------|--------|--------|--------|--------|--------|--------|--------|--------|
E|--------|--------|--------|--------|--------|--------|--------|--------|--------|


G|--------|--------|--------|--------|--------|--------|--------|--------|--------|
D|--------|--------|--------|--------|--------|--------|--------|--------|--------|
A|--------|--------|--------|--------|--------|--------|--------|--------|--------|
E|--------|--------|--------|--------|--------|--------|--------|--------|--------|


G|--------|--------|--------|--------|--------|--------|--------|--------|
D|--------|--------|--------|--------|--------|--------|--------|--------|
A|--------|--------|--------|--------|--------|--------|--------|--------|
E|--------|--------|--------|--------|--------|--------|--------|--------|