Menu:

 

Search:

 

system of a down - deer dance:

 



Title: Deer Dance
Artist: 
Album: Toxicity
Author: Daron Malakian & Serj Tankian


Track 1: Gtr. 1 dist. left

D|---------------------------------------|---------------------------------------|
A|---------------------------------------|---------------------------------------|
F|---------------------------------------|---------------------------------------|
C|---------------------------------------|---------------------------------------|
G|-1--1--0---1--1--0---1--1--0---1-------|-1--1--0---1--1--0---1--1--0---1-------|
C|-1--1--0---1--1--0---1--1--0---1-------|-1--1--0---1--1--0---1--1--0---1-------|


D|---------------------------------------|---------------------------------------|
A|---------------------------------------|---------------------------------------|
F|---------------------------------------|---------------------------------------|
C|---------------------------------------|---------------------------------------|
G|-1--1--0---1--1--0---1--1--0---1-------|-1--1--0---1--1--0---1--1--0---1-------|
C|-1--1--0---1--1--0---1--1--0---1-------|-1--1--0---1--1--0---1--1--0---1-------|


D|---------------------------------|---------------------------------|---------------------------------|
A|---------------------------------|---------------------------------|---------------------------------|
F|---------------------------------|---------------------------------|---------------------------------|
C|---------------------------------|---------------------------------|---------------------------------|
G|-1---0---1---0---1---0---1---0---|-1---0---1---0---1---0---1---0---|-1---0---1---0---1---0---1-------|
C|-1---0---1---0---1---0---1---0---|-1---0---1---0---1---0---1---0---|-1---0---1---0---1---0---1-------|


D|---------------------------------|--------|--------|--------|--------|--------|--------|
A|---------------------------------|--------|--------|--------|--------|--------|--------|
F|---------------------------------|--------|--------|--------|--------|--------|--------|
C|---------------------------------|--------|--------|--------|--------|--------|--------|
G|-1---0---1---0---1---0---1-------|--------|--------|--------|--------|--------|--------|
C|-1---0---1---0---1---0---1-------|--------|--------|--------|--------|--------|--------|


D|--------|--------|--------|--------|--------|--------|--------|--------|--------|
A|--------|--------|--------|--------|--------|--------|--------|--------|--------|
F|--------|--------|--------|--------|--------|--------|--------|--------|--------|
C|--------|--------|--------|--------|--------|--------|--------|--------|--------|
G|--------|--------|--------|--------|--------|--------|--------|--------|--------|
C|--------|--------|--------|--------|--------|--------|--------|--------|--------|


D|--------|--------|--------|--------|--------|---------------------------------------|
A|--------|--------|--------|--------|--------|---------------------------------------|
F|--------|--------|--------|--------|--------|---------------------------------------|
C|--------|--------|--------|--------|--------|---------------------------------------|
G|--------|--------|--------|--------|--------|-1--1--0---1--1--0---1--1--0---1-------|
C|--------|--------|--------|--------|--------|-1--1--0---1--1--0---1--1--0---1-------|


D|---------------------------------------|---------------------------------------|
A|---------------------------------------|---------------------------------------|
F|---------------------------------------|---------------------------------------|
C|---------------------------------------|---------------------------------------|
G|-1--1--0---1--1--0---1--1--0---1-------|-1--1--0---1--1--0---1--1--0---1-------|
C|-1--1--0---1--1--0---1--1--0---1-------|-1--1--0---1--1--0---1--1--0---1-------|


D|---------------------------------------|---------------------------------|---------------------------------|
A|---------------------------------------|---------------------------------|---------------------------------|
F|---------------------------------------|---------------------------------|---------------------------------|
C|---------------------------------------|---------------------------------|---------------------------------|
G|-1--1--0---1--1--0---1--1--0---1-------|-1---0---1---0---1---0---1---0---|-1---0---1---0---1---0---1---0---|
C|-1--1--0---1--1--0---1--1--0---1-------|-1---0---1---0---1---0---1---0---|-1---0---1---0---1---0---1---0---|


D|---------------------------------|---------------------------------|--------|--------|
A|---------------------------------|---------------------------------|--------|--------|
F|---------------------------------|---------------------------------|--------|--------|
C|---------------------------------|---------------------------------|--------|--------|
G|-1---0---1---0---1---0---1-------|-1---0---1---0---1---0---1-------|--------|--------|
C|-1---0---1---0---1---0---1-------|-1---0---1---0---1---0---1-------|--------|--------|


D|--------|--------|--------|--------|--------|--------|--------|--------|--------|
A|--------|--------|--------|--------|--------|--------|--------|--------|--------|
F|--------|--------|--------|--------|--------|--------|--------|--------|--------|
C|--------|--------|--------|--------|--------|--------|--------|--------|--------|
G|--------|--------|--------|--------|--------|--------|--------|--------|--------|
C|--------|--------|--------|--------|--------|--------|--------|--------|--------|


D|--------|--------|--------|--------|--------|--------|--------|--------|--------|
A|--------|--------|--------|--------|--------|--------|--------|--------|--------|
F|--------|--------|--------|--------|--------|--------|--------|--------|--------|
C|--------|--------|--------|--------|--------|--------|--------|--------|--------|
G|--------|--------|--------|--------|--------|--------|--------|--------|--------|
C|--------|--------|--------|--------|--------|--------|--------|--------|--------|


D|---------------------------------------|---------------------------------------|
A|---------------------------------------|---------------------------------------|
F|---------------------------------------|---------------------------------------|
C|---------------------------------------|---------------------------------------|
G|-1--1--0---1--1--0---1--1--0---1-------|-1--1--0---1--1--0---1--1--0---1-------|
C|-1--1--0---1--1--0---1--1--0---1-------|-1--1--0---1--1--0---1--1--0---1-------|


D|---------------------------------------|---------------------------------------|
A|---------------------------------------|---------------------------------------|
F|---------------------------------------|---------------------------------------|
C|---------------------------------------|---------------------------------------|
G|-1--1--0---1--1--0---1--1--0---1-------|-1--1--0---1--1--0---1--1--0---1-------|
C|-1--1--0---1--1--0---1--1--0---1-------|-1--1--0---1--1--0---1--1--0---1-------|


D|---------------------------------|---------------------------------|---------------------------------|
A|---------------------------------|---------------------------------|---------------------------------|
F|---------------------------------|---------------------------------|---------------------------------|
C|---------------------------------|---------------------------------|---------------------------------|
G|-1---0---1---0---1---0---1---0---|-1---0---1---0---1---0---1---0---|-1---0---1---0---1---0---1-------|
C|-1---0---1---0---1---0---1---0---|-1---0---1---0---1---0---1---0---|-1---0---1---0---1---0---1-------|


D|---------------------------------|-------------|--------|--------|--------|--------|
A|---------------------------------|-------------|--------|--------|--------|--------|
F|---------------------------------|-------------|--------|--------|--------|--------|
C|---------------------------------|-------------|--------|--------|--------|--------|
G|-1---0---1---0---1---0---1-------|-------------|--------|--------|--------|--------|
C|-1---0---1---0---1---0---1-------|-5-----------|--------|--------|--------|--------|


D|--------|--------|--------|--------|--------|--------|--------|--------|--------|
A|--------|--------|--------|--------|--------|--------|--------|--------|--------|
F|--------|--------|--------|--------|--------|--------|--------|--------|--------|
C|--------|--------|--------|--------|--------|--------|--------|--------|--------|
G|--------|--------|--------|--------|--------|--------|--------|--------|--------|
C|--------|--------|--------|--------|--------|--------|--------|--------|--------|


D|--------|--------|--------|--------|--------|--------|--------|--------|--------|
A|--------|--------|--------|--------|--------|--------|--------|--------|--------|
F|--------|--------|--------|--------|--------|--------|--------|--------|--------|
C|--------|--------|--------|--------|--------|--------|--------|--------|--------|
G|--------|--------|--------|--------|--------|--------|--------|--------|--------|
C|--------|--------|--------|--------|--------|--------|--------|--------|--------|


D|--------|--------|--------|--------|--------|--------|--------|--------|--------|
A|--------|--------|--------|--------|--------|--------|--------|--------|--------|
F|--------|--------|--------|--------|--------|--------|--------|--------|--------|
C|--------|--------|--------|--------|--------|--------|--------|--------|--------|
G|--------|--------|--------|--------|--------|--------|--------|--------|--------|
C|--------|--------|--------|--------|--------|--------|--------|--------|--------|


D|--------|--------|--------|--------|---------------------------------------|---------------------------------------|
A|--------|--------|--------|--------|---------------------------------------|---------------------------------------|
F|--------|--------|--------|--------|---------------------------------------|---------------------------------------|
C|--------|--------|--------|--------|---------------------------------------|---------------------------------------|
G|--------|--------|--------|--------|-1--1--0---1--1--0---1--1--0---1-------|-1--1--0---1--1--0---1--1--0---1-------|
C|--------|--------|--------|--------|-1--1--0---1--1--0---1--1--0---1-------|-1--1--0---1--1--0---1--1--0---1-------|


D|---------------------------------------|---------------------------------------|
A|---------------------------------------|---------------------------------------|
F|---------------------------------------|---------------------------------------|
C|---------------------------------------|---------------------------------------|
G|-1--1--0---1--1--0---1--1--0---1-------|-1--1--0---1--1--0---1--1--0---1-------|
C|-1--1--0---1--1--0---1--1--0---1-------|-1--1--0---1--1--0---1--1--0---1-------|


D|---------------------------------|---------------------------------|---------------------------------|
A|---------------------------------|---------------------------------|---------------------------------|
F|---------------------------------|---------------------------------|---------------------------------|
C|---------------------------------|---------------------------------|---------------------------------|
G|-1---0---1---0---1---0---1---0---|-1---0---1---0---1---0---1---0---|-1---0---1---0---1---0---1-------|
C|-1---0---1---0---1---0---1---0---|-1---0---1---0---1---0---1---0---|-1---0---1---0---1---0---1-------|


D|---------------------------------|---------------------------------|---------------------------------|
A|---------------------------------|---------------------------------|---------------------------------|
F|---------------------------------|---------------------------------|---------------------------------|
C|---------------------------------|---------------------------------|---------------------------------|
G|-1---0---1---0---1---0---1-------|-1---0---1---0---1---0---1---0---|-1---0---1---0---1---0---1-------|
C|-1---0---1---0---1---0---1-------|-1---0---1---0---1---0---1---0---|-1---0---1---0---1---0---1-------|


D|---------------------------------|---------------------------------|---------------------------------|
A|---------------------------------|---------------------------------|---------------------------------|
F|---------------------------------|---------------------------------|---------------------------------|
C|---------------------------------|---------------------------------|---------------------------------|
G|-1---0---1---0---1---0---1---0---|-1---0---1---0---1---0---1-------|-1---0---1---0---1---0---1---0---|
C|-1---0---1---0---1---0---1---0---|-1---0---1---0---1---0---1-------|-1---0---1---0---1---0---1---0---|


D|---------------------------------|---------------------------------|---------------------------------|
A|---------------------------------|---------------------------------|---------------------------------|
F|---------------------------------|---------------------------------|---------------------------------|
C|---------------------------------|---------------------------------|---------------------------------|
G|-1---0---1---0---1---0---1-------|-1---0---1---0---1---0---1---0---|-1---0---1---0---1---0---1-------|
C|-1---0---1---0---1---0---1-------|-1---0---1---0---1---0---1---0---|-1---0---1---0---1---0---1-------|





Track 2: Gr. 2 dist.

D|--------|--------|--------|--------|--------|--------|--------|--------|---------------------|
A|--------|--------|--------|--------|--------|--------|--------|--------|---------------------|
F|--------|--------|--------|--------|--------|--------|--------|--------|---------------------|
C|--------|--------|--------|--------|--------|--------|--------|--------|---------------------|
G|--------|--------|--------|--------|--------|--------|--------|--------|---------------------|
C|--------|--------|--------|--------|--------|--------|--------|--------|-5----8----3----7----|


D|-----------------|---------------------|-----------------|---------------------|
A|-----------------|---------------------|-----------------|---------------------|
F|-----------7-----|---------------------|-----------7-----|---------------------|
C|-----------------|---------------------|-----------------|---------------------|
G|-----------------|---------------------|-----------------|---------------------|
C|-1----5----------|-5----8----3----7----|-1----5----------|-5----8----3----7----|


D|-----------------|---------------------|-----------------|---------------------|
A|-----------------|---------------------|-----------------|---------------------|
F|-----------7-----|---------------------|-----------7-----|---------------------|
C|-----------------|---------------------|-----------------|---------------------|
G|-----------------|---------------------|-----------------|---------------------|
C|-1----5----------|-5----8----3----7----|-1----5----------|-5----8----3----7----|


D|-----------------|---------------------|-----------------|-------------------------------------------------|
A|-----------------|---------------------|-----------------|-------------------------------------------------|
F|-----------7-----|---------------------|-----------7-----|-------------------------------------------------|
C|-----------------|---------------------|-----------------|-------------------------------------------------|
G|-----------------|---------------------|-----------------|-------------------------------------------------|
C|-1----5----------|-5----8----3----7----|-1----5----------|-5--5--5--5--8--8--8--8--3--3--3--3--7--7--7--7--|


D|-------------------------------------------------|-------------------------------------------------|
A|-------------------------------------------------|-------------------------------------------------|
F|-------------------------------------------------|-------------------------------------------------|
C|-------------------------------------------------|-------------------------------------------------|
G|-------------------------------------------------|-------------------------------------------------|
C|-1--1--1--1--5--5--5--5--0--0--0--0--0--0--0--0--|-5--5--5--5--8--8--8--8--3--3--3--3--7--7--7--7--|


D|-------------------------------|-------------------------------------------------|
A|-------------------------------|-------------------------------------------------|
F|-------------------------------|-------------------------------------------------|
C|-------------------------------|-------------------------------------------------|
G|-------------------------------|-------------------------------------------------|
C|-1--1--1--1--5--5--5--5--0-----|-5--5--5--5--8--8--8--8--3--3--3--3--7--7--7--7--|


D|-------------------------------------------------|-------------------------------------------------|
A|-------------------------------------------------|-------------------------------------------------|
F|-------------------------------------------------|-------------------------------------------------|
C|-------------------------------------------------|-------------------------------------------------|
G|-------------------------------------------------|-------------------------------------------------|
C|-1--1--1--1--5--5--5--5--0--0--0--0--0--0--0--0--|-5--5--5--5--8--8--8--8--3--3--3--3--7--7--7--7--|


D|-------------------------------|--------|--------|--------|--------|--------|--------|
A|-------------------------------|--------|--------|--------|--------|--------|--------|
F|-------------------------------|--------|--------|--------|--------|--------|--------|
C|-------------------------------|--------|--------|--------|--------|--------|--------|
G|-------------------------------|--------|--------|--------|--------|--------|--------|
C|-1--1--1--1--5--5--5--5--0-----|--------|--------|--------|--------|--------|--------|


D|--------|--------|---------------------|-----------------|---------------------|
A|--------|--------|---------------------|-----------------|---------------------|
F|--------|--------|---------------------|-----------------|---------------------|
C|--------|--------|---------------------|-----------12----|---------------------|
G|--------|--------|---------------------|-----------------|---------------------|
C|--------|--------|-5----8----3----7----|-1----5----------|-5----8----3----7----|


D|-----------------|---------------------|-----------------|---------------------|
A|-----------------|---------------------|-----------------|---------------------|
F|-----------------|---------------------|-----------------|---------------------|
C|-----------12----|---------------------|-----------12----|---------------------|
G|-----------------|---------------------|-----------------|---------------------|
C|-1----5----------|-5----8----3----7----|-1----5----------|-5----8----3----7----|


D|-----------------|---------------------|-----------------|---------------------|
A|-----------------|---------------------|-----------------|---------------------|
F|-----------------|---------------------|-----------------|---------------------|
C|-----------12----|---------------------|-----------12----|---------------------|
G|-----------------|---------------------|-----------------|---------------------|
C|-1----5----------|-5----8----3----7----|-1----5----------|-5----8----3----7----|


D|-----------------|-------------------------------------------------|-------------------------------------------------|
A|-----------------|-------------------------------------------------|-------------------------------------------------|
F|-----------------|-------------------------------------------------|-------------------------------------------------|
C|-----------12----|-------------------------------------------------|-------------------------------------------------|
G|-----------------|-------------------------------------------------|-------------------------------------------------|
C|-1----5----------|-5--5--5--5--8--8--8--8--3--3--3--3--7--7--7--7--|-1--1--1--1--5--5--5--5--0--0--0--0--0--0--0--0--|


D|-------------------------------------------------|-------------------------------|
A|-------------------------------------------------|-------------------------------|
F|-------------------------------------------------|-------------------------------|
C|-------------------------------------------------|-------------------------------|
G|-------------------------------------------------|-------------------------------|
C|-5--5--5--5--8--8--8--8--3--3--3--3--7--7--7--7--|-1--1--1--1--5--5--5--5--0-----|


D|-------------------------------------------------|-------------------------------------------------|
A|-------------------------------------------------|-------------------------------------------------|
F|-------------------------------------------------|-------------------------------------------------|
C|-------------------------------------------------|-------------------------------------------------|
G|-------------------------------------------------|-------------------------------------------------|
C|-5--5--5--5--8--8--8--8--3--3--3--3--7--7--7--7--|-1--1--1--1--5--5--5--5--0--0--0--0--0--0--0--0--|


D|-------------------------------------------------|-------------------------------|
A|-------------------------------------------------|-------------------------------|
F|-------------------------------------------------|-------------------------------|
C|-------------------------------------------------|-------------------------------|
G|-------------------------------------------------|-------------------------------|
C|-5--5--5--5--8--8--8--8--3--3--3--3--7--7--7--7--|-1--1--1--1--5--5--5--5--0-----|


D|--------|--------|--------|--------|--------|--------|--------|--------|--------|
A|--------|--------|--------|--------|--------|--------|--------|--------|--------|
F|--------|--------|--------|--------|--------|--------|--------|--------|--------|
C|--------|--------|--------|--------|--------|--------|--------|--------|--------|
G|--------|--------|--------|--------|--------|--------|--------|--------|--------|
C|--------|--------|--------|--------|--------|--------|--------|--------|--------|


D|--------|--------|--------|-6---5-----------8---6---5-------|-6---5-----------8---6---5-------|
A|--------|--------|--------|---------6-------------------6---|---------6-------------------6---|
F|--------|--------|--------|-------------7-------------------|-------------7-------------------|
C|--------|--------|--------|---------------------------------|---------------------------------|
G|--------|--------|--------|---------------------------------|---------------------------------|
C|--------|--------|--------|---------------------------------|---------------------------------|


D|-6---5-----------8---6---5-------|-6---5-----------8---6---5-------|-6---5-----------8---6---5-------|
A|---------6-------------------6---|---------6-------------------6---|---------6-------------------6---|
F|-------------7-------------------|-------------7-------------------|-------------7-------------------|
C|---------------------------------|---------------------------------|---------------------------------|
G|---------------------------------|---------------------------------|---------------------------------|
C|---------------------------------|---------------------------------|---------------------------------|


D|-6---5-----------8---6---5-------|-6---5-----------8---6---5-------|-6---5-----------8---6---5-------|
A|---------6-------------------6---|---------6-------------------6---|---------6-------------------6---|
F|-------------7-------------------|-------------7-------------------|-------------7-------------------|
C|---------------------------------|---------------------------------|---------------------------------|
G|---------------------------------|---------------------------------|---------------------------------|
C|---------------------------------|---------------------------------|---------------------------------|


D|---------------6----|-6---5-----------8---6---5---6---|-6---6---6---6---6---8---8---8---|
A|--------------------|---------6---3-------------------|---------------------------------|
F|-3---2---0----------|---------------------------------|---------------------------------|
C|--------------------|---------------------------------|---------------------------------|
G|--------------------|---------------------------------|---------------------------------|
C|--------------------|---------------------------------|---------------------------------|


D|-10--10--10--11--11--10-10-10--8---|-8---5----6---6---5-----------|-6---5-----------8---6---5-------|
A|-----------------------------------|----------------------6-------|---------6-------------------6---|
F|-----------------------------------|--------------------------7---|-------------7-------------------|
C|-----------------------------------|------------------------------|---------------------------------|
G|-----------------------------------|------------------------------|---------------------------------|
C|-----------------------------------|------------------------------|---------------------------------|


D|-6---5-----------8---6---5-------|-6---5-----------8---6---5-------|---------------6---6---|
A|---------6-------------------6---|---------6-------------------6---|-----------------------|
F|-------------7-------------------|-------------7-------------------|-3---2---0-------------|
C|---------------------------------|---------------------------------|-----------------------|
G|---------------------------------|---------------------------------|-----------------------|
C|---------------------------------|---------------------------------|-----------------------|


D|-6---5-----------8---6---5-------|-5---6---6---6---6---8---8---8---|-10--10---11--11--10---8---|
A|---------6-------------------6---|---------------------------------|---------------------------|
F|-------------7-------------------|---------------------------------|---------------------------|
C|---------------------------------|---------------------------------|---------------------------|
G|---------------------------------|---------------------------------|---------------------------|
C|---------------------------------|---------------------------------|---------------------------|


D|-8---5----6---6---5----6---|-6---5-----------8---6---5-------|-6---6---6---5---5----5---5---|
A|---------------------------|---------6-------------------6---|-6---6---6---6---6----6---6---|
F|---------------------------|-------------7-------------------|------------------------------|
C|---------------------------|---------------------------------|------------------------------|
G|---------------------------|---------------------------------|------------------------------|
C|---------------------------|---------------------------------|------------------------------|


D|-6---6---6---5---5---6---5---6---|-6---6---6---5---5---5---5---6---|-6---6---6---5---5---5---5---6---|
A|-6---6---6---6---6---5---6---6---|-6---6---6---6---6---6---6---6---|-6---6---6---6---6---6---6---6---|
F|---------------------------------|---------------------------------|---------------------------------|
C|---------------------------------|---------------------------------|---------------------------------|
G|---------------------------------|---------------------------------|---------------------------------|
C|---------------------------------|---------------------------------|---------------------------------|


D|-6---6---6---5---5---5---5---6---|-6---6---6---5---5---5---5---6---|--------|--------|
A|-6---6---6---6---6---6---6---6---|-6---6---6---6---6---6---6---6---|--------|--------|
F|---------------------------------|---------------------------------|--------|--------|
C|---------------------------------|---------------------------------|--------|--------|
G|---------------------------------|---------------------------------|--------|--------|
C|---------------------------------|---------------------------------|--------|--------|


D|--------|--------|--------|--------|--------|--------|--------|--------|--------|
A|--------|--------|--------|--------|--------|--------|--------|--------|--------|
F|--------|--------|--------|--------|--------|--------|--------|--------|--------|
C|--------|--------|--------|--------|--------|--------|--------|--------|--------|
G|--------|--------|--------|--------|--------|--------|--------|--------|--------|
C|--------|--------|--------|--------|--------|--------|--------|--------|--------|


D|--------|--------|--------|--------|--------|--------|--------|--------|--------|
A|--------|--------|--------|--------|--------|--------|--------|--------|--------|
F|--------|--------|--------|--------|--------|--------|--------|--------|--------|
C|--------|--------|--------|--------|--------|--------|--------|--------|--------|
G|--------|--------|--------|--------|--------|--------|--------|--------|--------|
C|--------|--------|--------|--------|--------|--------|--------|--------|--------|





Track 3: Gtr. 3 dist.

D|--------|--------|--------|--------|--------|--------|--------|--------|--------|
A|--------|--------|--------|--------|--------|--------|--------|--------|--------|
F|--------|--------|--------|--------|--------|--------|--------|--------|--------|
C|--------|--------|--------|--------|--------|--------|--------|--------|--------|
G|--------|--------|--------|--------|--------|--------|--------|--------|--------|
C|--------|--------|--------|--------|--------|--------|--------|--------|--------|


D|-------------|--------|-------------|--------|-------------|--------|-------------|
A|-------------|--------|-------------|--------|-------------|--------|-------------|
F|-------7-----|--------|-------------|--------|-------7-----|--------|-------------|
C|-------------|--------|-------------|--------|-------------|--------|-------------|
G|-------------|--------|-------------|--------|-------------|--------|-------------|
C|-------------|--------|-------12----|--------|-------------|--------|-------12----|


D|--------|-------------|--------|-------------|--------|--------|--------|-------------|
A|--------|-------------|--------|-------------|--------|--------|--------|-------------|
F|--------|-------7-----|--------|-------------|--------|--------|--------|-------7-----|
C|--------|-------------|--------|-------------|--------|--------|--------|-------------|
G|--------|-------------|--------|-------------|--------|--------|--------|-------------|
C|--------|-------------|--------|-------12----|--------|--------|--------|-------------|


D|--------|--------|--------|-------------|--------|--------|--------|--------|--------|
A|--------|--------|--------|-------------|--------|--------|--------|--------|--------|
F|--------|--------|--------|-------7-----|--------|--------|--------|--------|--------|
C|--------|--------|--------|-------------|--------|--------|--------|--------|--------|
G|--------|--------|--------|-------------|--------|--------|--------|--------|--------|
C|--------|--------|--------|-------------|--------|--------|--------|--------|--------|


D|--------|--------|--------|--------|-------------|--------|-------------|--------|
A|--------|--------|--------|--------|-------------|--------|-------------|--------|
F|--------|--------|--------|--------|-------7-----|--------|-------7-----|--------|
C|--------|--------|--------|--------|-------------|--------|-------------|--------|
G|--------|--------|--------|--------|-------------|--------|-------------|--------|
C|--------|--------|--------|--------|-------------|--------|-------------|--------|


D|-------------|--------|-------------|--------|-------------|--------|-------------|
A|-------------|--------|-------------|--------|-------------|--------|-------------|
F|-------7-----|--------|-------7-----|--------|-------7-----|--------|-------7-----|
C|-------------|--------|-------------|--------|-------------|--------|-------------|
G|-------------|--------|-------------|--------|-------------|--------|-------------|
C|-------------|--------|-------------|--------|-------------|--------|-------------|


D|--------|--------|--------|-------------|--------|--------|--------|-------------|
A|--------|--------|--------|-------------|--------|--------|--------|-------------|
F|--------|--------|--------|-------7-----|--------|--------|--------|-------------|
C|--------|--------|--------|-------------|--------|--------|--------|-------------|
G|--------|--------|--------|-------------|--------|--------|--------|-------------|
C|--------|--------|--------|-------------|--------|--------|--------|-------12----|


D|--------|--------|--------|--------|--------|--------|--------|--------|--------|
A|--------|--------|--------|--------|--------|--------|--------|--------|--------|
F|--------|--------|--------|--------|--------|--------|--------|--------|--------|
C|--------|--------|--------|--------|--------|--------|--------|--------|--------|
G|--------|--------|--------|--------|--------|--------|--------|--------|--------|
C|--------|--------|--------|--------|--------|--------|--------|--------|--------|


D|--------|--------|--------|---------------------------------|---------------------------------|
A|--------|--------|--------|---------------------------------|---------------------------------|
F|--------|--------|--------|---------------------------------|---------------------------------|
C|--------|--------|--------|---------------------------------|---------------------------------|
G|--------|--------|--------|---------------------------------|---------------------------------|
C|--------|--------|--------|-5---5---5---5---5---5---5---5---|-5---5---5---5---5---5---5---5---|


D|---------------------------------|---------------------------------|---------------------------------|
A|---------------------------------|---------------------------------|---------------------------------|
F|---------------------------------|---------------------------------|---------------------------------|
C|---------------------------------|---------------------------------|---------------------------------|
G|---------------------------------|---------------------------------|---------------------------------|
C|-5---5---5---5---5---5---5---5---|-5---5---5---5---5---5---5---5---|-3---3---3---3---3---3---3---3---|


D|---------------------------------|---------------------------------|---------------------------------|
A|---------------------------------|---------------------------------|---------------------------------|
F|---------------------------------|---------------------------------|---------------------------------|
C|---------------------------------|---------------------------------|---------------------------------|
G|---------------------------------|---------------------------------|---------------------------------|
C|-3---3---3---3---3---3---3---3---|-3---3---3---3---3---3---3---3---|-3---3---3---3---3---3---3---3---|


D|---------------------------------|---------------------------------|---------------------------------|
A|---------------------------------|---------------------------------|---------------------------------|
F|---------------------------------|---------------------------------|---------------------------------|
C|---------------------------------|---------------------------------|---------------------------------|
G|---------------------------------|---------------------------------|---------------------------------|
C|-5---5---5---5---5---5---5---5---|-5---5---5---5---5---5---5---5---|-5---5---5---5---5---5---5---5---|


D|---------------------------------|---------------------------------|---------------------------------|
A|---------------------------------|---------------------------------|---------------------------------|
F|---------------------------------|---------------------------------|---------------------------------|
C|---------------------------------|---------------------------------|---------------------------------|
G|---------------------------------|---------------------------------|---------------------------------|
C|-5---5---5---5---5---5---5---5---|-3---3---3---3---3---3---3---3---|-3---3---3---3---3---3---3---3---|


D|---------------------------------|---------------------------------|---------------------------------|
A|---------------------------------|---------------------------------|---------------------------------|
F|---------------------------------|---------------------------------|---------------------------------|
C|---------------------------------|---------------------------------|---------------------------------|
G|---------------------------------|---------------------------------|---------------------------------|
C|-3---3---3---3---3---3---3---3---|-3---3---3---3---3---3---3---3---|-5---5---5---5---5---5---5---5---|


D|---------------------------------|---------------------------------|---------------------------------|
A|---------------------------------|---------------------------------|---------------------------------|
F|---------------------------------|---------------------------------|---------------------------------|
C|---------------------------------|---------------------------------|---------------------------------|
G|---------------------------------|---------------------------------|---------------------------------|
C|-5---5---5---5---5---5---5---5---|-5---5---5---5---5---5---5---5---|-5---5---5---5---5---5---5---5---|


D|---------------------------------|---------------------------------|---------------------------------|
A|---------------------------------|---------------------------------|---------------------------------|
F|---------------------------------|---------------------------------|---------------------------------|
C|---------------------------------|---------------------------------|---------------------------------|
G|---------------------------------|---------------------------------|---------------------------------|
C|-3---3---3---3---3---3---3---3---|-3---3---3---3---3---3---3---3---|-1---1---1---1---1---1---1---1---|


D|---------------------------------|---------------------------------|---------------------------------|
A|---------------------------------|---------------------------------|---------------------------------|
F|---------------------------------|---------------------------------|---------------------------------|
C|---------------------------------|---------------------------------|---------------------------------|
G|---------------------------------|---------------------------------|---------------------------------|
C|-3---3---3---3---3---3---3---3---|-5---5---5---5---5---5---5---5---|-5---5---5---5---5---5---5---5---|


D|---------------------------------|---------------------------------|--------------------|
A|---------------------------------|---------------------------------|--------------------|
F|---------------------------------|---------------------------------|--------------------|
C|---------------------------------|---------------------------------|--------------------|
G|---------------------------------|---------------------------------|--------------------|
C|-5---5---5---5---5---5---5---5---|-5---5---5---5---5---5---5---5---|-5------------------|


D|--------|--------|--------|--------|--------|--------|--------|--------|--------|
A|--------|--------|--------|--------|--------|--------|--------|--------|--------|
F|--------|--------|--------|--------|--------|--------|--------|--------|--------|
C|--------|--------|--------|--------|--------|--------|--------|--------|--------|
G|--------|--------|--------|--------|--------|--------|--------|--------|--------|
C|--------|--------|--------|--------|--------|--------|--------|--------|--------|


D|--------|--------|--------|--------|--------|--------|--------|--------|--------|
A|--------|--------|--------|--------|--------|--------|--------|--------|--------|
F|--------|--------|--------|--------|--------|--------|--------|--------|--------|
C|--------|--------|--------|--------|--------|--------|--------|--------|--------|
G|--------|--------|--------|--------|--------|--------|--------|--------|--------|
C|--------|--------|--------|--------|--------|--------|--------|--------|--------|


D|--------|
A|--------|
F|--------|
C|--------|
G|--------|
C|--------|





Track 4: Gtr 4. Mandolin arr. for gtr.

D|--------|--------|--------|--------|--------|--------|--------|--------|--------|
A|--------|--------|--------|--------|--------|--------|--------|--------|--------|
F|--------|--------|--------|--------|--------|--------|--------|--------|--------|
C|--------|--------|--------|--------|--------|--------|--------|--------|--------|
G|--------|--------|--------|--------|--------|--------|--------|--------|--------|
C|--------|--------|--------|--------|--------|--------|--------|--------|--------|


D|--------|--------|--------|--------|--------|--------|--------|--------|--------|
A|--------|--------|--------|--------|--------|--------|--------|--------|--------|
F|--------|--------|--------|--------|--------|--------|--------|--------|--------|
C|--------|--------|--------|--------|--------|--------|--------|--------|--------|
G|--------|--------|--------|--------|--------|--------|--------|--------|--------|
C|--------|--------|--------|--------|--------|--------|--------|--------|--------|


D|--------|--------|--------|--------|--------|--------|--------|--------|--------|
A|--------|--------|--------|--------|--------|--------|--------|--------|--------|
F|--------|--------|--------|--------|--------|--------|--------|--------|--------|
C|--------|--------|--------|--------|--------|--------|--------|--------|--------|
G|--------|--------|--------|--------|--------|--------|--------|--------|--------|
C|--------|--------|--------|--------|--------|--------|--------|--------|--------|


D|--------|--------|--------|--------|--------|--------|--------|--------|--------|
A|--------|--------|--------|--------|--------|--------|--------|--------|--------|
F|--------|--------|--------|--------|--------|--------|--------|--------|--------|
C|--------|--------|--------|--------|--------|--------|--------|--------|--------|
G|--------|--------|--------|--------|--------|--------|--------|--------|--------|
C|--------|--------|--------|--------|--------|--------|--------|--------|--------|


D|--------|--------|--------|--------|--------|--------|--------|--------|--------|
A|--------|--------|--------|--------|--------|--------|--------|--------|--------|
F|--------|--------|--------|--------|--------|--------|--------|--------|--------|
C|--------|--------|--------|--------|--------|--------|--------|--------|--------|
G|--------|--------|--------|--------|--------|--------|--------|--------|--------|
C|--------|--------|--------|--------|--------|--------|--------|--------|--------|


D|--------|--------|--------|--------|--------|--------|--------|--------|--------|
A|--------|--------|--------|--------|--------|--------|--------|--------|--------|
F|--------|--------|--------|--------|--------|--------|--------|--------|--------|
C|--------|--------|--------|--------|--------|--------|--------|--------|--------|
G|--------|--------|--------|--------|--------|--------|--------|--------|--------|
C|--------|--------|--------|--------|--------|--------|--------|--------|--------|


D|--------|--------|--------|--------|--------|--------|--------|--------|--------|
A|--------|--------|--------|--------|--------|--------|--------|--------|--------|
F|--------|--------|--------|--------|--------|--------|--------|--------|--------|
C|--------|--------|--------|--------|--------|--------|--------|--------|--------|
G|--------|--------|--------|--------|--------|--------|--------|--------|--------|
C|--------|--------|--------|--------|--------|--------|--------|--------|--------|


D|--------|--------|--------|--------|--------|--------|--------|--------|--------|
A|--------|--------|--------|--------|--------|--------|--------|--------|--------|
F|--------|--------|--------|--------|--------|--------|--------|--------|--------|
C|--------|--------|--------|--------|--------|--------|--------|--------|--------|
G|--------|--------|--------|--------|--------|--------|--------|--------|--------|
C|--------|--------|--------|--------|--------|--------|--------|--------|--------|


D|--------|--------|--------|--------|----------------|-----------------8---|-8-----10--10----|
A|--------|--------|--------|--------|-11--10---------|-----------11----10--|-10----11--11----|
F|--------|--------|--------|--------|---------12-----|-12---12---12--------|-----------------|
C|--------|--------|--------|--------|----------------|---------------------|-----------------|
G|--------|--------|--------|--------|----------------|---------------------|-----------------|
C|--------|--------|--------|--------|----------------|---------------------|-----------------|


D|-10----11--11--10---8---|-8---5-----5-----|-5---------------------|--------5----------------|
A|-11----13--13--11---10--|-10--6-----6-----|-6-----6---6---6---6---|-6---6-----6---6---6-----|
F|------------------------|-----------------|-----------------------|-------------------------|
C|------------------------|-----------------|-----------------------|-------------------------|
G|------------------------|-----------------|-----------------------|-------------------------|
C|------------------------|-----------------|-----------------------|-------------------------|


D|--------|----------------|-----------------8---|-8-----10--10----|-10----11--11--10---8---|
A|--------|-11--10---------|-----------11----10--|-10----11--11----|-11----13--13--11---10--|
F|--------|---------12-----|-12---12---12--------|-----------------|------------------------|
C|--------|----------------|---------------------|-----------------|------------------------|
G|--------|----------------|---------------------|-----------------|------------------------|
C|--------|----------------|---------------------|-----------------|------------------------|


D|-8---5-----5-----|--------|-6-----5---5-----|-6-----5---5-----6---|-6-----5---5-----6---|
A|-10--6-----6-----|-6------|-----------------|---------------------|---------------------|
F|-----------------|--------|-----------------|---------------------|---------------------|
C|-----------------|--------|-----------------|---------------------|---------------------|
G|-----------------|--------|-----------------|---------------------|---------------------|
C|-----------------|--------|-----------------|---------------------|---------------------|


D|-6-----5---5---5---5---6---|-6-----5---5---5---5---6---|-6-----5---5-----|--------|
A|---------------------------|---------------------------|-----------------|--------|
F|---------------------------|---------------------------|-----------------|--------|
C|---------------------------|---------------------------|-----------------|--------|
G|---------------------------|---------------------------|-----------------|--------|
C|---------------------------|---------------------------|-----------------|--------|


D|--------|--------|--------|--------|--------|--------|--------|--------|--------|
A|--------|--------|--------|--------|--------|--------|--------|--------|--------|
F|--------|--------|--------|--------|--------|--------|--------|--------|--------|
C|--------|--------|--------|--------|--------|--------|--------|--------|--------|
G|--------|--------|--------|--------|--------|--------|--------|--------|--------|
C|--------|--------|--------|--------|--------|--------|--------|--------|--------|


D|--------|--------|--------|--------|--------|--------|--------|--------|--------|
A|--------|--------|--------|--------|--------|--------|--------|--------|--------|
F|--------|--------|--------|--------|--------|--------|--------|--------|--------|
C|--------|--------|--------|--------|--------|--------|--------|--------|--------|
G|--------|--------|--------|--------|--------|--------|--------|--------|--------|
C|--------|--------|--------|--------|--------|--------|--------|--------|--------|


D|--------|
A|--------|
F|--------|
C|--------|
G|--------|
C|--------|





Track 5: Untitled

G|--------|--------|--------|--------|--------|--------|--------|--------|--------|
D|--------|--------|--------|--------|--------|--------|--------|--------|--------|
A|--------|--------|--------|--------|--------|--------|--------|--------|--------|
E|--------|--------|--------|--------|--------|--------|--------|--------|--------|


G|--------|--------|--------|--------|--------|--------|--------|--------|--------|
D|--------|--------|--------|--------|--------|--------|--------|--------|--------|
A|--------|--------|--------|--------|--------|--------|--------|--------|--------|
E|--------|--------|--------|--------|--------|--------|--------|--------|--------|


G|--------|--------|--------|--------|--------|--------|--------|--------|--------|
D|--------|--------|--------|--------|--------|--------|--------|--------|--------|
A|--------|--------|--------|--------|--------|--------|--------|--------|--------|
E|--------|--------|--------|--------|--------|--------|--------|--------|--------|


G|--------|--------|--------|--------|--------|--------|--------|--------|--------|
D|--------|--------|--------|--------|--------|--------|--------|--------|--------|
A|--------|--------|--------|--------|--------|--------|--------|--------|--------|
E|--------|--------|--------|--------|--------|--------|--------|--------|--------|


G|--------|--------|--------|--------|--------|--------|--------|--------|--------|
D|--------|--------|--------|--------|--------|--------|--------|--------|--------|
A|--------|--------|--------|--------|--------|--------|--------|--------|--------|
E|--------|--------|--------|--------|--------|--------|--------|--------|--------|


G|--------|--------|--------|--------|--------|--------|--------|--------|--------|
D|--------|--------|--------|--------|--------|--------|--------|--------|--------|
A|--------|--------|--------|--------|--------|--------|--------|--------|--------|
E|--------|--------|--------|--------|--------|--------|--------|--------|--------|


G|--------|--------|--------|--------|--------|--------|--------|--------|--------|
D|--------|--------|--------|--------|--------|--------|--------|--------|--------|
A|--------|--------|--------|--------|--------|--------|--------|--------|--------|
E|--------|--------|--------|--------|--------|--------|--------|--------|--------|


G|--------|--------|--------|--------|--------|--------|--------|--------|--------|
D|--------|--------|--------|--------|--------|--------|--------|--------|--------|
A|--------|--------|--------|--------|--------|--------|--------|--------|--------|
E|--------|--------|--------|--------|--------|--------|--------|--------|--------|


G|--------|--------|--------|--------|--------|--------|--------|--------|--------|
D|--------|--------|--------|--------|--------|--------|--------|--------|--------|
A|--------|--------|--------|--------|--------|--------|--------|--------|--------|
E|--------|--------|--------|--------|--------|--------|--------|--------|--------|


G|--------|--------|--------|--------|--------|--------|--------|--------|--------|
D|--------|--------|--------|--------|--------|--------|--------|--------|--------|
A|--------|--------|--------|--------|--------|--------|--------|--------|--------|
E|--------|--------|--------|--------|--------|--------|--------|--------|--------|


G|--------|--------|--------|--------|--------|--------|--------|--------|--------|
D|--------|--------|--------|--------|--------|--------|--------|--------|--------|
A|--------|--------|--------|--------|--------|--------|--------|--------|--------|
E|--------|--------|--------|--------|--------|--------|--------|--------|--------|


G|--------|--------|--------|--------|--------|--------|--------|--------|--------|
D|--------|--------|--------|--------|--------|--------|--------|--------|--------|
A|--------|--------|--------|--------|--------|--------|--------|--------|--------|
E|--------|--------|--------|--------|--------|--------|--------|--------|--------|


G|--------|--------|--------|--------|--------|--------|--------|--------|
D|--------|--------|--------|--------|--------|--------|--------|--------|
A|--------|--------|--------|--------|--------|--------|--------|--------|
E|--------|--------|--------|--------|--------|--------|--------|--------|