Menu:

 

Search:

 

system of a down - ddevil:

 



Title: Ddevil
Artist: 
Album: System of a Down
Author: Daron Malakian, Serj Tankian, Shavo Odadjian and John Dolmayan


Track 1: Guitar 1

D|--------|--------|--------|--------|--------|--------|--------|--------|-------------|
A|--------|--------|--------|--------|--------|--------|--------|--------|-------------|
F|--------|--------|--------|--------|--------|--------|--------|--------|-------------|
C|--------|--------|--------|--------|--------|--------|--------|--------|------5------|
G|--------|--------|--------|--------|--------|--------|--------|--------|-------------|
C|--------|--------|--------|--------|--------|--------|--------|--------|-------------|


D|--------|--------|----------------|-------------------------------------|-------------------------------------|
A|--------|--------|----------------|-------------------------------------|-------------------------------------|
F|--------|--------|----------------|-------------------------------------|-------------------------------------|
C|-5------|-5------|-5------5-------|-------------------------------------|-------------------------------------|
G|--------|--------|------------5---|-6---4---5---5---6---6---4---5---5---|-6---4---5---5---6---6---4---5---5---|
C|--------|--------|------------5---|-6---4---5---5---6---6---4---5---5---|-6---4---5---5---6---6---4---5---5---|


D|-------------------------------------|-------------------------------------|-------------------------------------|
A|-------------------------------------|-------------------------------------|-------------------------------------|
F|-------------------------------------|-------------------------------------|-------------------------------------|
C|-------------------------------------|-------------------------------------|-------------------------------------|
G|-6---4---5---5---6---6---4---5---5---|-6---4---5---5---6---6---4---5---5---|-6---4---5---5---6---6---4---5---5---|
C|-6---4---5---5---6---6---4---5---5---|-6---4---5---5---6---6---4---5---5---|-6---4---5---5---6---6---4---5---5---|


D|-------------------------------------|-------------------------------------|-------------------------------------|
A|-------------------------------------|-------------------------------------|-------------------------------------|
F|-------------------------------------|-------------------------------------|-------------------------------------|
C|-------------------------------------|-------------------------------------|-------------------------------------|
G|-6---4---5---5---6---6---4---5---5---|-6---4---5---5---6---6---4---5---5---|-6---4---5---5---6---6---4---5---5---|
C|-6---4---5---5---6---6---4---5---5---|-6---4---5---5---6---6---4---5---5---|-6---4---5---5---6---6---4---5---5---|


D|---------------------------------|---------------------------------|---------------------------------|
A|---------------------------------|---------------------------------|---------------------------------|
F|---------------------------------|---------------------------------|---------------------------------|
C|---------------------------------|---------------------------------|---------------------------------|
G|---------------------------------|---------------------------------|---------------------------------|
C|-7---8---7---8---7---8---7---8---|-7---8---7---8---7---8---7---8---|-7---8---7---8---7---8---7---8---|


D|---------------------------------|---------------------------------|---------------------------------|
A|---------------------------------|---------------------------------|---------------------------------|
F|---------------------------------|---------------------------------|---------------------------------|
C|-------------8---7---------------|---------------------------------|---------------------------------|
G|-----8---7-----------8---7-------|---------------------------------|---------------------------------|
C|-7---------------------------8---|-7---8---7---8---7---8---7---8---|-7---8---7---8---7---8---7---8---|


D|---------------------------------|---------------------------------|-------------|
A|---------------------------------|---------------------------------|-------------|
F|---------------------------------|---------------------------------|-------------|
C|---------------------------------|-------------8---7---------------|-------------|
G|---------------------------------|-----8---7-----------8---7-------|-5-----4-----|
C|-7---8---7---8---7---8---7---8---|-7---------------------------8---|-5-----4-----|


D|-------------|-------------------------------------|-------------|-------------------------------------|
A|-------------|-------------------------------------|-------------|-------------------------------------|
F|-------------|-------------------------------------|-------------|-------------------------------------|
C|-------------|-------------------------------------|-------------|-------------------------------------|
G|-6-----5-----|-6---4---5---5---6---6---4---5---5---|-6-----5-----|-6---4---5---5---6---6---4---5---5---|
C|-6-----5-----|-6---4---5---5---6---6---4---5---5---|-6-----5-----|-6---4---5---5---6---6---4---5---5---|


D|-------------|-------------------------------------|-------------|---------------------------------|
A|-------------|-------------------------------------|-------------|---------------------------------|
F|-------------|-------------------------------------|-------------|---------------------------------|
C|-------------|-------------------------------------|-------------|---------------------------------|
G|-6-----5-----|-6---4---5---5---6---6---4---5---5---|-6-----5-----|---------------------------------|
C|-6-----5-----|-6---4---5---5---6---6---4---5---5---|-6-----5-----|-7---8---7---8---7---8---7---8---|


D|---------------------------------|---------------------------------|---------------------------------|
A|---------------------------------|---------------------------------|---------------------------------|
F|---------------------------------|---------------------------------|---------------------------------|
C|---------------------------------|---------------------------------|-------------8---7---------------|
G|---------------------------------|---------------------------------|-----8---7-----------8---7-------|
C|-7---8---7---8---7---8---7---8---|-7---8---7---8---7---8---7---8---|-7---------------------------8---|


D|---------------------------------|---------------------------------|---------------------------------|
A|---------------------------------|---------------------------------|---------------------------------|
F|---------------------------------|---------------------------------|---------------------------------|
C|---------------------------------|---------------------------------|---------------------------------|
G|---------------------------------|---------------------------------|---------------------------------|
C|-7---8---7---8---7---8---7---8---|-7---8---7---8---7---8---7---8---|-7---8---7---8---7---8---7---8---|


D|---------------------------------|-------------|-------------|-------------------------------------|
A|---------------------------------|-------------|-------------|-------------------------------------|
F|---------------------------------|-------------|-------------|-------------------------------------|
C|-------------8---7---------------|-------------|-------------|-------------------------------------|
G|-----8---7-----------8---7-------|-5-----4-----|-6-----5-----|-6---4---5---5---6---6---4---5---5---|
C|-7---------------------------8---|-5-----4-----|-6-----5-----|-6---4---5---5---6---6---4---5---5---|


D|-------------|-------------------------------------|-------------|-------------------------------------|
A|-------------|-------------------------------------|-------------|-------------------------------------|
F|-------------|-------------------------------------|-------------|-------------------------------------|
C|-------------|-------------------------------------|-------------|-------------------------------------|
G|-6-----5-----|-6---4---5---5---6---6---4---5---5---|-6-----5-----|-6---4---5---5---6---6---4---5---5---|
C|-6-----5-----|-6---4---5---5---6---6---4---5---5---|-6-----5-----|-6---4---5---5---6---6---4---5---5---|


D|-------------|----------------|----------------------------------|----------------|
A|-------------|----------------|----------------------------------|----------------|
F|-------------|----------------|----------------------------------|----------------|
C|-------------|----------------|----------------------------------|----------------|
G|-6-----5-----|------------5---|-6---4---5---5---6---6---4---5----|------------5---|
C|-6-----5-----|------------5---|-6---4---5---5---6---6---4---5----|------------5---|


D|----------------------------------|------------------------|------------------------|
A|----------------------------------|------------------------|------------------------|
F|----------------------------------|------------------------|------------------------|
C|----------------------------------|------------------------|------------------------|
G|-6---4---5---5---6---6---4---5----|-------5---6---4---5----|-------5---6---4---5----|
C|-6---4---5---5---6---6---4---5----|-------5---6---4---5----|-------5---6---4---5----|


D|--------|----------------|---------------------------------|---------------------------------|
A|--------|----------------|---------------------------------|---------------------------------|
F|--------|----------------|---------------------------------|---------------------------------|
C|--------|----------------|---------------------------------|---------------------------------|
G|--------|----------------|---------------------------------|---------------------------------|
C|--------|------------8---|-7---8---7---8---7---8---7---8---|-7---8---7---8---7---8---7---8---|


D|---------------------------------|---------------------------------|---------------------------------|
A|---------------------------------|---------------------------------|---------------------------------|
F|---------------------------------|---------------------------------|---------------------------------|
C|---------------------------------|-------------8---7---------------|---------------------------------|
G|---------------------------------|-----8---7-----------8---7-------|---------------------------------|
C|-7---8---7---8---7---8---7---8---|-7---------------------------8---|-7---8---7---8---7---8---7---8---|


D|---------------------------------|---------------------------------|---------------------------------|
A|---------------------------------|---------------------------------|---------------------------------|
F|---------------------------------|---------------------------------|---------------------------------|
C|---------------------------------|---------------------------------|-------------8---7---------------|
G|---------------------------------|---------------------------------|-----8---7-----------8---7-------|
C|-7---8---7---8---7---8---7---8---|-7---8---7---8---7---8---7---8---|-7---------------------------8---|


D|-------------|-------------|-------------------------------------|-------------|
A|-------------|-------------|-------------------------------------|-------------|
F|-------------|-------------|-------------------------------------|-------------|
C|-------------|-------------|-------------------------------------|-------------|
G|-5-----4-----|-6-----5-----|-6---4---5---5---6---6---4---5---5---|-6-----5-----|
C|-5-----4-----|-6-----5-----|-6---4---5---5---6---6---4---5---5---|-6-----5-----|


D|-------------------------------------|-------------|-------------------------------------|
A|-------------------------------------|-------------|-------------------------------------|
F|-------------------------------------|-------------|-------------------------------------|
C|-------------------------------------|-------------|-------------------------------------|
G|-6---4---5---5---6---6---4---5---5---|-6-----5-----|-6---4---5---5---6---6---4---5---5---|
C|-6---4---5---5---6---6---4---5---5---|-6-----5-----|-6---4---5---5---6---6---4---5---5---|


D|-------------------------------------|-------------------------------------|-------------------------------------|
A|-------------------------------------|-------------------------------------|-------------------------------------|
F|-------------------------------------|-------------------------------------|-------------------------------------|
C|-------------------------------------|-------------------------------------|-------------------------------------|
G|-6---4---5---5---6---6---4---5---5---|-6---4---5---5---6---6---4---5---5---|-6---4---5---5---6---6---4---5---5---|
C|-6---4---5---5---6---6---4---5---5---|-6---4---5---5---6---6---4---5---5---|-6---4---5---5---6---6---4---5---5---|


D|-------------------------------------|-------------------------------------|-------------------------------------|
A|-------------------------------------|-------------------------------------|-------------------------------------|
F|-------------------------------------|-------------------------------------|-------------------------------------|
C|-------------------------------------|-------------------------------------|-------------------------------------|
G|-6---4---5---5---6---6---4---5---5---|-6---4---5---5---6---6---4---5---5---|-6---4---5---5---6---6---4---5---5---|
C|-6---4---5---5---6---6---4---5---5---|-6---4---5---5---6---6---4---5---5---|-6---4---5---5---6---6---4---5---5---|


D|-------------------------------------|
A|-------------------------------------|
F|-------------------------------------|
C|-------------------------------------|
G|-6---4---5---5---6---6---4---5---5---|
C|-6---4---5---5---6---6---4---5---5---|





Track 2: Guitar 2

D|--------|--------|--------|--------|--------|--------|--------|--------|--------|
A|--------|--------|--------|--------|--------|--------|--------|--------|--------|
F|--------|--------|--------|--------|--------|--------|--------|--------|--------|
C|--------|--------|--------|--------|--------|--------|--------|--------|--------|
G|--------|--------|--------|--------|--------|--------|--------|--------|--------|
C|--------|--------|--------|--------|--------|--------|--------|--------|--------|


D|--------|--------|--------|--------|--------|--------|--------|--------|--------|
A|--------|--------|--------|--------|--------|--------|--------|--------|--------|
F|--------|--------|--------|--------|--------|--------|--------|--------|--------|
C|--------|--------|--------|--------|--------|--------|--------|--------|--------|
G|--------|--------|--------|--------|--------|--------|--------|--------|--------|
C|--------|--------|--------|--------|--------|--------|--------|--------|--------|


D|--------|--------|--------|--------|--------|--------|--------|--------|--------|
A|--------|--------|--------|--------|--------|--------|--------|--------|--------|
F|--------|--------|--------|--------|--------|--------|--------|--------|--------|
C|--------|--------|--------|--------|--------|--------|--------|--------|--------|
G|--------|--------|--------|--------|--------|--------|--------|--------|--------|
C|--------|--------|--------|--------|--------|--------|--------|--------|--------|


D|--------|--------|--------|--------|--------|--------|--------|--------|--------|
A|--------|--------|--------|--------|--------|--------|--------|--------|--------|
F|--------|--------|--------|--------|--------|--------|--------|--------|--------|
C|--------|--------|--------|--------|--------|--------|--------|--------|--------|
G|--------|--------|--------|--------|--------|--------|--------|--------|--------|
C|--------|--------|--------|--------|--------|--------|--------|--------|--------|


D|--------|--------|--------|--------|--------|--------|--------|--------|--------|
A|--------|--------|--------|--------|--------|--------|--------|--------|--------|
F|--------|--------|--------|--------|--------|--------|--------|--------|--------|
C|--------|--------|--------|--------|--------|--------|--------|--------|--------|
G|--------|--------|--------|--------|--------|--------|--------|--------|--------|
C|--------|--------|--------|--------|--------|--------|--------|--------|--------|


D|--------|--------|--------|--------|--------|--------|----------------|----------------------------------|
A|--------|--------|--------|--------|--------|--------|----------------|----------------------------------|
F|--------|--------|--------|--------|--------|--------|----------------|----------------------------------|
C|--------|--------|--------|--------|--------|--------|------------5---|-6---4---5---5---6---6---4---5----|
G|--------|--------|--------|--------|--------|--------|----------------|----------------------------------|
C|--------|--------|--------|--------|--------|--------|----------------|----------------------------------|


D|----------------|----------------------------------|----------------|------------------------|
A|----------------|----------------------------------|----------------|------------------------|
F|----------------|----------------------------------|----------------|------------------------|
C|------------5---|-6---4---5---5---6---6---4---5----|------------5---|-6---4---5----------5---|
G|----------------|----------------------------------|----------------|------------------------|
C|----------------|----------------------------------|----------------|------------------------|


D|------------------------|---------------------------------|------------------------------|
A|------------------------|---------------------------------|------------------------------|
F|------------------------|---------------------------------|------------------------------|
C|-6---4---5----------5---|-6---4---5---5---6---4---5---6---|-6---4---5---6---6---4---5----|
G|------------------------|---------------------------------|------------------------------|
C|------------------------|---------------------------------|------------------------------|


D|--------|--------|--------|--------|--------|--------|--------|--------|--------|
A|--------|--------|--------|--------|--------|--------|--------|--------|--------|
F|--------|--------|--------|--------|--------|--------|--------|--------|--------|
C|--------|--------|--------|--------|--------|--------|--------|--------|--------|
G|--------|--------|--------|--------|--------|--------|--------|--------|--------|
C|--------|--------|--------|--------|--------|--------|--------|--------|--------|


D|--------|--------|--------|--------|--------|--------|--------|--------|--------|
A|--------|--------|--------|--------|--------|--------|--------|--------|--------|
F|--------|--------|--------|--------|--------|--------|--------|--------|--------|
C|--------|--------|--------|--------|--------|--------|--------|--------|--------|
G|--------|--------|--------|--------|--------|--------|--------|--------|--------|
C|--------|--------|--------|--------|--------|--------|--------|--------|--------|


D|--------|--------|--------|--------|
A|--------|--------|--------|--------|
F|--------|--------|--------|--------|
C|--------|--------|--------|--------|
G|--------|--------|--------|--------|
C|--------|--------|--------|--------|





Track 3: Untitled

G|--------|--------|--------|--------|--------|--------|--------|--------|--------|
D|--------|--------|--------|--------|--------|--------|--------|--------|--------|
A|--------|--------|--------|--------|--------|--------|--------|--------|--------|
E|--------|--------|--------|--------|--------|--------|--------|--------|--------|


G|--------|--------|--------|--------|--------|--------|--------|--------|--------|
D|--------|--------|--------|--------|--------|--------|--------|--------|--------|
A|--------|--------|--------|--------|--------|--------|--------|--------|--------|
E|--------|--------|--------|--------|--------|--------|--------|--------|--------|


G|--------|--------|--------|--------|--------|--------|--------|--------|--------|
D|--------|--------|--------|--------|--------|--------|--------|--------|--------|
A|--------|--------|--------|--------|--------|--------|--------|--------|--------|
E|--------|--------|--------|--------|--------|--------|--------|--------|--------|


G|--------|--------|--------|--------|--------|--------|--------|--------|--------|
D|--------|--------|--------|--------|--------|--------|--------|--------|--------|
A|--------|--------|--------|--------|--------|--------|--------|--------|--------|
E|--------|--------|--------|--------|--------|--------|--------|--------|--------|


G|--------|--------|--------|--------|--------|--------|--------|--------|--------|
D|--------|--------|--------|--------|--------|--------|--------|--------|--------|
A|--------|--------|--------|--------|--------|--------|--------|--------|--------|
E|--------|--------|--------|--------|--------|--------|--------|--------|--------|


G|--------|--------|--------|--------|--------|--------|--------|--------|--------|
D|--------|--------|--------|--------|--------|--------|--------|--------|--------|
A|--------|--------|--------|--------|--------|--------|--------|--------|--------|
E|--------|--------|--------|--------|--------|--------|--------|--------|--------|


G|--------|--------|--------|--------|--------|--------|--------|--------|--------|
D|--------|--------|--------|--------|--------|--------|--------|--------|--------|
A|--------|--------|--------|--------|--------|--------|--------|--------|--------|
E|--------|--------|--------|--------|--------|--------|--------|--------|--------|


G|--------|--------|--------|--------|--------|--------|--------|--------|--------|
D|--------|--------|--------|--------|--------|--------|--------|--------|--------|
A|--------|--------|--------|--------|--------|--------|--------|--------|--------|
E|--------|--------|--------|--------|--------|--------|--------|--------|--------|


G|--------|--------|--------|--------|--------|--------|--------|--------|--------|
D|--------|--------|--------|--------|--------|--------|--------|--------|--------|
A|--------|--------|--------|--------|--------|--------|--------|--------|--------|
E|--------|--------|--------|--------|--------|--------|--------|--------|--------|


G|--------|
D|--------|
A|--------|
E|--------|